Oops, an error
Loading. Please wait.

Circus Tab

ver2
ver2

Whole song

Interactive

More versions @911Tabs.com
512 views 12 this week
1 commentread comment
1 2 3 4 5
excellent!
x 1
Autoscroll
+/-
esc
set tempo
stop
Contributor
Difficulty
intermediate
Hey! There's an official Ultimate Guitar app which is ideal
for learning songs when you're away from computer. Get the app
WARNING: You are trying to view
                                    content from Ultimate-Guitar.com
                                    in an unauthorized application,
                                    which is prohibited.

                                    Please use an official Ultimate
                                    Guitar Tabs application for iPhone,
                                    iPad or Android to access legitimate
                                    chords, guitar, bass, and drum tabs
                                    from Ultimate-Guitar.com database.

                                    Type "ultimate guitar tabs" in Apple
                                    App Store's or Android Market's
                                    search to find the application.
Eric Clapton
Circus
Album "Pilgrim" 1998 ©

Tuning: normal

Intro: [play it 4 times]
======
e|-----------------------------|-----------------------------|
B|----0h5--------0h5-------5---|----0---------4---------0----|
D|----------6----------6-------|---------6---------6---------|
G|----6-------6------6-------6-|----4------4-----4--------4--|
A|--0-----0------0-------0-----|--0----0------0------0-------|
E|-----------------------------|-----------------------------|

e|-----------------------------|-----------------------------|
B|----4---------4---------4----|----4h5-----------4----------|
D|---------5--------5----------|-----------6------------4----|
G|----4------4----4---------4--|----4h6------6----4-------4--|
A|--0----0------0------0-------|--4------4------2----2-------|
E|-----------------------------|-----------------------------|


Verse: [play it 4 times]
======
      "Little man with his eyes on fire .. "
e|-----------------------------|-----------------------------|
B|----0h5--------0h5-------5---|----0---------4---------0----|
D|----------6----------6-------|---------6---------6---------|
G|----6-------6------6-------6-|----4------4-----4--------4--|
A|--0-----0------0-------0-----|--0----0------0------0-------|
E|-----------------------------|-----------------------------|

e|-----------------------------|-----------------------------|
B|----4---------4---------4----|----4h5-----------4----------|
D|---------5--------5----------|-----------6------------4----|
G|----4------4----4---------4--|----4h6------6----4-------4--|
A|--0----0------0------0-------|--4------4------2----2-------|
E|-----------------------------|-----------------------------|


Chorus:
=======
  "and it's sad .. "
e|-----------------------------|-----------------------------|
B|----2---------2--------2-----|----4---------4--------4-----|
D|---------1---------1---------|---------4---------4---------|
G|----2------2-----2-------2---|----4------4-----4-------4---|
A|--0----0------0------0-------|--2----2------2------2-------|
E|-----------------------------|-----------------------------|

e|-----------------------------|-----------------------------|
B|----4---------4--------4-----|----4h5-----------4----------|
D|---------2---------2---------|-----------6------------4----|
G|----4------4-----4-------4---|----4h6------6----4-------4--|
A|--3----3------3------3-------|--4------4------2----2-------|
E|-----------------------------|-----------------------------|

e|-----------------------------|-----------------------------|
B|----2---------2--------2-----|----4---------4---------4----|
D|---------1---------1---------|---------5--------5----------|
G|----2------2-----2-------2---|----4------4----4---------4--|
A|--0----0------0------0-------|--0----0------0------0-------|
E|-----------------------------|-----------------------------|
                                        " .. circus left town"
e|-----------------------------|------------2~~~~---|-9~~----|
B|----3-----------3------------|------------2~~~~---|--------|
D|---------2-----------2-------|-------1----2~~~~---|--------|
G|----4------4----4------4-----|-----2------0~~~~---|--------|
A|--2----2---------------------|--0-----------------|--------|
E|--------------0----0---------|--------------------|--------|

e|--9-----9-----9-----9-----9--|----9-----9-----9-----9------|
B|----9-----9-----9-----9-----7|------7-----7-----7-----7----|
D|------9-----9-----9-----9----|--8-----8-----8-----8-----8--|
G|-----------------------------|-----------------------------|
A|-----------------------------|-----------------------------|
E|-----------------------------|-----------------------------|

e|--8-----8-----8--------8-------9~--9--7--9--9s11--|-9~~----|
B|----7-----7-----7--------7------------------------|--------|
D|------8-----8--------8-----8s9--------------------|--------|
G|--------------------------------------------------|--------|
A|--------------------------------------------------|--------|
E|--------------------------------------------------|--------|

e|--9-----9-----9-----9-----9--|----9-----9-----9-----9------|
B|----9-----9-----9-----9-----7|------7-----7-----7-----7----|
D|------9-----9-----9-----9----|--8-----8-----8-----8-----8--|
G|-----------------------------|-----------------------------|
A|-----------------------------|-----------------------------|
E|-----------------------------|-----------------------------|

e|--8-----8-----8--------8-------9~--9--7--9--9s11-----------|
B|----7-----7-----7--------7---------------------------------|
D|------8-----8--------8-----8s9-----------------------------|
G|-----------------------------------------------------------|
A|-----------------------------------------------------------|
E|-----------------------------------------------------------|


Verse: [play it 4 times]
======
       "Little man with his heart so pure .. "
e|-----------------------------|-----------------------------|
B|----0h5--------0h5-------5---|----0---------4---------0----|
D|----------6----------6-------|---------6---------6---------|
G|----6-------6------6-------6-|----4------4-----4--------4--|
A|--0-----0------0-------0-----|--0----0------0------0-------|
E|-----------------------------|-----------------------------|

e|-----------------------------|-----------------------------|
B|----4---------4---------4----|----4h5-----------4----------|
D|---------5--------5----------|-----------6------------4----|
G|----4------4----4---------4--|----4h6------6----4-------4--|
A|--0----0------0------0-------|--4------4------2----2-------|
E|-----------------------------|-----------------------------|
 

Chorus:
=======
     "And it's sad .. "
e|-----------------------------|-----------------------------|
B|----2---------2--------2-----|----4---------4--------4-----|
D|---------1---------1---------|---------4---------4---------|
G|----2------2-----2-------2---|----4------4-----4-------4---|
A|--0----0------0------0-------|--2----2------2------2-------|
E|-----------------------------|-----------------------------|

e|-----------------------------|-----------------------------|
B|----4---------4--------4-----|----4h5-----------4----------|
D|---------2---------2---------|-----------6------------4----|
G|----4------4-----4-------4---|----4h6------6----4-------4--|
A|--3----3------3------3-------|--4------4------2----2-------|
E|-----------------------------|-----------------------------|

e|-----------------------------|-----------------------------|
B|----2---------2--------2-----|----4---------4---------4----|
D|---------1---------1---------|---------5--------5----------|
G|----2------2-----2-------2---|----4------4----4---------4--|
A|--0----0------0------0-------|--0----0------0------0-------|
E|-----------------------------|-----------------------------|
                                            " .. circus left town"
e|-----------------------------|----------------2~~~~--------|
B|----3-----------3------------|-----2----------2~~~~--------|
D|---------2-----------2-------|----------1-----2~~~~--------|
G|----4------4----4------4-----|-----2----------0~~~~--------|
A|--2----2---------------------|--0-----0----2---------------|
E|--------------0----0---------|-----------------------------|


Guitar Solo / Bright:
=====================
e|-----------------------------|-----------------------------|
B|-----------------------------|-----------------------------| Lead 
D|--9--------------------7s9---|--7--------------------------| Guitar
G|-----------------------------|-----------------------------|
A|-----------------------------|-----------------------------|
E|-----------------------------|-----------------------------|
+   1.....2......3.......4.....+  1....2......3......4.......+ bit
e|-----------------------------|-----------------------------|
B|----0h5--------0h5-------5---|----0---------4---------0----| Second 
D|----------6----------6-------|---------6---------6---------| Guitar
G|----6-------6------6-------6-|----4------4-----4--------4--|
A|--0-----0------0-------0-----|--0----0------0------0-------|
E|-----------------------------|-----------------------------|


e|-----------------------------|-----------------------------|
B|-----------------------------|-----------------------------| Lead
D|---7---7---7-----------7s9---|--5-------5h7p7-4------------| Guitar
G|-----------------------------|-------------------6--4------|
A|-----------------------------|-----------------------------|
E|-----------------------------|-----------------------------|
 +  1....2......3......4.......+  1......2......3....4.......+ bit
e|-----------------------------|-----------------------------|
B|----4---------4---------4----|----4h5-----------4----------| Second
D|---------5--------5----------|-----------6------------4----| Guitar
G|----4------4----4---------4--|----4h6------6----4-------4--|
A|--0----0------0------0-------|--4------4------2----2-------|
E|-----------------------------|-----------------------------|


e|-----------------------------|-----------------------------|
B|-----------------------------|-----------------------------| Lead 
D|--9--------------------7s9---|--7--------------------------| Guitar
G|-----------------------------|-----------------------------|
A|-----------------------------|-----------------------------|
E|-----------------------------|-----------------------------|
+   1.....2......3.......4.....+  1....2......3......4.......+ bit
e|-----------------------------|-----------------------------|
B|----0h5--------0h5-------5---|----0---------4---------0----| Second 
D|----------6----------6-------|---------6---------6---------| Guitar
G|----6-------6------6-------6-|----4------4-----4--------4--| 
A|--0-----0------0-------0-----|--0----0------0------0-------|
E|-----------------------------|-----------------------------|


e|-----------------------------|-----------------------------|
B|-----------------------------|-----------------------------| Lead 
D|---7---7---7-----------7s9---|--5-------5h7p7-4------------| Guitar
G|-----------------------------|-------------------6--4------|
A|-----------------------------|-----------------------------|
E|-----------------------------|-----------------------------|
 +  1....2......3......4.......+  1......2......3....4.......+ bit
e|-----------------------------|-----------------------------|
B|----4---------4---------4----|----4h5-----------4----------| Second
D|---------5--------5----------|-----------6------------4----| Guitar
G|----4------4----4---------4--|----4h6------6----4-------4--|
A|--0----0------0------0-------|--4------4------2----2-------|
E|-----------------------------|-----------------------------|


Chorus:
=======
     "And it's sad .. "
e|-----------------------------|-----------------------------|
B|----2---------2--------2-----|----4---------4--------4-----|
D|---------1---------1---------|---------4---------4---------|
G|----2------2-----2-------2---|----4------4-----4-------4---|
A|--0----0------0------0-------|--2----2------2------2-------|
E|-----------------------------|-----------------------------|

e|-----------------------------|-----------------------------|
B|----4---------4--------4-----|----4h5-----------4----------|
D|---------2---------2---------|-----------6------------4----|
G|----4------4-----4-------4---|----4h6------6----4-------4--|
A|--3----3------3------3-------|--4------4------2----2-------|
E|-----------------------------|-----------------------------|

e|-----------------------------|-----------------------------|
B|----2---------2--------2-----|----4---------4---------4----|
D|---------1---------1---------|---------5--------5----------|
G|----2------2-----2-------2---|----4------4----4---------4--|
A|--0----0------0------0-------|--0----0------0------0-------|
E|-----------------------------|-----------------------------|

e|-----------------------------|----------------2~~~~--------|
B|----3-----------3------------|-----2----------2~~~~--------|
D|---------2-----------2-------|----------1-----2~~~~--------|
G|----4------4----4------4-----|-----2----------0~~~~--------|
A|--2----2---------------------|--0-----0----2---------------|
E|--------------0----0---------|-----------------------------|


Ending:  
=======
e|-----------------------------|-----------------------------|
B|----0h5--------0h5-------5---|----0---------4---------0----|
D|----------6----------6-------|---------6---------6---------|
G|----6-------6------6-------6-|----4------4-----4--------4--| __
A|--0-----0------0-------0-----|--0----0------0------0-------|   |
E|-----------------------------|-----------------------------|   |
                                                                 |=> x2
e|-----------------------------|-----------------------------|   |
B|----4---------4---------4----|----4h5-----------4----------| __|
D|---------5--------5----------|-----------6------------4----| 
G|----4------4----4---------4--|----4h6------6----4-------4--|
A|--0----0------0------0-------|--4------4------2----2-------|
E|-----------------------------|-----------------------------|

e|-----------------------------|-----------------------------|
B|----0h5--------0h5-------5---|--5~~~-----------------------|
D|----------6----------6-------|--6~~~-----------------------|
G|----6-------6------6-------6-|--6~~~-----------------------| 
A|--0-----0------0-------0-----|--0~~------------------------|
E|-----------------------------|-----------------------------|   


 --------------------
| h   hammer-on      |
| p   pull-off       |
| b   bend           |
| r   bend release   |
| s   slide up/down  |
| ~   vibrato        |
 --------------------


#PlaceForTab

Tabbed by: OfirG

please rate
comments
We did not receive enough feedback on this tab! Please rate:
print report bad tab
1 2 3 4 5
1 comment total.
0 reply
ksh2012 wrote on February 5 2013, 05:13 am

good tab!
good tab!

I want to post or [tab]
guest
You may want to rate the tab now too:
select rating
Please do not post tabs as comments. Select "correction" instead!