Oops, an error
Loading. Please wait.

Hey Hey Acoustic Tab

ver2
ver2

Whole song

More versions @911Tabs.com
5,885 views 6 this week
no commentswrite comment
1 2 3 4 5
accurate
x 4
add to favorites launch autoscroll
font size
0
reset
Autoscroll
+/-
esc
set tempo
stop
Contributor
WARNING: You are trying to view
                                    content from Ultimate-Guitar.com
                                    in an unauthorized application,
                                    which is prohibited.

                                    Please use an official Ultimate
                                    Guitar Tabs application for iPhone,
                                    iPad or Android to access legitimate
                                    chords, guitar, bass, and drum tabs
                                    from Ultimate-Guitar.com database.

                                    Type "ultimate guitar tabs" in Apple
                                    App Store's or Android Market's
                                    search to find the application.
  Hey, Hey (Unplugged) - Eric Clapton

Tabbed by Augustin Irving
{Dedicated to Steve Mayo for a great 2 weeks :o) }

   4/4

E ||------|-----3b--0-----9-|---9-----0-------|
B ||------|-----3b--0-----8-|---8---8-0-0-----|
G ||------|-----------------|-----------------|
D ||------|-----------------|-----------------|
A ||-2//7-|-------------0---|-0---0---0---2//7|
E ||------|-0---0---0-------|-----------------|

E |-----3b--0-----9-|---9-----0-------|
B |---0-3b--0-----8-|---8---8-0-0-----|
G |-----------------|-----------------|
D |-----------------|-----------------|
A |-------------0---|-0---0---0---7\\-|
E |-0---0---0-------|-----------------|
 PM             .     .   .   .

E |-----3---2--0--3-|---3--0--2--0----|
B |---2-2---2--0--2-|---2--0--2--0----|
G |-----------------|-----------------|
D |-----------------|-----------------|
A |-0---0---0---0---|-0---0---0---2//7|
E |-----------------|-----------------|

E |-----3b--0-----9-|---9-----0-------|
B |---0-3b--0-----8-|---8---8-0-0-----|
G |-----------------|-----------------|
D |-----------------|-------------2/4-|
A |-------------0---|-0---0---0-------|
E |-0---0---0-------|-----------------|

E |-----5---7-5-----|-----3p2p0-2p0---|
B |---4---4---------|---2-------------|
G |-----------------|-----------------|
D |-4---4---4---4\2-|-----------------|
A |-----------------|-0---0-----0-----|
E |-----------------|---------------0-|

E |-------2/4---0---2p0---|-0--------0----0-------|
B |-----0-----0---0-----2-|----------0------------|
G |-0h1-------------------|-----0h1---------------|
D |-----------------------|-----------------------|
A |-----------------------|------------------2//7-|
E |-----------------------|-----------------------|

E |-----3b--0-----9-|---9-----0-------|
B |-----3b--0-----8-|---8---8-0-0-----|
G |-----------------|-----------------|
D |-----------------|-----------------|
A |-------------0---|-0---0---0---2\\7|
E |-0---0---0-------|-----------------|

E |-----3b--0-----9-|--9-----0--------|
B |---0-3b--0-----8-|--8---8-0-0------|
G |-----------------|-----------------|
D |-----------------|-----------------|
A |-------------0---|0---0---0----7\\-|
E |-0---0---0-------|-----------------|
PM              .    .   .   .

E |-----3---2--0--3-|---3--0--2--0----|
B |---2-2---2--0--2-|---2--0--2--0----|
G |-----------------|-----------------|
D |-----------------|-----------------|
A |-0---0---0---0---|-0---0---0---2//7|
E |-----------------|-----------------|

E |-----3b--0-----9-|---9-----0-------|
B |-----3b--0-----8-|---8---8-0-0-----|
G |-----------------|-----------------|
D |-----------------|-------------2/4-|
A |-------------0---|-0---0---0-------|
E |-0---0---0-------|-----------------|

E |-----5---7-5-----|-----3p2p0-2p0---|
B |---4---4---------|---2-------------|
G |-----------------|-----------------|
D |-4---4---4---4\2-|-----------------|
A |-----------------|-0---0-----0-----|
E |-----------------|---------------0-|

E |-------2/4---0---2p0---|-0--------0----0------|
B |-----0-----0---0-----2-|----------0-----------|
G |-0h1-------------------|-----0h1--------------|
D |-----------------------|----------------------|
A |-----------------------|----------------------|
E |-----------------------|-------------------0--|

E |-----------------|-----------------|
B |-------3---------|-------3-------0-|
G |-----1---------1-|-----1-----------|
D |-------------2---|-----------2-----|
A |-----------------|-----------------|
E |-0---0---0---0---|-0---0---0---0---|

E |-----------------|-----------0-----|
B |-----2/3-3-3b---3|---3---0-3-------|
G |-----1---1-1b---1|---1---1-1-------|
D |-----------------|-----------------|
A |-----------------|-------------7\\-|
E |-0---0-----0---0-|-0---0---0-------|

E |-------3---------|-------3---------|
B |----2--2-------2-|----2--2-------0-|
G |------------2----|-----------2-----|  
D |-----------------|-----------------|
A |-0---0---0---0---|-0---0---0---0---|
E |-----------------|-----------------|

E |-----------------|-----------0-----|
B |-----2/3-3-3b---3|---3---0-3---2/4-|
G |-----1---1-1b---1|---1---1-1-------|
D |-----------------|-----------------|
A |-----------------|-------------0---|
E |-0---0-----0---0-|-0---0---0-------|

E |-----7-5b--------|-----3-3b--------|
B |-4-0---------4\2-|-2---2-2b--------|
G |-----------------|---2-------------|
D |-----------------|-----------------|
A |-2-----------2---|-0---0---0---0---|
E |-----------------|-----------------|

E |-----2/4---0---2p0---|-0--------0----0-----|
B |---0-----0---0-----2-|----------0----------|
G |---------------------|-----0h1-------------|
D |---------------------|---------------------|
A |---------------------|-----------------2/7-|
E |-0-------------------|---------------------|

E |-----3b--0-----9-|---9-----0-------|
B |-----3b--0-----8-|---8---8-0-0-----|
G |-----------------|-----------------|
D |-----------------|-----------------|
A |-------------0---|-0---0---0---2\\7|
E |-0---0---0-------|-----------------|

E |-----3b--0-----9-|---9-----0-------|
B |---0-3b--0-----8-|---8---8-0-0-----|
G |-----------------|-----------------|
D |-----------------|-----------------|
A |-------------0---|-0---0---0---7\\-|
E |-0---0---0-------|-----------------|
PM              .     .   .   .

E |-----3---2--0--3-|---3--0--2--0----|
B |---2-2---2--0--2-|---2--0--2--0----|
G |-----------------|-----------------|
D |-----------------|-----------------|
A |-0---0---0---0---|-0---0---0---2//7|
E |-----------------|-----------------|

E |-----3b--0-----9-|---9-----0-------|
B |---0-3b--0-----8-|---8---8-0-0-----|
G |-----------------|-----------------|
D |-----------------|-------------2/4-|
A |-------------0---|-0---0---0-------|
E |-0---0---0-------|-----------------|

E |-----5---7-5-----|-----3p2p0-2p0---|
B |---4---4---------|---2-------------|
G |-----------------|-----------------|
D |-4---4---4---4\2-|-----------------|
A |-----------------|-0---0-----0-----|
E |-----------------|---------------0-|

E |-------2/4---0---2p0---|-0---------0----0------|
B |-----0-----0---0-----2-|-----------0-----------|
G |-0h1-------------------|-----0h1---------------|
D |-----------------------|-----------------------|
A |-----------------------|-----------------------|
E |-----------------------|--------------------0--|

E |-----------------|-----------------|
B |---3---3---------|---3---3-------0-|
G |-----------1---1-|-----------------|
D |-----------------|-----------------|
A |-----------------|-----------------|
E |-0---0---0---0---|-0---0---0---0---|

E |-----------------|-----------0-----|
B |-----2/3-3-3b---3|---3---0-3-------|
G |-----1---1-1b---1|---1---1-1-------|
D |-----------------|-----------------|
A |-----------------|-------------2\0-|
E |-0---0-----0---0-|-0---0---0-------|

E |-------3b--------|-------3b--------|
B |----2----------2-|----2------------|
G |------------2----|-----------2-----|  
D |-----------------|-----------------|
A |-0---0---0---0---|-0---0---0---0---|
E |-----------------|-----------------|

E |-----------------|-----------0-----|
B |-----2/3-3-3b---3|---3---0-3-------|
G |-----1---1-1b---1|---1---1-1-------|
D |-----------------|-----------------|
A |-----------------|--------------0--|
E |-0---0-----0---0-|-0---0---0-------|

E |-----7-5b--------|---3---3b--------|
B |---0-------------|---2---2b--------|
G |-----------------|-----------------|
D |-----------------|-----------------|
A |-2--------2---2--|-0---0---0---0---|
E |-----7-----------|-----------------|

E |-----2/4---0---2p0---|-0--------0---0------|
B |---0-----0---0-----2-|----------0----------|
G |---------------------|-----0h1-------------|
D |---------------------|---------------------|
A |---------------------|----------------2//7-|
E |-0-------------------|---------------------|

E |-----3b--0-----9-|---9-----0-------|
B |-----3b--0-----8-|---8---8-0-0-----|
G |-----------------|-----------------|
D |-----------------|-----------------|
A |-------------0---|-0---0---0---2//7|
E |-0---0---0-------|-----------------|

E |-----3b--0-----9-|---9-----0-------|
B |-----3b--0-----8-|---8---8-0-0-----|
G |-----------------|-----------------|
D |-----------------|-----------------|
A |-------------0---|-0---0---0---7\\-|
E |-0---0---0-------|-----------------|
PM              .     .   .   .

E |-----3---2--0--3-|---3---0-2-0-----|
B |---2-2---2--0--2-|---2---0-2-0-----|
G |-----------------|-----------------|
D |-----------------|-----------------|
A |-0---0---0---0---|-0---0---0---2//7|
E |-----------------|-----------------|

E |-----3b--0-----9-|---9-----0-------|
B |---0-3b--0-----8-|---8---8-0-0-----|
G |-----------------|-----------------|
D |-----------------|-------------2/4-|
A |-------------0---|-0---0---0-------|
E |-0---0---0-------|-----------------|

E |-----5---7-5-----|-----3p2p0-2p0---|
B |---4---4---------|---2-------------|
G |-----------------|-----------------|
D |-4---4---4---4\2-|-----------------|
A |-----------------|-0---0-----0-----|
E |-----------------|---------------0-|

E |-------2/4---0---2p0---|-0---------0-----0-----|
B |-----0-----0---0-----2-|-----------0-----------|
G |-0h1-------------------|-----0h1---------------|
D |-----------------------|-----------------------|
A |-----------------------|---------------------2-|
E |-----------------------|-----------------------|

E |-----------------|-----------------|
B |---3---3---------|---3---3---------|
G |-----------1---1-|-----------------|
D |-----------------|-----------------|
A |-----------------|-----------------|
E |-0---0---0---0---|-0---0---0---0---|

E |-----------------|-----------0-----|
B |-----2/3-3-----3-|---3-3-0-3-------|
G |-----1---1-----1-|---1-1-1-1-------|
D |-----------------|-----------------|
A |-----------------|-------------2\0-|
E |-0---0----0---0--|-0---0---0-------|

E |-------3---------|-------3---------|
B |----2----------2-|----2------------|
G |------------2----|-----------2-----|  
D |-----------------|-----------------|
A |-0---0---0---0---|-0---0---0---0---|
E |-----------------|-----------------|

E |-----------------|------------0----|
B |-----2/3-3-3----3|----3---0-3------|
G |-----1---1-1----1|----1---1-1------|
D |-----------------|-----------------|
A |-----------------|--------------0--|
E |-0---0-----0---0-|--0---0---0------|

E |-----/7-5b-------|---3---3b--------|
B |---0-------------|---2---2b--------|
G |-----------------|-----------------|
D |-----------------|-----------------|
A |-2------------2--|-0---0---0---0---|
E |-----------------|-----------------|

E |-----2/4---0---2p0---|-0--------0---0------|
B |---0-----0---0-----2-|----------0----------|
G |---------------------|-----0h1-------------|
D |---------------------|---------------------|
A |---------------------|----------------2//7-|
E |-0-------------------|---------------------|

E |-----3b--0-----9-|---9-----0-------|
B |-----3b--0-----8-|---8---8-0-0-----|
G |-----------------|-----------------|
D |-----------------|-----------------|
A |-------------0---|-0---0---0---2//7|
E |-0---0---0-------|-----------------|

E |-----3b--0-----9-|---9-----0-------|
B |---0-3b--0-----8-|---8---8-0-0-----|
G |-----------------|-----------------|
D |-----------------|-----------------|
A |-------------0---|-0---0---0---7\\-|
E |-0---0---0-------|-----------------|
PM              .     .   .   .

E |-----3---2--0--3-|---3---0-2-0-----|
B |---2-2---2--0--2-|---2---0-2-0-----|
G |-----------------|-----------------|
D |-----------------|-----------------|
A |-0---0---0---0---|-0---0---0---2//7|
E |-----------------|-----------------|

E |-----3b--0-----9-|---9-----0-------|
B |---0-3b--0-----8-|---8---8-0-0-----|
G |-----------------|-----------------|
D |-----------------|-------------2/4-|
A |-------------0---|-0---0---0-------|
E |-0---0---0-------|-----------------|

E |-----5---7-5-----|-----3p2p0-2p0---|
B |---4---4---------|---2-------------|
G |-----------------|-----------------|
D |-4---4---4---4\2-|-----------------|
A |-----------------|-0---0-----0-----|
E |-----------------|---------------0-|

E |-------2/4---0---2p0---|-0--------0---0------|
B |-----0-----0---0-----2-|----------0----------|
G |-0h1-------------------|-----0h1-------------|
D |-----------------------|---------------------|
A |-----------------------|----------------2//7-|
E |-----------------------|---------------------|

E |-----------------|-----------------|
B |-------3---------|-------3---------|
G |---1-----------1-|---1-------------|
D |-----------2-----|-----------2-----|
A |-----------------|-----------------|
E |-0---0---0---0---|-0---0---0---0---|

E |-----------------|------------0----|
B |-----2/3-3-3b---3|----3-3-0-3------|
G |-----1---1-1b---1|----1-1-1-1------|
D |-----------------|-----------------|
A |-----------------|--------------2~-|
E |-0---0-----0---0-|--0---0---0------|

E |-------3---------|-------3---------|
B |----2----------2-|----2------------|
G |------------2----|-----------2-----|  
D |-----------------|-----------------|
A |-0---0---0---0---|-0---0---0---0---|
E |-----------------|-----------------|

E |-----------------|-----------0-----|
B |-----2/3-3------3|---3---0-3-------|
G |-----1---1------1|---1---1-1-----2-|
D |-----------------|-----------------|
A |-----------------|-------------2---|
E |-0---0-----0---0-|-0---0---0-------|

E |---7---5b--------|---3---3b--------|
B |-----------------|---2---2b--------|
G |-----------------|-----------------|
D |-----------------|-----------------|
A |-2---------------|-0---0---0---0---|
E |-----7---7---7---|-----------------|


E |-----2/4---0---2p0---|-0--------0---0------|
B |---0-----0---0-----2-|----------0----------|
G |---------------------|-----0h1-------------|
D |---------------------|---------------------|
A |---------------------|----------------2//7-|
E |-0-------------------|---------------------|

E |-----3b--0-----9-|---9-----0-------|
B |-----3b--0-----8-|---8---8-0-0-----|
G |-----------------|-----------------|
D |-----------------|-----------------|
A |-------------0---|-0---0---0---2//7|
E |-0---0---0-------|-----------------|

E |-----3b--0-----9-|---9-----0-------|
B |---0-3b--0-----8-|---8---8-0-0-----|
G |-----------------|-----------------|
D |-----------------|-----------------|
A |-------------0---|-0---0---0---7\\-|
E |-0---0---0-------|-----------------|
PM              .     .   .   .   

E |-----3---2--0--3-|---3---0-2-0-----|
B |---2-2---2--0--2-|---2---0-2-0-----|
G |-----------------|-----------------|
D |-----------------|-----------------|
A |-0---0---0---0---|-0---0---0---2//7|
E |-----------------|-----------------|

E |-----3b--0-----9-|---9-----0-------|
B |---0-3b--0-----8-|---8---8-0-0-----|
G |-----------------|-----------------|
D |-----------------|-------------2/4-|
A |-------------0---|-0---0---0-------|
E |-0---0---0-------|-----------------|

E |-----5---7-5-----|-----3p2p0-2p0---|
B |---4---4---------|---2-------------|
G |-----------------|-----------------|
D |-4---4---4-------|-----------------|
A |-------------2p0-|-0---0-----0-----|
E |-----------------|---------------0-|

E |------2/4----0--2p0----|-0---------0-----0-----|
B |------0----0---------2-|-----------0-----0-----|
G |-0h1-------------------|-----0h1---------------|
D |-----------------------|-----------------------|
A |-----------------------|-----------------------|
E |-----------------------|-------------------0---|

E |-0---0-0---0-----------||
B |-2---0-2---3~~~~~~~----||
G |-1---1-1---1~~~~~~~----||
D |-----------------------||
A |-----------------------||
E |-0-----0-0-0---------0-||
I want to post or [tab]
guest
You may want to rate the tab now too:
select rating
Please do not post tabs as comments. Select "correction" instead!