Oops, an error
Loading. Please wait.

Cliffs Of Dover Tab

ver8
2,943 views 1 this week
3 commentsread comments
1 2 3 4 5
poor
x 4
Autoscroll
+/-
esc
set tempo
stop
Contributor
Difficulty
advanced
WARNING: You are trying to view
                                    content from Ultimate-Guitar.com
                                    in an unauthorized application,
                                    which is prohibited.

                                    Please use an official Ultimate
                                    Guitar Tabs application for iPhone,
                                    iPad or Android to access legitimate
                                    chords, guitar, bass, and drum tabs
                                    from Ultimate-Guitar.com database.

                                    Type "ultimate guitar tabs" in Apple
                                    App Store's or Android Market's
                                    search to find the application.
HRY I FOUND THIS TAB ON ANOTHER SITE I DIDNT WRITE IT!
GUITAR 1

                                                PM PM PM PM   PM
     S S E  E  S S S S S S S S S S    S S E  E  S  S  S  S  E  S  S S S
E||--------------------------------|----------------------------------|
B||--------------------------------|----------------------------------|
G||--------------------------------|----------------------------------|
D||--------------------------------|------------------------7---------|
A||--------------------------------|------------------------6---------|
E||--------------------4-5---4-----|------------------------5----4----|
B||7-6-0-----0-0-6-7-----7---6-0---|--7-6-0-----0--0--0--0-----0---2-0|


                                             PM PM PM PM PM PM
                                             |--3--|  |--3--|
  S S E  E  S S S S S S S S S S    S S E  E  S  S  S  E  E  E  Q
--------------------------------|-----------------------------------|
--------------------------------|-----------------------------------|
--------------------------------|-----------------------------------|
--------------------------------|------------------------------6----|
--------------------------------|------------------------------5----|
--------------------1-2---1-----|------------------------------4----|
--7-6-0-----0-0-3-4-----4---3-0-|--4-3-0-----0--0--0--0--0--0-------|


                                             PM PM PM PM    PM
  S S E  E  S S S S S S S S S S    S S E  E  S  S  S  S  E  S  S S S
--------------------------------|------------------------------------|
--------------------------------|------------------------------------|
--------------------------------|------------------------------------|
--------------------------------|------------------------7-----------|
--------------------------------|------------------------6-----------|
--------------------4-5---4-----|------------------------5-----4-----|
--7-6-0-----0-0-6-7-----7---6-0-|--7-6-0-----0--0--0--0-----0----2-0-|


                                             PM PM     PM PM
  S S E  E  S S S S S S S S S S    S S E  E  S  S  S S S  S  S E.
--------------------------------|-----------------------------------|
--------------------------------|-----------------------------------|
--------------------------------|-----------------------------------|
--------------------------------|-----------------------------------|
--------------------------------|-----------------------------------|
--------------------1-2---1-----|------------------7---------4------|
--7-6-0-----0-0-3-4-----4---3-0-|--4-3-0-----0--0----6-0--0----3~---|


                                             PM PM PM PM    PM
  S S E  E  S S S S S S S S S S    S S E  E  S  S  S  S  E  S  S S S
--------------------------------|------------------------------------|
--------------------------------|------------------------------------|
--------------------------------|------------------------------------|
--------------------------------|------------------------7-----------|
--------------------------------|------------------------6-----------|
--------------------4-5---4-----|------------------------5-----4-----|
--7-6-0-----0-0-6-7-----7---6-0-|--7-6-0-----0--0--0--0-----0----2-0-|


  S S E  E  S S S S S S S S S S



--------------------------------|
--------------------------------|
--------------------------------|
--------------------------------|
--------------------------------|
--------------------1-2---1-----|
--7-6-0-----0-0-3-4-----4---3-0-|


            PM PM PM PM PM PM    PM PM PM
            |--3--|  |--3--|     |--3--|
  S S E  E  S  S  S  E  E  E  E  S  S  S  E.  S
-------------------------------------------------|
-------------------------------------------------|
-------------------------------------------------|
------------------------------6-----------7---L\-|
------------------------------5-----------6---L\-|
------------------------------4-----------5---L\-|
--4-3-0-----0--0--0--0--0--0-----0--0--0---------|


    PM PM PM PM PM   PM PM PM PM PM   PM PM PM
  S S  S  S  S  S  S S  S  S  S  S  S S  S  S
-----------------------------------------------|
-----------------------------------------------|
-----------------------------------------------|
-----------------------------------------------|
--6----------------4----------------2----------|
----4-----5--4-------2-----4--2-------1--0-----|
-------0--------0-------0--------0----------0--|


    PM PM PM PM PM   PM PM PM PM PM   PM PM PM   PM PM PM
  S S  S  S  S  S  S S  S  S  S  S  S S  S  S  S S  S  S
----------------------------------------------------------|
----------------------------------------------------------|
----------------------------------------------------------|
----------------------------------------------------------|
--6----------------4----------------2---------------------|
----4-----5--4-------2-----4--2-------1--0-----4----------|
-------0--------0-------0--------0----------0----3--2--0--|


  S S S S S S S S S S S S S S S S    S S S S S S S S S S S S S S S S
----------------------------------|----------------------------------|
----------------------------------|----------------------------------|
----------------------------------|----------------------------------|
----------------------------------|----------------------------------|
----------------------------------|----------------------------------|
------4---4-------4---4-------5---|------4---4-------4---4-------7---|
--0-3---3---3-0-3---3---3-0-3---6-|--0-3---3---3-0-3---3---3-0-3---6-|


    PM PM PM PM PM   PM PM PM PM PM   PM PM PM
  S S  S  S  S  S  S S  S  S  S  S  S S  S  S
-----------------------------------------------|
-----------------------------------------------|
-----------------------------------------------|
-----------------------------------------------|
--6----------------4----------------2----------|
----4-----5--4-------2-----4--2-------1--0-----|
-------0--------0-------0--------0----------0--|


    PM PM PM PM PM   PM PM PM PM PM   PM PM PM   PM PM PM
  S S  S  S  S  S  S S  S  S  S  S  S S  S  S  S S  S  S
----------------------------------------------------------|
----------------------------------------------------------|
----------------------------------------------------------|
----------------------------------------------------------|
--6----------------4----------------2---------------------|
----4-----5--4-------2-----4--2-------1--0-----4----------|
-------0--------0-------0--------0----------0----3--2--0--|



  S S S S S S S S S S S S S S S S    S S S S S S S S S S S S S S S S
----------------------------------|----------------------------------|
----------------------------------|----------------------------------|
----------------------------------|----------------------------------|
----------------------------------|----------------------------------|
----------------------------------|----------------------------------|
------4---4-------4---4-------5---|------4---4-------4---4-------7---|
--0-3---3---3-0-3---3---3-0-3---6-|--0-3---3---3-0-3---3---3-0-3---6-|


  PM PM PM PM PM PM PM PM PM PM PM PM PM PM PM PM PM PM PM PM
  S  S  S  S  S  S  S  S  S  S  S  S  S  S  S  S  S  S  S  S
--------------------------------------------------------------|
--------------------------------------------------------------|
--------------------------------------------------------------|
--------------------------------------------------------------|
--------------------------------------------------------------|
--------1--2-----1--------------------1--2-----1--------------|
--3--4--------4-----3--4--3--0--3--4--------4-----3--4--3--0--|


  PM PM PM PM PM PM PM PM PM PM PM PM PM PM PM PM PM PM PM PM
  S  S  S  S  S  S  S  S  S  S  S  S  S  S  S  S  S  S  S  S
--------------------------------------------------------------|
--------------------------------------------------------------|
--------------------------------------------------------------|
--------------------------------------------------------------|
--------------------------------------------------------------|
--------4--5-----4--------------------4--5-----4--------------|
--6--7--------7-----6--7--6--0--6--7--------7-----6--7--6--0--|


  PM PM PM PM PM PM PM PM PM PM PM PM PM PM PM PM PM PM PM PM
  S  S  S  S  S  S  S  S  S  S  S  S  S  S  S  S  S  S  S  S
--------------------------------------------------------------|
--------------------------------------------------------------|
--------------------------------------------------------------|
--------------------------------------------------------------|
--------------------------------------------------------------|
--------1--2-----1--------------------1--2-----1--------------|
--3--4--------4-----3--4--3--0--3--4--------4-----3--4--3--0--|


  PM PM PM PM PM PM PM PM PM PM
  S  S  S  S  S  S  S  S  S  S  S S S S S S S S S S
----------------------------------------------------|
----------------------------------------------------|
----------------------------------------------------|
----------------------------------------------------|
----------------------------------------------------|
--------4--5-----4------------------4-5---4---------|
--6--7--------7-----6--7--6--0--6-7-----7---6-7-6-0-|


  S S S S S S S S S S S S S S S S    S S S S S S S S S S S S S S S S
----------------------------------|----------------------------------|
----------------------------------|----------------------------------|
----------------------------------|----------------------------------|
----------------------------------|----------------------------------|
----------------------------------|----------------------------------|
------4---4-------4---4-------5---|------4---4-------4---4-------7---|
--0-3---3---3-0-3---3---3-0-3---6-|--0-3---3---3-0-3---3---3-0-3---6-|


  S S S S S S S S S S S S S S S S    S S S S S S S S S S S S S S S S
----------------------------------|----------------------------------|
----------------------------------|----------------------------------|
----------------------------------|----------------------------------|
----------------------------------|----------------------------------|
----------------------------------|----------------------------------|
------4---4-------4---4-------5---|------4---4-------4---4-------7---|
--0-3---3---3-0-3---3---3-0-3---6-|--0-3---3---3-0-3---3---3-0-3---6-|


                                   PM PM     PM PM     PM

  E  W                   S S E  E  S  S  S S S  S  S S S  S
----------------------|-------------------------------------|
----------------------|-------------------------------------|
----------------------|-------------------------------------|
----------------------|-------------------------------------|
----------------------|-------------------------------------|
--2-------------------|----------------------------4--------|
--0-------------------|--7-6-0-----0--0--0-3-0--0----3-0--3-|


            PM PM     PM PM     PM                PM PM     PM PM     PM
  S S E  E  S  S  S S S  S  S S S  S    S S E  E  S  S  S S S  S  S S S  S
-------------------------------------|-------------------------------------|
-------------------------------------|-------------------------------------|
-------------------------------------|-------------------------------------|
-------------------------------------|-------------------------------------|
-------------------------------------|-------------------------------------|
--9-8-2---------------------4--------|--9-8-2---------------------7--------|
--7-6-0-----0--0--0-3-0--0----3-0--3-|--7-6-0-----0--0--0-3-0--0----6-5--0-|


                                             PM PM PM
                                             |--3--|
  S S E  E  S S S S S S S S S S    S S E  E  S  S  S  S S S S S E.
--------------------------------|------------------------------------|
--------------------------------|------------------------------------|
--------------------------------|------------------------------------|
--------------------------------|------------------------------------|
--------------------------------|------------------------------------|
--4-5-2-----------------1-------|--9-8-2--------------7-------5------|
--4-3-0-----0-0-0-3-0-0---3-0-3-|--7-6-0-----0--0--0----6-0-0---3~---|


            PM PM     PM PM     PM                PM PM     PM PM     PM
  S S E  E  S  S  S S S  S  S S S  S    S S E  E  S  S  S S S  S  S S S  S
-------------------------------------|-------------------------------------|
-------------------------------------|-------------------------------------|
-------------------------------------|-------------------------------------|
-------------------------------------|-------------------------------------|
-------------------------------------|-------------------------------------|
--9-8-2---------------------4--------|--9-8-2---------------------7--------|
--7-6-0-----0--0--0-3-0--0----3-0--3-|--7-6-0-----0--0--0-3-0--0----6-5--0-|


                                             PM PM PM PM PM PM
                                             |--3--|  |--3--|
  S S E  E  S S S S S S S S S S    S S E  E  S  S  S  E  E  E  Q
--------------------------------|-----------------------------------|
--------------------------------|-----------------------------------|
--------------------------------|-----------------------------------|
--------------------------------|------------------------------6----|
--------------------------------|------------------------------5----|
--4-5-2-----------------1-------|--9-8-2-----2--2--2--2--2--2--4----|
--4-3-0-----0-0-0-3-0-0---3-0-3-|--7-6-0-----0--0--0--0--0--0-------|


      PM     PM     PM     PM   PM PM PM
  S S S  S S S  S S S  S S S  S S  S  S
-----------------------------------------|
-----------------------------------------|
-----------------------------------------|
--6-------------4-------------2----------|
----4----5-4------2----4-2------1--0-----|
------0------0------0------0----------0--|
-----------------------------------------|


      PM     PM     PM     PM   PM PM PM
  S S S  S S S  S S S  S S S  S S  S  S  S S S S
-------------------------------------------------|
-------------------------------------------------|
-------------------------------------------------|
--6-------------4-------------2------------------|
----4----5-4------2----4-2------1--0-----4-------|
------0------0------0------0----------0----3-2-0-|
-------------------------------------------------|


  S S S S S S S S S S S S S S S S    S S S S S S S S S S S S S S S S S S S S
----------------------------------|------------------------------------------|
----------------------------------|------------------------------------------|
----------------------------------|------------------------------------------|
----------------------------------|------------------------------------------|
--------------------2-------------|--------------------2---------------------|
------4---4-------3---3---4-------|------4---4-------3---3---4-------4-------|
--0-2---2---2-0-2-------2---2-0-3-|--0-2---2---2-0-2-------2---2-0-3---2-0-3-|


      PM     PM     PM     PM   PM PM PM
  S S S  S S S  S S S  S S S  S S  S  S
-----------------------------------------|
-----------------------------------------|
-----------------------------------------|
--6-------------4-------------2----------|
----4----5-4------2----4-2------1--0-----|
------0------0------0------0----------0--|
-----------------------------------------|


      PM     PM     PM     PM   PM PM PM
  S S S  S S S  S S S  S S S  S S  S  S  S S S S
-------------------------------------------------|
-------------------------------------------------|
-------------------------------------------------|
--6-------------4-------------2------------------|
----4----5-4------2----4-2------1--0-----4-------|
------0------0------0------0----------0----3-2-0-|
-------------------------------------------------|


  S S S S S S S S S S S S S S S S
----------------------------------|
----------------------------------|
----------------------------------|
----------------------------------|
--------------------2-------------|
------4---4-------3---3---4-------|
--0-2---2---2-0-2-------2---2-0-3-|


  S S S S S S S S S S S S S S S S S S S S S S S S    Q.      S  S  E   Q    E
--------------------------------------------------|----------------------------|
--------------------------------------------------|----------------------------|
--------------------------------------------------|----------------------------|
--------------------------------------------------|---------12-12-12--11----9--|
--------------------2---------------2-------------|--2-------------------------|
------4---4-------3---3---4-------3---3---4-------|--2------10-10-10---9----7--|
--0-2---2---2-0-2-------2---2-0-2-------2---2-0-3-|--0-------------------------|


  H        H           Q.      S  S  E   Q    E     H        H
--------------------|----------------------------|--------------------|
--------------------|----------------------------|--------------------|
--------------------|----------------------------|--------------------|
--7-----------------|---------12-12-12--11----9--|--7--------5--------|
--7--------7--------|--2-------------------------|--7--------5--------|
--5--------7--------|--2------10-10-10---9----7--|--5--------3--------|
-----------5--------|--0-------------------------|--------------------|


  Q.      S  S  E   Q    E     H        H           H        H
----------------------------|--------------------|--------------------|
----------------------------|--------------------|--------------------|
----------------------------|--------------------|--------------------|
---------12-12-12--11----9--|--7-----------------|--------------------|
--2-------------------------|--7--------7--------|--9--------5--------|
--2------10-10-10---9----7--|--5--------7--------|--9--------5--------|
--0-------------------------|-----------5--------|--7--------3--------|




                              |-3-| |--3--|
  H        H           Q.     S S S E  E  E  E  E
--------------------|-------------------------------|
--------------------|-------------------------------|
--------------------|-------------------------------|
--------------------|-------------------------------|
--7--------4--------|--2------x-x-x-2--x--x---------|
--7--------4--------|--2------x-x-x-2--x--x--9--L\--|
--5--------2--------|--0------x-x-x-0--x--x--7--L\--|


            PM PM     PM PM     PM                PM PM     PM PM     PM
  S S E  E  S  S  S S S  S  S S S  S    S S E  E  S  S  S S S  S  S S S  S
-------------------------------------|-------------------------------------|
-------------------------------------|-------------------------------------|
-------------------------------------|-------------------------------------|
-------------------------------------|-------------------------------------|
-------------------------------------|-------------------------------------|
--9-8-2---------------------4--------|--9-8-2---------------------7--------|
--7-6-0-----0--0--0-3-0--0----3-0--3-|--7-6-0-----0--0--0-3-0--0----6-5--0-|


  S S E  E  S S S S S S S S S S
--------------------------------|
--------------------------------|
--------------------------------|
--------------------------------|
--------------------------------|
--4-5-2-----------------1-------|
--4-3-0-----0-0-0-3-0-0---3-0-3-|


            PM PM PM PM PM PM    PM PM PM
            |--3--|  |--3--|     |--3--|
  S S E  E  S  S  S  E  E  E  E  S  S  S  Q
-----------------------------------------------|
-----------------------------------------------|
-----------------------------------------------|
------------------------------6-----------7----|
------------------------------5-----------6----|
--9-8-2-----------------------4-----------5----|
--7-6-0-----0--0--0--0--0--0-----0--0--0-------|


            PM PM     PM PM     PM
  S S E  E  S  S  S S S  S  S S S  S
-------------------------------------|
-------------------------------------|
-------------------------------------|
-------------------------------------|
-------------------------------------|
--9-8-2---------------------4--------|
--7-6-0-----0--0--0-3-0--0----3-0--3-|


            PM PM     PM PM     PM
  S S E  E  S  S  S S S  S  S S S  S S S S S    S S E  E  S S S S S S S S S S
---------------------------------------------|--------------------------------|
---------------------------------------------|--------------------------------|
---------------------------------------------|--------------------------------|
---------------------------------------------|--------------------------------|
---------------------------------------------|--------------------------------|
--9-8-2---------------------7--------4-------|--4-5-2-----------------4-------|
--7-6-0-----0--0--0-3-0--0----6-5--6---3-2-3-|--4-3-0-----0-0-0-3-0-0---3-0-3-|


                |-3-| |-3-|     |--3-| |--3-|
  S S E  E  S S S S S S S S S S S S  S S S  S E    S S E
-----------------------------------------------------------|
-----------------------------------------------------------|
-----------------------------------------------------------|
----------------------------------------------7~-----------|
----------------------------6----------8-9-11-----11-9-8~--|
--9-8-2---------------6-7-9-----7-9-11---------------------|
--7-6-0-----0-0-6-7-9--------------------------------------|


      PM     PM     PM     PM   PM PM PM
  S S S  S S S  S S S  S S S  S S  S  S
-----------------------------------------|
-----------------------------------------|
-----------------------------------------|
--6-------------4-------------2----------|
----4----5-4------2----4-2------1--0-----|
------0------0------0------0----------0--|
-----------------------------------------|


      PM     PM     PM     PM   PM PM PM
  S S S  S S S  S S S  S S S  S S  S  S  S S S S
-------------------------------------------------|
-------------------------------------------------|
-------------------------------------------------|
--6-------------4-------------2------------------|
----4----5-4------2----4-2------1--0-----4-------|
------0------0------0------0----------0----3-2-0-|
-------------------------------------------------|


  S S S S S S S S S S S S S S S S    S S S S S S S S S S S S S S S S S S S S
----------------------------------|------------------------------------------|
----------------------------------|------------------------------------------|
----------------------------------|------------------------------------------|
----------------------------------|------------------------------------------|
--------------------2-------------|--------------------2---------------------|
------4---4-------3---3---4-------|------4---4-------3---3---4-------4-------|
--0-2---2---2-0-2-------2---2-0-3-|--0-2---2---2-0-2-------2---2-0-3---2-0-3-|


      PM     PM     PM     PM   PM PM PM
  S S S  S S S  S S S  S S S  S S  S  S
-----------------------------------------|
-----------------------------------------|
-----------------------------------------|
--6-------------4-------------2----------|
----4----5-4------2----4-2------1--0-----|
------0------0------0------0----------0--|
-----------------------------------------|


      PM     PM     PM     PM   PM PM PM
  S S S  S S S  S S S  S S S  S S  S  S  S S S S
-------------------------------------------------|
-------------------------------------------------|
-------------------------------------------------|
--6-------------4-------------2------------------|
----4----5-4------2----4-2------1--0-----4-------|
------0------0------0------0----------0----3-2-0-|
-------------------------------------------------|


  S S S S S S S S S S S S S S S S
----------------------------------|
----------------------------------|
----------------------------------|
----------------------------------|
--------------------2-------------|
------4---4-------3---3---4-------|
--0-2---2---2-0-2-------2---2-0-3-|


  S S S S S S S S S S S S S S S S S S S S S S S S    Q.      S  S  E   Q    E
--------------------------------------------------|----------------------------|
--------------------------------------------------|----------------------------|
--------------------------------------------------|----------------------------|
--------------------------------------------------|---------12-12-12--11----9--|
--------------------2---------------2-------------|--2-------------------------|
------4---4-------3---3---4-------3---3---4-------|--2------10-10-10---9----7--|
--0-2---2---2-0-2-------2---2-0-2-------2---2-0-3-|--0-------------------------|



  |----3----|
  Q    Q    Q    Q    Q       Q.      S  S  E   Q    E
---------------------------|----------------------------|
---------------------------|----------------------------|
---------------------------|----------------------------|
---------------------------|---------12-12-12--11----9--|
-------4----5---------7----|--2-------------------------|
--5----L----L--------------|--2------10-10-10---9----7--|
-----------------5----L----|--0-------------------------|


  |----3----|
  Q    Q    Q    E.  S Q       Q.      S  S  E   Q    E
----------------------------|----------------------------|
----------------------------|----------------------------|
-----------------------0----|----------------------------|
---------------------0-L----|---------12-12-12--11----9--|
-------4----5---------------|--2-------------------------|
--5----L----L----3-----L----|--2------10-10-10---9----7--|
----------------------------|--0-------------------------|


  |----3----|
  Q    Q    Q    Q    Q       H        H           H        H
---------------------------|--------------------|--------------------|
---------------------------|--------------------|--------------------|
---------------------------|--------------------|--------------------|
---------------------------|--------------------|--------------------|
-------4----5---------7----|--9--------5--------|--7--------4--------|
--5----L----L--------------|--9--------5--------|--7--------4--------|
-----------------5----L----|--7--------3--------|--5--------2--------|


                               |----3----|
  Q.      S  S  E   Q    E     Q    Q    Q    Q    Q
----------------------------|---------------------------|
----------------------------|---------------------------|
----------------------------|---------------------------|
---------12-12-12--11----9--|---------------------------|
--2-------------------------|-------4----5---------7----|
--2------10-10-10---9----7--|--5----L----L--------------|
--0-------------------------|-----------------5----L----|


                               |----3----|
  Q.      S  S  E   Q    E     Q    Q    Q    E.  S Q
----------------------------|-----------------------------|
----------------------------|-----------------------------|
----------------------------|-----------------------0~----|
---------12-12-12--11----9--|---------------------0-L-----|
--2-------------------------|-------4----5----------------|
--2------10-10-10---9----7--|--5----L----L----3-----L-----|
--0-------------------------|-----------------------------|


                               |----3----|
  Q.      S  S  E   Q    E     Q    Q    Q    Q    Q       H        H
----------------------------|---------------------------|--------------------|
----------------------------|---------------------------|--------------------|
----------------------------|---------------------------|--------------------|
---------12-12-12--11----9--|---------------------------|--------------------|
--2-------------------------|-------4----5---------7----|--9--------5--------|
--2------10-10-10---9----7--|--5----L----L--------------|--9--------5--------|
--0-------------------------|-----------------5----L----|--7--------3--------|


  H        H           H.              H        E     H.
--------------------|---------------|--------------|---------------|
--------------------|---------------|--------------|---------------|
--------------------|---------------|--------------|---------------|
--------------------|---------------|--------------|---------------|
--7--------4--------|--2------------|--L--------L--|--L------------|
--7--------4--------|--2------------|--L--------L--|--L------------|
--5--------2--------|--0------------|--L--------L--|--L------------|


  H.              H.              H        E     H.
---------------|---------------|--------------|---------------|
---------------|---------------|--------------|---------------|
---------------|---------------|--------------|---------------|
---------------|---------------|--------------|---------------|
--L------------|--L------------|--L--------L--|--L------------|
--L------------|--L------------|--L--------L--|--L------------|
--L------------|--L------------|--L--------L--|--L------------|


   H.               E  S E  E  E  S S S    E  S E  E  S E
-----------------|----------------------|------------------|
-----------------|----------------------|------------------|
--24/------------|----------------------|------------------|
--23/------------|----------------------|------------------|
-----------------|----------------------|------------------|
-----------------|----------------------|------------------|
-----------------|--9--8-7--6--3--0-0-0-|--9--8-7--6--3-0--|


  E  S E  E  E  S S S    S  S S S  S S    E  S E  E  E  S S S
----------------------|----------------|----------------------|
----------------------|----------------|----------------------|
----------------------|----------------|----------------------|
----------------------|----------------|----------------------|
----------------------|----------------|----------------------|
----------------------|----------------|----------------------|
--9--8-7--6--3--0-0-0-|--3p-0-0-3p-0-0-|--9--8-7--6--3--0-0-0-|


  E  S E  E  S E     E  S E  E  E  S S S
------------------|----------------------|
------------------|----------------------|
------------------|----------------------|
------------------|----------------------|
------------------|----------------------|
------------------|----------------------|
--9--8-7--6--3-0--|--9--8-7--6--3--0-0-0-|


  S  S S  S S S  S S  S S S  S S  S S    E  S E  E  E  S S S
--------------------------------------|----------------------|
--------------------------------------|----------------------|
--------------------------------------|----------------------|
--------------------------------------|--6--5-4--3-----------|
--------------------------------------|-------------5--2-2-2-|
--------------------------------------|----------------------|
--3p-0-6p-0-0-3p-0-6p-0-0-3p-0-6p-0-0-|----------------------|


  E  S E  E  S  S S    E  S E  E  E  S S S    S  S S S  S S E  E
--------------------|----------------------|----------------------|
--------------------|----------------------|----------------------|
--------------------|----------------------|----------------------|
--6--5-4--3---------|--6--5-4--3-----------|----------------3--4--|
-------------5p-2-2-|-------------5--2-2-2-|--5p-2-2-5p-2-2-------|
--------------------|----------------------|----------------------|
--------------------|----------------------|----------------------|


  E  S E  E  E  S S S    E  S E  E  S  S S    E  S E  E  E  S S S
----------------------|--------------------|----------------------|
----------------------|--------------------|----------------------|
----------------------|--------------------|----------------------|
--6--5-4--3-----------|--6--5-4--3---------|--6--5-4--3-----------|
-------------5--2-2-2-|-------------5p-2-2-|-------------5--2-2-2-|
----------------------|--------------------|----------------------|
----------------------|--------------------|----------------------|


  S S S S S S S S S S S S S S S S S S S S    Q    S S S Q    S Q





------------------------------------------|-------------------------|
------------------------------------------|-------------------------|
------------------------------------------|-------------------------|
------3---------3---------3---------3-----|--------------------4----|
--5-2---2-2-5-2---2-2-5-2---2-2-5-2---2-2-|-----------5------5------|
------------------------------------------|---------2---------------|
------------------------------------------|--0----L-----3-----------|


  Q    E.  E.  S S S S S    Q    S S S Q    S Q
-------------------------|-------------------------|
-------------------------|-------------------------|
-------------------------|-------------------------|
-----------9-------------|--------------------4----|
-------5-----------------|-----------5------5------|
--2------------5-2-4-----|---------2---------------|
---------------------3-0-|--0----L-----3-----------|


  Q    E.  E.  S S S S S S S S S S    Q    S S S Q    S Q
-----------------------------------|-------------------------|
-----------------------------------|-------------------------|
-----------------------------------|-------------------------|
-----------9-------------7-4-6-----|-------------------------|
-------5-----------------------5-2-|-------------------------|
--2------------5-2-4---------------|--0----L-1-2-3-----------|
---------------------3-0-----------|------------------3-2----|


  Q    E.  E.  S S S S S    Q    S S S Q    S Q
-------------------------|-------------------------|
-------------------------|-------------------------|
-----------4-------------|-------------------------|
-------------------------|-------------------------|
--4----------------------|-------------------------|
-------3-------5-2-4-----|--0----L-1-2-3-----------|
---------------------5-3-|------------------3-2----|


  Q    S S S E.  S S S S S S S S S S S S S S S    S  S S S  S S  S S  S S S S
-----------------------------------------------|------------------------------|
-----------------------------------------------|--9p-0-8-7p-0-6p-0-3p-0-0-0-0-|
-------------6---------------------------------|------------------------------|
-----------5---------------7-4-6-----6-4-------|------------------------------|
--4------5-----------------------7-5-----7-5-4-|------------------------------|
-------3---------5-2-4-------------------------|------------------------------|
-----------------------5-3---------------------|------------------------------|


  S  S S S  S S  S S  S S    S  S S S  S S  S S  S S S S
--------------------------|------------------------------|
--9p-0-8-7p-0-6p-0-3p-0-0-|--9p-0-8-7p-0-6p-0-3p-0-0-0-0-|
--------------------------|------------------------------|
--------------------------|------------------------------|
--------------------------|------------------------------|
--------------------------|------------------------------|
--------------------------|------------------------------|


  S  S S S  S S S  S S  S    S  S S S  S S  S S  S S S S
--------------------------|------------------------------|
--3p-0-0-3p-0-0-6p-0-7p-0-|--9p-0-8-7p-0-6p-0-3p-0-0-0-0-|
--------------------------|------------------------------|
--------------------------|------------------------------|
--------------------------|------------------------------|
--------------------------|------------------------------|
--------------------------|------------------------------|


  S  S S S  S S  S S  S S    S  S S S  S S  S S  S S S S






--------------------------|------------------------------|
--9p-0-8-7p-0-6p-0-3p-0-0-|--9p-0-8-7p-0-6p-0-3p-0-0-0-0-|
--------------------------|------------------------------|
--------------------------|------------------------------|
--------------------------|------------------------------|
--------------------------|------------------------------|
--------------------------|------------------------------|


  S  S S  S S S  S S  S    S E.  H                     S S S S S S S S S E  S
------------------------|-----------------|----|----|-------------------------|
--3p-0-7p-0-0-3p-0-7p-0-|--9--------------|----|----|-------------------------|
------------------------|-----------------|----|----|-------------------------|
------------------------|-----------------|----|----|-------------------------|
------------------------|-----------------|----|----|-------------------------|
------------------------|-----------------|----|----|-------------------------|
------------------------|-----------------|----|----|--3-0-0-3-0-0-3-0-0-6--7-|


  S H        Q       E  S E  E  E  S S S    E  S E  E  E  S S S
------------------|----------------------|----------------------|
------------------|----------------------|----------------------|
------------------|----------------------|----------------------|
------------------|----------------------|----------------------|
------------------|----------------------|----------------------|
------------------|----------------------|----------------------|
--L---------------|--9--8-7--6--3--0-0-0-|--9--8-7--6--3--0-0-0-|


  E  S E  E  E  S S S    S  S S S  S S S  S S  S     E   S E  E  E  S S S
----------------------|--------------------------|------------------------|
----------------------|--------------------------|------------------------|
----------------------|--------------------------|------------------------|
----------------------|--------------------------|------------------------|
----------------------|--------------------------|------------------------|
----------------------|--------------------------|--11--10-9--8--5--2-2-2-|
--9--8-7--6--3--0-0-0-|--3p-0-0-3p-0-0-6p-0-7p-0-|---9---8-7--6--3--0-0-0-|


   E   S E  E  E  S S S     E   S E  E  E  S S S
------------------------|------------------------|
------------------------|------------------------|
------------------------|------------------------|
------------------------|------------------------|
------------------------|------------------------|
--11--10-9--8--5--2-2-2-|--11--10-9--8--5--2-2-2-|
---9---8-7--6--3--0-0-0-|---9---8-7--6--3--0-0-0-|


  S  S S  S S S  S S  S S  S S    S  S S  S S S  S S  S  S  S S
-------------------------------|--------------------------------|
-------------------------------|--------------------------------|
-------------------------------|--------------------------------|
-------------------------------|--------------------------------|
-------------------------------|--------------------------------|
-------------------------------|--------------------------------|
--6p-0-7p-0-0-6p-0-7p-0-9p-0-0-|--7p-0-9p-0-0-7p-0-9p-0-10p-0-0-|


  S   E   E  S E.   E  S    S S E  E.   S S S E     E   S S S S S
-------------------------|-----------------------|----------------|
--9h-10~--9--7-9~---7----|--6-7------------------|--7--10-7-9-----|
-----------------------7-|------7--6~-------6-7--|------------7---|
-------------------------|--------------9--------|--------------9-|
-------------------------|-----------------------|----------------|
-------------------------|-----------------------|----------------|
-------------------------|-----------------------|----------------|


  S   E   E  S E.   E  S    S S E  E.   S S S E     E   S S S S S  S S S S S






-------------------------|-----------------------|---------------------------|
--9h-10~--9--7-9~---7----|--6-7------------------|--7--10-7-9-----10-7-9-----|
-----------------------7-|------7--6~-------6-7--|------------7----------7---|
-------------------------|--------------9--------|--------------9----------9-|
-------------------------|-----------------------|---------------------------|
-------------------------|-----------------------|---------------------------|
-------------------------|-----------------------|---------------------------|


   E   S  E   E   E  S S S     E   S  E   E   E   S  S  S
--16--15-14--13--10--7-7-7-|--19--18-17--16--13--10-10-10-|
---------------------------|------------------------------|
---------------------------|------------------------------|
---------------------------|------------------------------|
---------------------------|------------------------------|
---------------------------|------------------------------|
---------------------------|------------------------------|


   E   S  E   E   E   S  S  S     S S  S S S  S S  S S S  S S  S S S
--22--21-20--19--16--13-13-13-|--------------------------------------|
------------------------------|--15-0-18-0-0-15-0-18-0-0-15-0-18-0-0-|
------------------------------|--------------------------------------|
------------------------------|--------------------------------------|
------------------------------|--------------------------------------|
------------------------------|--------------------------------------|
------------------------------|--------------------------------------|


   E   S  E   E   E  S S S     E   S  E   E   E   S  S  S
--16--15-14--13--10--7-7-7-|--19--18-17--16--13--10-10-10-|
---------------------------|------------------------------|
---------------------------|------------------------------|
---------------------------|------------------------------|
---------------------------|------------------------------|
---------------------------|------------------------------|
---------------------------|------------------------------|


   E   S  E   E   E   S  S  S     S  S  S  S  S  S  S  S  S  S  S  S  S  S  S
--22--21-20--19--16--13-13-13-|--16-13----13-16-19-16----16-19-22-19----19-22-|
------------------------------|--------15-------------18-------------21-------|
------------------------------|-----------------------------------------------|
------------------------------|-----------------------------------------------|
------------------------------|-----------------------------------------------|
------------------------------|-----------------------------------------------|
------------------------------|-----------------------------------------------|


  PM PM PM   PM   PM PM PM PM PM PM PM   PM   PM PM PM PM
  S  S  S  S S  S S  S  S  S  S  S  S  S S  S S  S  S  S
----------------------------------------------------------|
----------------------------------------------------------|
----------------------------------------------------------|
----------------------------------------------------------|
----------------------------------------------------------|
--------1--2----1-------------------1--2----1-------------|
--3--4-------4----3--4--3--0--3--4-------4----3--4--3--0--|


  PM PM PM   PM   PM PM PM PM PM PM PM   PM   PM PM PM PM
  S  S  S  S S  S S  S  S  S  S  S  S  S S  S S  S  S  S
----------------------------------------------------------|
----------------------------------------------------------|
----------------------------------------------------------|
----------------------------------------------------------|
----------------------------------------------------------|
--------4--5----4-------------------4--5----4-------------|
--6--7-------7----6--7--6--0--6--7-------7----6--7--6--0--|


  PM PM PM   PM   PM PM PM PM PM PM PM   PM   PM PM PM PM
  S  S  S  S S  S S  S  S  S  S  S  S  S S  S S  S  S  S



----------------------------------------------------------|
----------------------------------------------------------|
----------------------------------------------------------|
----------------------------------------------------------|
----------------------------------------------------------|
--------1--2----1-------------------1--2----1-------------|
--3--4-------4----3--4--3--0--3--4-------4----3--4--3--0--|


  PM PM PM   PM   PM PM PM PM PM PM
  S  S  S  S S  S S  S  S  S  S  S  S S S S S S S S    E  E  E.  E.
----------------------------------------------------|----------------|
----------------------------------------------------|----------------|
----------------------------------------------------|----------------|
----------------------------------------------------|----------------|
----------------------------------------------------|----------------|
--------4--5----4-------------------4-5---4---------|--2--1----------|
--6--7-------7----6--7--6--0--6--7------7---6-7-6-0-|--------3---0---|


  E  E  E.  E  E  E     E  E  E.  E.     E  E  E.  E  E  E     E  E  E.  E.
---------------------|----------------|---------------------|----------------|
---------------------|----------------|---------------------|----------------|
---------------------|----------------|---------------------|----------------|
---------------------|----------------|---------------------|----------------|
---------------------|----------------|---------------------|----------------|
--2--1---------------|--2--1----------|--2--1---------------|--5--4----------|
--------3---4--3--0--|--------3---0---|--------3---4--3--0--|--------6---0---|


  E  E  E.  E  E  E     E  E  E.  E.     E  E  E.  E  E  E     E  E  E.  E.
---------------------|----------------|---------------------|----------------|
---------------------|----------------|---------------------|----------------|
---------------------|----------------|---------------------|----------------|
---------------------|----------------|---------------------|----------------|
---------------------|----------------|---------------------|----------------|
--5--4---------------|--5--4----------|--5--4---------------|--7--5----------|
--------6---7--6--0--|--------6---0---|--------6---7--6--0--|--------6---0---|


  E  E  E.  E  E  E     E  E   E.  E.     E  E   E.  E  E  E
---------------------|-----------------|----------------------|
---------------------|-----------------|----------------------|
---------------------|-----------------|----------------------|
---------------------|-----------------|----------------------|
---------------------|--6--------------|--6-------------------|
--7--5---------------|-----7-----------|-----7----------------|
--------6---3--4--0--|--------10---0---|--------10---6--7--0--|


  S S S S S S S S S S    S S S  S S S  S  S  S  S
----------------------|---------------------------|
----------------------|------------------10-12----|
----------------------|------8-10---8-10-------10-|
----------------7-9---|--7-9------9---------------|
------6-8---6-8-----8-|---------------------------|
----------7-----------|---------------------------|
--4-6-----------------|---------------------------|


   S S  S S S S S S S S S S S S S S    S S S S S S S S S S S S S S S S
------------------------------------|----------------------------------|
--10--------------------------------|----------------------------------|
-----8-10---8-----------------------|----------------------------------|
----------9---7-9---7---------------|----------------------------------|
------------------8---6-8---6-------|----------------------------------|
--------------------------7---5-7---|------4---4-------4---4-------5---|
----------------------------------6-|--0-3---3---3-0-3---3---3-0-6---6-|


  S S S S S S S S S S S S S S S S    S S S S S S S S S S S S S S S S





----------------------------------|----------------------------------|
----------------------------------|----------------------------------|
----------------------------------|----------------------------------|
----------------------------------|----------------------------------|
----------------------------------|----------------------------------|
------4---4-------4---4-------7---|------4---4-------4---4-------5---|
--0-3---3---3-0-3---3---3-0-6---6-|--0-3---3---3-0-3---3---3-0-6---6-|


  S S S S S S S S S S S S S S S S
----------------------------------|
----------------------------------|
----------------------------------|
----------------------------------|
----------------------------------|
------4---4-------4---4-------7---|
--0-3---3---3-0-3---3---3-0-6---6-|


  PM PM PM PM PM PM PM PM PM PM PM PM PM PM PM PM  PMPM PM PM PM PM PM PM
  S  S  S  S  S  S  S  S  S  S  S  S  S  S  S  S   S S  S  S  S  S  S  S
--------------------------------------------------------------------------|
--------------------------------------------------------------------------|
--------------------------------------------------------------------------|
--------------------------------------------------------------------------|
--------------------------------------------------------------------------|
--------------------------7--5--------------------------------------------|
--0--0--0--0--9--7--6--4--------9--7--6--4--7--9--12-0--0--0--0--0--0--0--|


  PM PM PM PM PM PM PM PM PM PM PM PM PM PM PM PM PM PM PM PM PM PM PM PM
  S  S  S  S  S  S  S  S  S  S  S  S  S  S  S  S  S  S  S  S  S  S  S  S
--------------------------------------------------------------------------|
--------------------------------------------------------------------------|
--------------------------------------------------------------------------|
--------------------------------------------------------------------------|
-----------------------4--2-----------------------------------------------|
--------4--5--4--------------5--4--2--1--2--4--5--4--2--1--2--4--2--4--2--|
--6--7-----------7--6-----------------------------------------------------|


  PM PM PM PM PM PM PM PM PM PM PM PM PM PM PM PM  PMPM PM PM PM PM PM PM
  S  S  S  S  S  S  S  S  S  S  S  S  S  S  S  S   S S  S  S  S  S  S  S
--------------------------------------------------------------------------|
--------------------------------------------------------------------------|
--------------------------------------------------------------------------|
--------------------------------------------------------------------------|
--------------------------------------------------------------------------|
--------------------------7--5--------------------------------------------|
--0--0--0--0--9--7--6--4--------9--7--6--4--7--9--12-0--0--0--0--0--0--0--|


  PM PM PM PM PM PM PM PM PM PM PM PM PM PM PM PM PM PM PM PM PM PM PM PM
  S  S  S  S  S  S  S  S  S  S  S  S  S  S  S  S  S  S  S  S  S  S  S  S
--------------------------------------------------------------------------|
--------------------------------------------------------------------------|
--------------------------------------------------------------------------|
--------------------------------------------------------------------------|
-----------------------4--2-----------------------------------------------|
--------4--5--4--------------5--4--2--1--2--4--5--4--2--1--2--4--2--4--2--|
--6--7-----------7--6-----------------------------------------------------|


  PM PM PM PM PM PM PM PM PM PM PM PM PM PM PM PM PM PM PM PM PM PM PM PM
  S  S  S  S  S  S  S  S  S  S  S  S  S  S  S  S  S  S  S  S  S  S  S  S
--------------------------------------------------------------------------|
--------------------------------------------------------------------------|
--------------------------------------------------------------------------|
--------------------------------------------------------------------------|
--------------------------------------------------------------------------|
--4--------4--5--4-----------4--5--4-----------4--------------------------|
-----6--7-----------7--6--5-----------7--6--7-----7--6--0--0--0--0--0--0--|


  PM PM PM PM PM PM PM PM PM PM PM PM PM PM PM PM PM PM PM PM PM PM PM PM

  S  S  S  S  S  S  S  S  S  S  S  S  S  S  S  S  S  S  S  S  S  S  S  S
--------------------------------------------------------------------------|
--------------------------------------------------------------------------|
--------------------------------------------------------------------------|
--------------------------------------------------------------------------|
-----------------------------4--------------------------------------------|
-----------4--5--4--------------7--5--4-----------4-----4--------------4--|
--7--6--7-----------7--6--7--------------7--6--7-----7-----7--6--6--7-----|


  PM PM PM PM PM PM PM PM PM PM PM PM PM PM PM PM PM PM PM PM PM PM PM PM
  S  S  S  S  S  S  S  S  S  S  S  S  S  S  S  S  S  S  S  S  S  S  S  S
--------------------------------------------------------------------------|
--------------------------------------------------------------------------|
--------------------------------------------------------------------------|
--------------------------------------------------------------------------|
--------------------------------------------------------------------------|
--4--------4--5--4-----------4--5--4-----------4--------------------------|
-----6--7-----------7--6--5-----------7--6--7-----7--6--0--0--0--0--0--0--|


  PM PM PM PM PM PM PM PM PM PM PM PM PM PM PM PM PM PM PM PM PM PM PM PM
  S  S  S  S  S  S  S  S  S  S  S  S  S  S  S  S  S  S  S  S  S  S  S  S
--------------------------------------------------------------------------|
--------------------------------------------------------------------------|
--------------------------------------------------------------------------|
--------------------------------------------------------------------------|
-----------------------------4--------------------------------------------|
-----------4--5--4--------------7--5--4-----------4-----4--------------4--|
--7--6--7-----------7--6--7--------------7--6--7-----7-----7--6--6--7-----|


  PM PM PM PM PM PM PM PM PM PM PM PM PM PM PM PM PM PM PM PM PM PM PM PM
  S  S  S  S  S  S  S  S  S  S  S  S  S  S  S  S  S  S  S  S  S  S  S  S
--------------------------------------------------------------------------|
--------------------------------------------------------------------------|
--------------------------------------------------------------------------|
--------------------------------------------------------------------------|
--------------------------------------------------------------------------|
--4--------4--5--4-----------4--5--4-----------4--------------------------|
-----6--7-----------7--6--5-----------7--6--7-----7--6--0--0--0--0--0--0--|


  PM PM PM PM PM PM PM PM PM PM PM PM PM PM PM PM PM PM PM PM PM PM PM PM
  S  S  S  S  S  S  S  S  S  S  S  S  S  S  S  S  S  S  S  S  S  S  S  S
--------------------------------------------------------------------------|
--------------------------------------------------------------------------|
--------------------------------------------------------------------------|
--------------------------------------------------------------------------|
-----------------------------4--------------------------------------------|
-----------4--5--4--------------7--5--4-----------4-----4--------------4--|
--7--6--7-----------7--6--7--------------7--6--7-----7-----7--6--6--7-----|


  PM PM PM PM PM PM PM PM PM PM PM PM PM PM PM PM PM PM PM PM PM PM PM PM
  S  S  S  S  S  S  S  S  S  S  S  S  S  S  S  S  S  S  S  S  S  S  S  S
--------------------------------------------------------------------------|
--------------------------------------------------------------------------|
--------------------------------------------------------------------------|
--------------------------------------------------------------------------|
--------------------------------------------------------------------------|
--4--------4--5--4-----------4--5--4-----------4--------------------------|
-----6--7-----------7--6--5-----------7--6--7-----7--6--0--0--0--0--0--0--|


  PM PM PM PM PM PM PM PM PM PM PM PM PM PM PM PM PM PM PM PM PM PM PM PM
  S  S  S  S  S  S  S  S  S  S  S  S  S  S  S  S  S  S  S  S  S  S  S  S
--------------------------------------------------------------------------|
--------------------------------------------------------------------------|
--------------------------------------------------------------------------|
--------------------------------------------------------------------------|
-----------------------------4--------------------------------------------|
-----------4--5--4--------------7--5--4-----------4-----4--------------4--|
--7--6--7-----------7--6--7--------------7--6--7-----7-----7--6--6--7-----|


  S. S. S. S. S. S. S. S. S. S. S. S. S. S. S. S.
--------------------------------------------------|
--------------------------------------------------|
--------------------------------------------------|
--------------------------------------------------|
--------------------------------------------------|
--------4-----4-----------4-----4-----------5-----|
--0--3-----3-----3--0--3-----3-----3--0--3-----6--|


  S. S. S. S. S. S. S. S. S. S. S. S. S. S. S. S.
--------------------------------------------------|
--------------------------------------------------|
--------------------------------------------------|
--------------------------------------------------|
--------------------------------------------------|
--------4-----4-----------4-----4-----------7-----|
--0--3-----3-----3--0--3-----3-----3--0--3-----6--|


  PM PM PM PM PM PM PM PM PM PM PM PM PM PM PM PM PM PM PM PM PM PM PM PM
  S  S  S  S  S  S  S  S  S  S  S  S  S  S  S  S  S  S  S  S  S  S  S  S
--------------------------------------------------------------------------|
--------------------------------------------------------------------------|
--------------------------------------------------------------------------|
--------------------------------------------------------------------------|
--------------------------------------------------------------------------|
--4--------4--5--4-----------4--5--4-----------4--------------------------|
-----6--7-----------7--6--5-----------7--6--7-----7--6--0--0--0--0--0--0--|


  PM PM PM PM PM PM PM PM PM PM PM PM PM PM PM PM PM PM PM PM PM PM PM PM
  S  S  S  S  S  S  S  S  S  S  S  S  S  S  S  S  S  S  S  S  S  S  S  S
--------------------------------------------------------------------------|
--------------------------------------------------------------------------|
--------------------------------------------------------------------------|
--------------------------------------------------------------------------|
-----------------------------4--------------------------------------------|
-----------4--5--4--------------7--5--4-----------4-----4--------------4--|
--7--6--7-----------7--6--7--------------7--6--7-----7-----7--6--6--7-----|


  PM PM PM PM PM PM PM PM PM PM PM PM PM PM PM PM PM PM PM PM PM PM PM PM
  S  S  S  S  S  S  S  S  S  S  S  S  S  S  S  S  S  S  S  S  S  S  S  S
--------------------------------------------------------------------------|
--------------------------------------------------------------------------|
--------------------------------------------------------------------------|
--------------------------------------------------------------------------|
--------------------------------------------------------------------------|
--4--------4--5--4-----------4--5--4-----------4--------------------------|
-----6--7-----------7--6--5-----------7--6--7-----7--6--0--0--0--0--0--0--|


  PM PM PM PM PM PM PM PM PM PM PM PM PM PM PM PM PM PM PM PM PM PM PM PM
  S  S  S  S  S  S  S  S  S  S  S  S  S  S  S  S  S  S  S  S  S  S  S  S
--------------------------------------------------------------------------|
--------------------------------------------------------------------------|
--------------------------------------------------------------------------|
--------------------------------------------------------------------------|
-----------------------------4--------------------------------------------|
-----------4--5--4--------------7--5--4-----------4-----4--------------4--|
--7--6--7-----------7--6--7--------------7--6--7-----7-----7--6--6--7-----|


  S. S. S. S. S. S. S. S. S. S. S. S. S. S. S. S.
--------------------------------------------------|
--------------------------------------------------|
--------------------------------------------------|
--------------------------------------------------|
--------------------------------------------------|
--------4-----4-----------4-----4-----------5-----|
--0--3-----3-----3--0--3-----3-----3--0--3-----6--|


  S. S. S. S. S. S. S. S. S. S. S. S. S. S. S. S.

--------------------------------------------------|
--------------------------------------------------|
--------------------------------------------------|
--------------------------------------------------|
--------------------------------------------------|
--------4-----4-----------4-----4-----------7-----|
--0--3-----3-----3--0--3-----3-----3--0--3-----6--|


  S. S. S. S. S. S. S. S. S. S. S. S. S. S. S. S.
--------------------------------------------------|
--------------------------------------------------|
--------------------------------------------------|
--------------------------------------------------|
--------------------------------------------------|
--------4-----4-----------4-----4-----------5-----|
--0--3-----3-----3--0--3-----3-----3--0--3-----6--|


  S. S. S. S. S. S. S. S. S. S. S. S. S. S. S. S.    H
--------------------------------------------------|-----------|
--------------------------------------------------|-----------|
--------------------------------------------------|-----------|
--------------------------------------------------|-----------|
--------------------------------------------------|--2--------|
--------4-----4-----------4-----4-----------7-----|--2--------|
--0--3-----3-----3--0--3-----3-----3--0--3-----6--|--0--------|


                                             PM PM PM PM PM PM
                                             |--3--|  |--3--|
  S S E  E  S S S S S S S S S S    S S E  E  S  S  S  E  E  E  Q
--------------------------------|-----------------------------------|
--------------------------------|-----------------------------------|
--------------------------------|-----------------------------------|
--------------------------------|------------------------------6----|
--------------------------------|------------------------------5----|
--------------------4-5---4-----|------------------------------4----|
--7-6-0-----0-0-6-7-----7---6-0-|--7-6-0-----0--0--0--0--0--0-------|


                                             PM PM PM PM    PM
  S S E  E  S S S S S S S S S S    S S E  E  S  S  S  S  E  S  S S S
--------------------------------|------------------------------------|
--------------------------------|------------------------------------|
--------------------------------|------------------------------------|
--------------------------------|------------------------7-----------|
--------------------------------|------------------------6-----------|
--------------------4-5---4-----|------------------------5-----4-----|
--7-6-0-----0-0-6-7-----7---6-0-|--7-6-0-----0--0--0--0-----0----2-0-|


  S S E  E  S S S S S S S S S S
--------------------------------|
--------------------------------|
--------------------------------|
--------------------------------|
--------------------------------|
--------------------1-2---1-----|
--7-6-0-----0-0-3-4-----4---3-0-|


            PM PM PM PM PM PM    PM PM PM
            |--3--|  |--3--|     |--3--|
  S S E  E  S  S  S  E  E  E  E  S  S  S  E.  S     Q.      S  S  E   Q    E
-------------------------------------------------|----------------------------|
-------------------------------------------------|----------------------------|
-------------------------------------------------|----------------------------|
------------------------------6-----------7---L\-|---------12-12-12--11----9--|
------------------------------5-----------6---L\-|--2-------------------------|
------------------------------4-----------5---L\-|--2------10-10-10---9----7--|
--4-3-0-----0--0--0--0--0--0-----0--0--0---------|--0-------------------------|




  |----3----|
  Q    Q    Q    Q    Q       Q.      S  S  E   Q    E
---------------------------|----------------------------|
---------------------------|----------------------------|
---------------------------|----------------------------|
---------------------------|---------12-12-12--11----9--|
-------4----5---------7----|--2-------------------------|
--5----L----L--------------|--2------10-10-10---9----7--|
-----------------5----L----|--0-------------------------|


  |----3----|
  Q    Q    Q    E.  S Q       Q.      S  S  E   Q    E
----------------------------|----------------------------|
----------------------------|----------------------------|
-----------------------0----|----------------------------|
---------------------0-L----|---------12-12-12--11----9--|
-------4----5---------------|--2-------------------------|
--5----L----L----3-----L----|--2------10-10-10---9----7--|
----------------------------|--0-------------------------|


  |----3----|
  Q    Q    Q    Q    Q       H        H           H        H
---------------------------|--------------------|--------------------|
---------------------------|--------------------|--------------------|
---------------------------|--------------------|--------------------|
---------------------------|--------------------|--------------------|
-------4----5---------7----|--9--------5--------|--7--------4--------|
--5----L----L--------------|--9--------5--------|--7--------4--------|
-----------------5----L----|--7--------3--------|--5--------2--------|


                               |----3----|
  Q.      S  S  E   Q    E     Q    Q    Q    Q    Q
----------------------------|---------------------------|
----------------------------|---------------------------|
----------------------------|---------------------------|
---------12-12-12--11----9--|---------------------------|
--2-------------------------|-------4----5---------7----|
--2------10-10-10---9----7--|--5----L----L--------------|
--0-------------------------|-----------------5----L----|


                               |----3----|
  Q.      S  S  E   Q    E     Q    Q    Q    E.  S Q
----------------------------|-----------------------------|
----------------------------|-----------------------------|
----------------------------|-----------------------0~----|
---------12-12-12--11----9--|---------------------0-L-----|
--2-------------------------|-------4----5----------------|
--2------10-10-10---9----7--|--5----L----L----3-----L-----|
--0-------------------------|-----------------------------|


                               |----3----|
  Q.      S  S  E   Q    E     Q    Q    Q    Q    Q       H        H
----------------------------|---------------------------|--------------------|
----------------------------|---------------------------|--------------------|
----------------------------|---------------------------|--------------------|
---------12-12-12--11----9--|---------------------------|--------------------|
--2-------------------------|-------4----5---------7----|--9--------5--------|
--2------10-10-10---9----7--|--5----L----L--------------|--9--------5--------|
--0-------------------------|-----------------5----L----|--7--------3--------|


  H        H           W                   W
--------------------|-------------------|-------------------|
--------------------|-------------------|-------------------|
--------------------|-------------------|-------------------|
--------------------|-------------------|-------------------|
--7--------4--------|--2----------------|--L----------------|
--7--------4--------|--2----------------|--L----------------|
--5--------2--------|--0----------------|--L----------------|


                                                      PM PM      PM PM
  H.           E  E       W                    E   E  E  E  Q    E  E
----------------------|---------------------|--------------------------|
----------------------|---------------------|--------------------------|
----------------------|---------------------|--------------------------|
----------------------|---------------------|--------------------------|
--L------------L------|---------------------|---------------2----------|
--L------------L------|---------------------|---------------2----------|
--L------------L--7s--|--14\----------------|--3p--0--0--0--0----0--0--|


         PM PM      PM PM           PM PM      PM PM
  E   E  E  E  Q    E  E     E   E  E  E  Q    E  E
--------------------------|--------------------------|
--------------------------|--------------------------|
--------------------------|--------------------------|
--------------------------|--------------------------|
---------------2----------|---------------2----------|
---------------2----------|---------------2----------|
--3p--0--0--0--0----0--0--|--3p--0--0--0--0----0--0--|


                                      PM PM      PM PM
  E  E  E  E  E  E    Q        E   E  E  E  Q    E  E
----------------------------|--------------------------|
----------------------------|--------------------------|
----------------------------|--------------------------|
----------------------------|--------------------------|
----------------------------|---------------2----------|
--------7-------------------|---------------2----------|
--5--6-----6--5--0--<>3~----|--3p--0--0--0--0----0--0--|


         PM PM      PM PM           PM PM      PM PM
  E   E  E  E  Q    E  E     E   E  E  E  Q    E  E
--------------------------|--------------------------|
--------------------------|--------------------------|
--------------------------|--------------------------|
--------------------------|--------------------------|
---------------2----------|---------------2----------|
---------------2----------|---------------2----------|
--3p--0--0--0--0----0--0--|--3p--0--0--0--0----0--0--|


                                    PM PM      PM PM
  E  E  E  E  E  E  Q        E   E  E  E  Q    E  E
--------------------------|--------------------------|
--------------------------|--------------------------|
--------------------------|--------------------------|
--------------------------|--------------------------|
--------------------------|---------------2----------|
--------7-----------------|---------------2----------|
--5--6-----6--5--0--3~----|--3p--0--0--0--0----0--0--|


         PM PM      PM PM           PM PM      PM PM
  E   E  E  E  Q    E  E     E   E  E  E  Q    E  E
--------------------------|--------------------------|
--------------------------|--------------------------|
--------------------------|--------------------------|
--------------------------|--------------------------|
---------------2----------|---------------2----------|
---------------2----------|---------------2----------|
--3p--0--0--0--0----0--0--|--3p--0--0--0--0----0--0--|


                                    PM PM      PM PM
  E  E  E  E  E  E  Q        E   E  E  E  Q    E  E
--------------------------|--------------------------|
--------------------------|--------------------------|
--------------------------|--------------------------|
--------------------------|--------------------------|
--------------------------|---------------2----------|
--------7-----------------|---------------2----------|
--5--6-----6--5--0--3~----|--3p--0--0--0--0----0--0--|


         PM PM      PM PM           PM PM      PM PM
  E   E  E  E  Q    E  E     E   E  E  E  Q    E  E
--------------------------|--------------------------|
--------------------------|--------------------------|
--------------------------|--------------------------|
--------------------------|--------------------------|
---------------2----------|---------------2----------|
---------------2----------|---------------2----------|
--3p--0--0--0--0----0--0--|--3p--0--0--0--0----0--0--|


                                    PM PM      PM PM
  E  E  E  E  E  E  Q        E   E  E  E  Q    E  E
--------------------------|--------------------------|
--------------------------|--------------------------|
--------------------------|--------------------------|
--------------------------|--------------------------|
--------------------------|---------------2----------|
--------7-----------------|---------------2----------|
--5--6-----6--5--0--3~----|--3p--0--0--0--0----0--0--|


         PM PM      PM PM           PM PM      PM PM
  E   E  E  E  Q    E  E     E   E  E  E  Q    E  E
--------------------------|--------------------------|
--------------------------|--------------------------|
--------------------------|--------------------------|
--------------------------|--------------------------|
---------------2----------|---------------2----------|
---------------2----------|---------------2----------|
--3p--0--0--0--0----0--0--|--3p--0--0--0--0----0--0--|


                                    PM PM      PM PM
  E  E  E  E  E  E  Q        E   E  E  E  Q    E  E
--------------------------|--------------------------|
--------------------------|--------------------------|
--------------------------|--------------------------|
--------------------------|--------------------------|
--------------------------|---------------2----------|
--------7-----------------|---------------2----------|
--5--6-----6--5--0--3~----|--3p--0--0--0--0----0--0--|


         PM PM      PM PM           PM PM      PM PM
  E   E  E  E  Q    E  E     E   E  E  E  Q    E  E
--------------------------|--------------------------|
--------------------------|--------------------------|
--------------------------|--------------------------|
--------------------------|--------------------------|
---------------2----------|---------------2----------|
---------------2----------|---------------2----------|
--3p--0--0--0--0----0--0--|--3p--0--0--0--0----0--0--|


                                    PM PM      PM PM
  E  E  E  E  E  E  Q        E   E  E  E  Q    E  E
--------------------------|--------------------------|
--------------------------|--------------------------|
--------------------------|--------------------------|
--------------------------|--------------------------|
--------------------------|---------------2----------|
--------7-----------------|---------------2----------|
--5--6-----6--5--0--3~----|--3p--0--0--0--0----0--0--|


         PM PM      PM PM           PM PM      PM PM
  E   E  E  E  Q    E  E     E   E  E  E  Q    E  E
--------------------------|--------------------------|
--------------------------|--------------------------|
--------------------------|--------------------------|
--------------------------|--------------------------|
---------------2----------|---------------2----------|
---------------2----------|---------------2----------|
--3p--0--0--0--0----0--0--|--3p--0--0--0--0----0--0--|


                                    PM PM      PM PM
  E  E  E  E  E  E  Q        E   E  E  E  Q    E  E
--------------------------|--------------------------|
--------------------------|--------------------------|
--------------------------|--------------------------|
--------------------------|--------------------------|
--------------------------|---------------2----------|
--------7-----------------|---------------2----------|
--5--6-----6--5--0--3~----|--3p--0--0--0--0----0--0--|


         PM PM      PM PM           PM PM      PM PM
  E   E  E  E  Q    E  E     E   E  E  E  Q    E  E
--------------------------|--------------------------|
--------------------------|--------------------------|
--------------------------|--------------------------|
--------------------------|--------------------------|
---------------2----------|---------------2----------|
---------------2----------|---------------2----------|
--3p--0--0--0--0----0--0--|--3p--0--0--0--0----0--0--|


                                    PM PM      PM PM
  E  E  E  E  E  E  Q        E   E  E  E  Q    E  E
--------------------------|--------------------------|
--------------------------|--------------------------|
--------------------------|--------------------------|
--------------------------|--------------------------|
--------------------------|---------------2----------|
--------7-----------------|---------------2----------|
--5--6-----6--5--0--3~----|--3p--0--0--0--0----0--0--|


         PM PM      PM PM           PM PM      PM PM
  E   E  E  E  Q    E  E     E   E  E  E  Q    E  E
--------------------------|--------------------------|
--------------------------|--------------------------|
--------------------------|--------------------------|
--------------------------|--------------------------|
---------------2----------|---------------2----------|
---------------2----------|---------------2----------|
--3p--0--0--0--0----0--0--|--3p--0--0--0--0----0--0--|


  E  E  E  E  E  E  Q
--------------------------||
--------------------------||
--------------------------||
--------------------------||
--------------------------||
--------7-----------------||
--5--6-----6--5--0--3~----||


**********************************************
**********************************************
**********************************************

GUITAR 2

  W                   W                   W
E||-------------------|-------------------|-------------------|
B||-------------------|-------------------|-------------------|
G||-------------------|-------------------|-------------------|
D||-------------------|-------------------|-------------------|
A||-------------------|-------------------|-------------------|
E||-------------------|-------------------|-------------------|
B||-------------------|-------------------|-------------------|


          PM PM PM PM PM PM
          |--3--|  |--3--|
  Q    E  S  S  S  E  E  E  Q       S S E  E  S S S S S S S S S S

---------------------------------|--------------------------------|
---------------------------------|--------------------------------|
---------------------------------|--------------------------------|
----------------------------6----|--------------------------------|
----------------------------5----|--------------------------------|
----------------------------4----|--------------------4-5---4-----|
----------0--0--0--0--0--0-------|--7-6-0-----0-0-6-7-----7---6-0-|


            PM PM PM PM    PM
  S S E  E  S  S  S  S  E  S  S S S    S S E  E  S S S S S S S S S S
------------------------------------|--------------------------------|
------------------------------------|--------------------------------|
------------------------------------|--------------------------------|
------------------------7-----------|--------------------------------|
------------------------6-----------|--------------------------------|
------------------------5-----4-----|--------------------1-2---1-----|
--7-6-0-----0--0--0--0-----0----2-0-|--7-6-0-----0-0-3-4-----4---3-0-|


            PM PM     PM PM
  S S E  E  S  S  S S S  S  S E.      S S E  E  S S S S S S S S S S
-----------------------------------|--------------------------------|
-----------------------------------|--------------------------------|
-----------------------------------|--------------------------------|
-----------------------------------|--------------------------------|
-----------------------------------|--------------------------------|
------------------7---------4------|--------------------4-5---4-----|
--4-3-0-----0--0----6-0--0----3~---|--7-6-0-----0-0-6-7-----7---6-0-|


            PM PM PM PM    PM
  S S E  E  S  S  S  S  E  S  S S S    S S E  E  S S S S S S S S S S
------------------------------------|--------------------------------|
------------------------------------|--------------------------------|
------------------------------------|--------------------------------|
------------------------7-----------|--------------------------------|
------------------------6-----------|--------------------------------|
------------------------5-----4-----|--------------------1-2---1-----|
--7-6-0-----0--0--0--0-----0----2-0-|--7-6-0-----0-0-3-4-----4---3-0-|


            PM PM PM PM PM PM    PM PM PM
            |--3--|  |--3--|     |--3--|
  S S E  E  S  S  S  E  E  E  E  S  S  S  E.  S
-------------------------------------------------|
-------------------------------------------------|
-------------------------------------------------|
------------------------------6-----------7---L\-|
------------------------------5-----------6---L\-|
------------------------------4-----------5---L\-|
--4-3-0-----0--0--0--0--0--0-----0--0--0---------|


    PM PM PM PM PM   PM PM PM PM PM   PM PM PM
  S S  S  S  S  S  S S  S  S  S  S  S S  S  S
-----------------------------------------------|
-----------------------------------------------|
-----------------------------------------------|
-----------------------------------------------|
--6----------------4----------------2----------|
----4-----5--4-------2-----4--2-------1--0-----|
-------0--------0-------0--------0----------0--|


    PM PM PM PM PM   PM PM PM PM PM   PM PM PM   PM PM PM
  S S  S  S  S  S  S S  S  S  S  S  S S  S  S  S S  S  S
----------------------------------------------------------|
----------------------------------------------------------|
----------------------------------------------------------|
----------------------------------------------------------|
--6----------------4----------------2---------------------|
----4-----5--4-------2-----4--2-------1--0-----4----------|
-------0--------0-------0--------0----------0----3--2--0--|


  S S S S S S S S S S S S S S S S    S S S S S S S S S S S S S S S S
----------------------------------|----------------------------------|
----------------------------------|----------------------------------|
----------------------------------|----------------------------------|
----------------------------------|----------------------------------|
----------------------------------|----------------------------------|
------4---4-------4---4-------5---|------4---4-------4---4-------7---|
--0-3---3---3-0-3---3---3-0-3---6-|--0-3---3---3-0-3---3---3-0-3---6-|


    PM PM PM PM PM   PM PM PM PM PM   PM PM PM
  S S  S  S  S  S  S S  S  S  S  S  S S  S  S
-----------------------------------------------|
-----------------------------------------------|
-----------------------------------------------|
-----------------------------------------------|
--6----------------4----------------2----------|
----4-----5--4-------2-----4--2-------1--0-----|
-------0--------0-------0--------0----------0--|


    PM PM PM PM PM   PM PM PM PM PM   PM PM PM   PM PM PM
  S S  S  S  S  S  S S  S  S  S  S  S S  S  S  S S  S  S
----------------------------------------------------------|
----------------------------------------------------------|
----------------------------------------------------------|
----------------------------------------------------------|
--6----------------4----------------2---------------------|
----4-----5--4-------2-----4--2-------1--0-----4----------|
-------0--------0-------0--------0----------0----3--2--0--|


  S S S S S S S S S S S S S S S S    S S S S S S S S S S S S S S S S
----------------------------------|----------------------------------|
----------------------------------|----------------------------------|
----------------------------------|----------------------------------|
----------------------------------|----------------------------------|
----------------------------------|----------------------------------|
------4---4-------4---4-------5---|------4---4-------4---4-------7---|
--0-3---3---3-0-3---3---3-0-3---6-|--0-3---3---3-0-3---3---3-0-3---6-|


  PM PM PM PM PM PM PM PM PM PM PM PM PM PM PM PM PM PM PM PM
  S  S  S  S  S  S  S  S  S  S  S  S  S  S  S  S  S  S  S  S
--------------------------------------------------------------|
--------------------------------------------------------------|
--------------------------------------------------------------|
--------------------------------------------------------------|
--------------------------------------------------------------|
--------1--2-----1--------------------1--2-----1--------------|
--3--4--------4-----3--4--3--0--3--4--------4-----3--4--3--0--|


  PM PM PM PM PM PM PM PM PM PM PM PM PM PM PM PM PM PM PM PM
  S  S  S  S  S  S  S  S  S  S  S  S  S  S  S  S  S  S  S  S
--------------------------------------------------------------|
--------------------------------------------------------------|
--------------------------------------------------------------|
--------------------------------------------------------------|
--------------------------------------------------------------|
--------4--5-----4--------------------4--5-----4--------------|
--6--7--------7-----6--7--6--0--6--7--------7-----6--7--6--0--|


  PM PM PM PM PM PM PM PM PM PM PM PM PM PM PM PM PM PM PM PM
  S  S  S  S  S  S  S  S  S  S  S  S  S  S  S  S  S  S  S  S
--------------------------------------------------------------|
--------------------------------------------------------------|
--------------------------------------------------------------|
--------------------------------------------------------------|
--------------------------------------------------------------|
--------1--2-----1--------------------1--2-----1--------------|
--3--4--------4-----3--4--3--0--3--4--------4-----3--4--3--0--|



  PM PM PM PM PM PM PM PM PM PM
  S  S  S  S  S  S  S  S  S  S  S S S S S S S S S S
----------------------------------------------------|
----------------------------------------------------|
----------------------------------------------------|
----------------------------------------------------|
----------------------------------------------------|
--------4--5-----4------------------4-5---4---------|
--6--7--------7-----6--7--6--0--6-7-----7---6-7-6-0-|


  S S S S S S S S S S S S S S S S    S S S S S S S S S S S S S S S S
----------------------------------|----------------------------------|
----------------------------------|----------------------------------|
----------------------------------|----------------------------------|
----------------------------------|----------------------------------|
----------------------------------|----------------------------------|
------4---4-------4---4-------5---|------4---4-------4---4-------7---|
--0-3---3---3-0-3---3---3-0-3---6-|--0-3---3---3-0-3---3---3-0-3---6-|


  S S S S S S S S S S S S S S S S    S S S S S S S S S S S S S S S S
----------------------------------|----------------------------------|
----------------------------------|----------------------------------|
----------------------------------|----------------------------------|
----------------------------------|----------------------------------|
----------------------------------|----------------------------------|
------4---4-------4---4-------5---|------4---4-------4---4-------7---|
--0-3---3---3-0-3---3---3-0-3---6-|--0-3---3---3-0-3---3---3-0-3---6-|


  E  W                   W
----------------------|-------------------|
----------------------|-------------------|
----------------------|-------------------|
----------------------|-------------------|
----------------------|-------------------|
--2-------------------|-------------------|
--0-------------------|-------------------|


            PM PM     PM PM     PM                PM PM     PM PM     PM
  S S E  E  S  S  S S S  S  S S S  S    S S E  E  S  S  S S S  S  S S S  S
-------------------------------------|-------------------------------------|
-------------------------------------|-------------------------------------|
-------------------------------------|-------------------------------------|
-------------------------------------|-------------------------------------|
-------------------------------------|-------------------------------------|
--9-8-2---------------------4--------|--9-8-2---------------------7--------|
--7-6-0-----0--0--0-3-0--0----3-0--3-|--7-6-0-----0--0--0-3-0--0----6-5--0-|


                                             PM PM PM
                                             |--3--|
  S S E  E  S S S S S S S S S S    S S E  E  S  S  S  S S S S S E.
--------------------------------|------------------------------------|
--------------------------------|------------------------------------|
--------------------------------|------------------------------------|
--------------------------------|------------------------------------|
--------------------------------|------------------------------------|
--4-5-2-----------------1-------|--9-8-2--------------7-------5------|
--4-3-0-----0-0-0-3-0-0---3-0-3-|--7-6-0-----0--0--0----6-0-0---3~---|


            PM PM     PM PM     PM                PM PM     PM PM     PM
  S S E  E  S  S  S S S  S  S S S  S    S S E  E  S  S  S S S  S  S S S  S
-------------------------------------|-------------------------------------|
-------------------------------------|-------------------------------------|
-------------------------------------|-------------------------------------|
-------------------------------------|-------------------------------------|
-------------------------------------|-------------------------------------|
--9-8-2---------------------4--------|--9-8-2---------------------7--------|
--7-6-0-----0--0--0-3-0--0----3-0--3-|--7-6-0-----0--0--0-3-0--0----6-5--0-|



                                             PM PM PM PM PM PM
                                             |--3--|  |--3--|
  S S E  E  S S S S S S S S S S    S S E  E  S  S  S  E  E  E  Q
--------------------------------|-----------------------------------|
--------------------------------|-----------------------------------|
--------------------------------|-----------------------------------|
--------------------------------|------------------------------6----|
--------------------------------|------------------------------5----|
--4-5-2-----------------1-------|--9-8-2-----2--2--2--2--2--2--4----|
--4-3-0-----0-0-0-3-0-0---3-0-3-|--7-6-0-----0--0--0--0--0--0-------|


      PM     PM     PM     PM   PM PM PM
  S S S  S S S  S S S  S S S  S S  S  S
-----------------------------------------|
-----------------------------------------|
-----------------------------------------|
--6-------------4-------------2----------|
----4----5-4------2----4-2------1--0-----|
------0------0------0------0----------0--|
-----------------------------------------|


      PM     PM     PM     PM   PM PM PM
  S S S  S S S  S S S  S S S  S S  S  S  S S S S
-------------------------------------------------|
-------------------------------------------------|
-------------------------------------------------|
--6-------------4-------------2------------------|
----4----5-4------2----4-2------1--0-----4-------|
------0------0------0------0----------0----3-2-0-|
-------------------------------------------------|


  S S S S S S S S S S S S S S S S    S S S S S S S S S S S S S S S S S S S S
----------------------------------|------------------------------------------|
----------------------------------|------------------------------------------|
----------------------------------|------------------------------------------|
----------------------------------|------------------------------------------|
--------------------2-------------|--------------------2---------------------|
------4---4-------3---3---4-------|------4---4-------3---3---4-------4-------|
--0-2---2---2-0-2-------2---2-0-3-|--0-2---2---2-0-2-------2---2-0-3---2-0-3-|


      PM     PM     PM     PM   PM PM PM
  S S S  S S S  S S S  S S S  S S  S  S
-----------------------------------------|
-----------------------------------------|
-----------------------------------------|
--6-------------4-------------2----------|
----4----5-4------2----4-2------1--0-----|
------0------0------0------0----------0--|
-----------------------------------------|


      PM     PM     PM     PM   PM PM PM
  S S S  S S S  S S S  S S S  S S  S  S  S S S S
-------------------------------------------------|
-------------------------------------------------|
-------------------------------------------------|
--6-------------4-------------2------------------|
----4----5-4------2----4-2------1--0-----4-------|
------0------0------0------0----------0----3-2-0-|
-------------------------------------------------|


  S S S S S S S S S S S S S S S S
----------------------------------|
----------------------------------|
----------------------------------|
----------------------------------|
--------------------2-------------|
------4---4-------3---3---4-------|
--0-2---2---2-0-2-------2---2-0-3-|


  S S S S S S S S S S S S S S S S S S S S S S S S    W
--------------------------------------------------|-------------------|
--------------------------------------------------|-------------------|
--------------------------------------------------|-------------------|
--------------------------------------------------|-------------------|
--------------------2---------------2-------------|--2----------------|
------4---4-------3---3---4-------3---3---4-------|--2----------------|
--0-2---2---2-0-2-------2---2-0-2-------2---2-0-3-|--0----------------|


  |----3----|                                     |----3----|
  Q    Q    Q    Q    Q       W                   Q    Q    Q    E.  S Q
---------------------------|-------------------|----------------------------|
---------------------------|-------------------|----------------------------|
---------------------------|-------------------|-----------------------0----|
---------------------------|-------------------|---------------------0-L----|
-------4----5---------7----|--2----------------|-------4----5---------------|
--5----L----L--------------|--2----------------|--5----L----L----3-----L----|
-----------------5----L----|--0----------------|----------------------------|


                      |----3----|
  W                   Q    Q    Q    Q    Q       E.  Q    S E.  S Q
-------------------|---------------------------|------------------------|
-------------------|---------------------------|------------------------|
-------------------|---------------------------|------------------------|
-------------------|---------------------------|------------------------|
--2----------------|-------4----5---------7----|------4----L-----0-L----|
--2----------------|--5----L----L--------------|------------------------|
--0----------------|-----------------5----L----|--7----------3----------|


                                  |-3-| |--3--|
  E.  S Q    E.  S Q       Q.     S S S E  E  E  E  E
------------------------|-------------------------------|
------------------------|-------------------------------|
------------------------|-------------------------------|
------------------------|-------------------------------|
------0-L---------------|--2------x-x-x-2--x--x---------|
-----------------0-L----|--2------x-x-x-2--x--x--9--L\--|
--5----------2----------|--0------x-x-x-0--x--x--7--L\--|


            PM PM     PM PM     PM                PM PM     PM PM     PM
  S S E  E  S  S  S S S  S  S S S  S    S S E  E  S  S  S S S  S  S S S  S
-------------------------------------|-------------------------------------|
-------------------------------------|-------------------------------------|
-------------------------------------|-------------------------------------|
-------------------------------------|-------------------------------------|
-------------------------------------|-------------------------------------|
--9-8-2---------------------4--------|--9-8-2---------------------7--------|
--7-6-0-----0--0--0-3-0--0----3-0--3-|--7-6-0-----0--0--0-3-0--0----6-5--0-|


  S S E  E  S S S S S S S S S S
--------------------------------|
--------------------------------|
--------------------------------|
--------------------------------|
--------------------------------|
--4-5-2-----------------1-------|
--4-3-0-----0-0-0-3-0-0---3-0-3-|


            PM PM PM PM PM PM    PM PM PM
            |--3--|  |--3--|     |--3--|
  S S E  E  S  S  S  E  E  E  E  S  S  S  Q
-----------------------------------------------|
-----------------------------------------------|
-----------------------------------------------|
------------------------------6-----------7----|
------------------------------5-----------6----|
--9-8-2-----------------------4-----------5----|
--7-6-0-----0--0--0--0--0--0-----0--0--0-------|


            PM PM     PM PM     PM
  S S E  E  S  S  S S S  S  S S S  S
-------------------------------------|
-------------------------------------|
-------------------------------------|
-------------------------------------|
-------------------------------------|
--9-8-2---------------------4--------|
--7-6-0-----0--0--0-3-0--0----3-0--3-|


            PM PM     PM PM     PM
  S S E  E  S  S  S S S  S  S S S  S S S S S    S S E  E  S S S S S S S S S S
---------------------------------------------|--------------------------------|
---------------------------------------------|--------------------------------|
---------------------------------------------|--------------------------------|
---------------------------------------------|--------------------------------|
---------------------------------------------|--------------------------------|
--9-8-2---------------------7--------4-------|--4-5-2-----------------4-------|
--7-6-0-----0--0--0-3-0--0----6-5--6---3-2-3-|--4-3-0-----0-0-0-3-0-0---3-0-3-|


                |-3-| |-3-|     |--3-| |--3-|
  S S E  E  S S S S S S S S S S S S  S S S  S E    S S E
-----------------------------------------------------------|
-----------------------------------------------------------|
-----------------------------------------------------------|
----------------------------------------------7~-----------|
----------------------------6----------8-9-11-----11-9-8~--|
--9-8-2---------------6-7-9-----7-9-11---------------------|
--7-6-0-----0-0-6-7-9--------------------------------------|


      PM     PM     PM     PM   PM PM PM
  S S S  S S S  S S S  S S S  S S  S  S
-----------------------------------------|
-----------------------------------------|
-----------------------------------------|
--6-------------4-------------2----------|
----4----5-4------2----4-2------1--0-----|
------0------0------0------0----------0--|
-----------------------------------------|


      PM     PM     PM     PM   PM PM PM
  S S S  S S S  S S S  S S S  S S  S  S  S S S S
-------------------------------------------------|
-------------------------------------------------|
-------------------------------------------------|
--6-------------4-------------2------------------|
----4----5-4------2----4-2------1--0-----4-------|
------0------0------0------0----------0----3-2-0-|
-------------------------------------------------|


  S S S S S S S S S S S S S S S S    S S S S S S S S S S S S S S S S S S S S
----------------------------------|------------------------------------------|
----------------------------------|------------------------------------------|
----------------------------------|------------------------------------------|
----------------------------------|------------------------------------------|
--------------------2-------------|--------------------2---------------------|
------4---4-------3---3---4-------|------4---4-------3---3---4-------4-------|
--0-2---2---2-0-2-------2---2-0-3-|--0-2---2---2-0-2-------2---2-0-3---2-0-3-|


      PM     PM     PM     PM   PM PM PM
  S S S  S S S  S S S  S S S  S S  S  S
-----------------------------------------|
-----------------------------------------|
-----------------------------------------|
--6-------------4-------------2----------|
----4----5-4------2----4-2------1--0-----|
------0------0------0------0----------0--|
-----------------------------------------|


      PM     PM     PM     PM   PM PM PM
  S S S  S S S  S S S  S S S  S S  S  S  S S S S
-------------------------------------------------|
-------------------------------------------------|
-------------------------------------------------|
--6-------------4-------------2------------------|
----4----5-4------2----4-2------1--0-----4-------|
------0------0------0------0----------0----3-2-0-|
-------------------------------------------------|


  S S S S S S S S S S S S S S S S
----------------------------------|
----------------------------------|
----------------------------------|
----------------------------------|
--------------------2-------------|
------4---4-------3---3---4-------|
--0-2---2---2-0-2-------2---2-0-3-|


  S S S S S S S S S S S S S S S S S S S S S S S S    Q.      S  S  E   Q    E
--------------------------------------------------|----------------------------|
--------------------------------------------------|----------------------------|
--------------------------------------------------|----------------------------|
--------------------------------------------------|---------12-12-12--11----9--|
--------------------2---------------2-------------|--2-------------------------|
------4---4-------3---3---4-------3---3---4-------|--2------10-10-10---9----7--|
--0-2---2---2-0-2-------2---2-0-2-------2---2-0-3-|--0-------------------------|


  |----3----|
  Q    Q    Q    Q    Q       Q.      S  S  E   Q    E
---------------------------|----------------------------|
---------------------------|----------------------------|
---------------------------|----------------------------|
---------------------------|---------12-12-12--11----9--|
-------4----5---------7----|--2-------------------------|
--5----L----L--------------|--2------10-10-10---9----7--|
-----------------5----L----|--0-------------------------|


  |----3----|
  Q    Q    Q    E.  S Q       Q.      S  S  E   Q    E
----------------------------|----------------------------|
----------------------------|----------------------------|
-----------------------0----|----------------------------|
---------------------0-L----|---------12-12-12--11----9--|
-------4----5---------------|--2-------------------------|
--5----L----L----3-----L----|--2------10-10-10---9----7--|
----------------------------|--0-------------------------|


  |----3----|
  Q    Q    Q    Q    Q       E.  Q    S E.  S Q       E.  S Q    E.  S Q
---------------------------|------------------------|------------------------|
---------------------------|------------------------|------------------------|
---------------------------|------------------------|------------------------|
---------------------------|------------------------|------------------------|
-------4----5---------7----|------4----L-----0-L----|------0-L---------------|
--5----L----L--------------|------------------------|-----------------0-L----|
-----------------5----L----|--7----------3----------|--5----------2----------|


                               |----3----|
  Q.      S  S  E   Q    E     Q    Q    Q    Q    Q
----------------------------|---------------------------|
----------------------------|---------------------------|
----------------------------|---------------------------|
---------12-12-12--11----9--|---------------------------|
--2-------------------------|-------4----5---------7----|
--2------10-10-10---9----7--|--5----L----L--------------|
--0-------------------------|-----------------5----L----|



                               |----3----|
  Q.      S  S  E   Q    E     Q    Q    Q    E.  S Q
----------------------------|-----------------------------|
----------------------------|-----------------------------|
----------------------------|-----------------------0~----|
---------12-12-12--11----9--|---------------------0-L-----|
--2-------------------------|-------4----5----------------|
--2------10-10-10---9----7--|--5----L----L----3-----L-----|
--0-------------------------|-----------------------------|


                               |----3----|
  Q.      S  S  E   Q    E     Q    Q    Q    Q    Q
----------------------------|---------------------------|
----------------------------|---------------------------|
----------------------------|---------------------------|
---------12-12-12--11----9--|---------------------------|
--2-------------------------|-------4----5---------7----|
--2------10-10-10---9----7--|--5----L----L--------------|
--0-------------------------|-----------------5----L----|


  E.  Q    S E.  S Q       E.  S Q    E.  S Q       H.
------------------------|------------------------|---------------|
------------------------|------------------------|---------------|
------------------------|------------------------|---------------|
------------------------|------------------------|---------------|
------4----L-----0-L----|------0-L---------------|--2------------|
------------------------|-----------------0-L----|--2------------|
--7----------3----------|--5----------2----------|--0------------|


  H        E     H.              H.              H.              H        E
--------------|---------------|---------------|---------------|--------------|
--------------|---------------|---------------|---------------|--------------|
--------------|---------------|---------------|---------------|--------------|
--------------|---------------|---------------|---------------|--------------|
--L--------L--|--L------------|--L------------|--L------------|--L--------L--|
--L--------L--|--L------------|--L------------|--L------------|--L--------L--|
--L--------L--|--L------------|--L------------|--L------------|--L--------L--|


  H.               H.               E  S E  E  E  S S S    E  S E  E  S E
---------------|---x/------------|----------------------|------------------|
---------------|---x/------------|----------------------|------------------|
---------------|-----------------|----------------------|------------------|
---------------|-----------------|----------------------|------------------|
--L------------|-----------------|----------------------|------------------|
--L------------|-----------------|----------------------|------------------|
--L------------|-----------------|--9--8-7--6--3--0-0-0-|--9--8-7--6--3-0--|


  E  S E  E  E  S S S    S  S S S  S S    E  S E  E  E  S S S
----------------------|----------------|----------------------|
----------------------|----------------|----------------------|
----------------------|----------------|----------------------|
----------------------|----------------|----------------------|
----------------------|----------------|----------------------|
----------------------|----------------|----------------------|
--9--8-7--6--3--0-0-0-|--3p-0-0-3p-0-0-|--9--8-7--6--3--0-0-0-|


  E  S E  E  S E     E  S E  E  E  S S S
------------------|----------------------|
------------------|----------------------|
------------------|----------------------|
------------------|----------------------|
------------------|----------------------|
------------------|----------------------|
--9--8-7--6--3-0--|--9--8-7--6--3--0-0-0-|


  S  S S  S S S  S S  S S S  S S  S S    E  S E  E  E  S S S



--------------------------------------|----------------------|
--------------------------------------|----------------------|
--------------------------------------|----------------------|
--------------------------------------|--6--5-4--3-----------|
--------------------------------------|-------------5--2-2-2-|
--------------------------------------|----------------------|
--3p-0-6p-0-0-3p-0-6p-0-0-3p-0-6p-0-0-|----------------------|


  E  S E  E  S  S S    E  S E  E  E  S S S    S  S S S  S S E  E
--------------------|----------------------|----------------------|
--------------------|----------------------|----------------------|
--------------------|----------------------|----------------------|
--6--5-4--3---------|--6--5-4--3-----------|----------------3--4--|
-------------5p-2-2-|-------------5--2-2-2-|--5p-2-2-5p-2-2-------|
--------------------|----------------------|----------------------|
--------------------|----------------------|----------------------|


  E  S E  E  E  S S S    E  S E  E  S  S S    E  S E  E  E  S S S
----------------------|--------------------|----------------------|
----------------------|--------------------|----------------------|
----------------------|--------------------|----------------------|
--6--5-4--3-----------|--6--5-4--3---------|--6--5-4--3-----------|
-------------5--2-2-2-|-------------5p-2-2-|-------------5--2-2-2-|
----------------------|--------------------|----------------------|
----------------------|--------------------|----------------------|


  S S S S S S S S S S S S S S S S S S S S    Q    S S S Q    S Q
------------------------------------------|-------------------------|
------------------------------------------|-------------------------|
------------------------------------------|-------------------------|
------3---------3---------3---------3-----|--------------------4----|
--5-2---2-2-5-2---2-2-5-2---2-2-5-2---2-2-|-----------5------5------|
------------------------------------------|---------2---------------|
------------------------------------------|--0----L-----3-----------|


  Q    E.  E.  S S S S S    Q    S S S Q    S Q
-------------------------|-------------------------|
-------------------------|-------------------------|
-------------------------|-------------------------|
-----------9-------------|--------------------4----|
-------5-----------------|-----------5------5------|
--2------------5-2-4-----|---------2---------------|
---------------------3-0-|--0----L-----3-----------|


  Q    E.  E.  S S S S S S S S S S    Q    S S S Q    S Q
-----------------------------------|-------------------------|
-----------------------------------|-------------------------|
-----------------------------------|-------------------------|
-----------9-------------7-4-6-----|-------------------------|
-------5-----------------------5-2-|-------------------------|
--2------------5-2-4---------------|--0----L-1-2-3-----------|
---------------------3-0-----------|------------------3-2----|


  Q    E.  E.  S S S S S    Q    S S S Q    S Q
-------------------------|-------------------------|
-------------------------|-------------------------|
-----------4-------------|-------------------------|
-------------------------|-------------------------|
--4----------------------|-------------------------|
-------3-------5-2-4-----|--0----L-1-2-3-----------|
---------------------5-3-|------------------3-2----|


  Q    S S S E.  S S S S S S S S S S S S S S S    H.              H        E






-----------------------------------------------|---------------|--------------|
-----------------------------------------------|---------------|--------------|
-------------6---------------------------------|---------------|--------------|
-----------5---------------7-4-6-----6-4-------|---------------|--------------|
--4------5-----------------------7-5-----7-5-4-|---------------|--------------|
-------3---------5-2-4-------------------------|---------------|--------------|
-----------------------5-3---------------------|---------------|--------------|


  H.              Q.     Q        S  S  S  S  S  S  S  S  S S S S
---------------|--------------|-----------------------------------|
---------------|--------------|--12p-0-12-12p-0-12p-0-12p-0-0-0-0-|
---------------|--------------|-----------------------------------|
---------------|--------------|-----------------------------------|
---------------|--------------|-----------------------------------|
---------------|--------------|-----------------------------------|
---------------|--------------|-----------------------------------|


   S  S  S  S  S  S  S  S  S S     S  S  S  S  S  S  S  S  S S S S
-------------------------------|-----------------------------------|
--12p-0-12-12p-0-12p-0-12p-0-0-|--12p-0-12-12p-0-12p-0-12p-0-0-0-0-|
-------------------------------|-----------------------------------|
-------------------------------|-----------------------------------|
-------------------------------|-----------------------------------|
-------------------------------|-----------------------------------|
-------------------------------|-----------------------------------|


  S  S  S  S S S  S  S  S     S E.  H
--------------------------|------------------|----|----|
--9p-0-10p-0-0-9p-0-10p-0-|--12--------------|----|----|
--------------------------|------------------|----|----|
--------------------------|------------------|----|----|
--------------------------|------------------|----|----|
--------------------------|------------------|----|----|
--------------------------|------------------|----|----|


  S S S S S S S S S E  S    S H        Q       E  S E  E  E  S S S
-------------------------|------------------|----------------------|
-------------------------|------------------|----------------------|
-------------------------|------------------|----------------------|
-------------------------|------------------|----------------------|
-------------------------|------------------|----------------------|
-------------------------|------------------|----------------------|
--3-0-0-3-0-0-3-0-0-6--7-|--L---------------|--9--8-7--6--3--0-0-0-|


  E  S E  E  E  S S S    E  S E  E  E  S S S    S  S S S  S S S  S S  S
----------------------|----------------------|--------------------------|
----------------------|----------------------|--------------------------|
----------------------|----------------------|--------------------------|
----------------------|----------------------|--------------------------|
----------------------|----------------------|--------------------------|
----------------------|----------------------|--------------------------|
--9--8-7--6--3--0-0-0-|--9--8-7--6--3--0-0-0-|--3p-0-0-3p-0-0-6p-0-7p-0-|


   E   S E  E  E  S S S     E   S E  E  E  S S S     E   S E  E  E  S S S
------------------------|------------------------|------------------------|
------------------------|------------------------|------------------------|
------------------------|------------------------|------------------------|
------------------------|------------------------|------------------------|
------------------------|------------------------|------------------------|
--11--10-9--8--5--2-2-2-|--11--10-9--8--5--2-2-2-|--11--10-9--8--5--2-2-2-|
---9---8-7--6--3--0-0-0-|---9---8-7--6--3--0-0-0-|---9---8-7--6--3--0-0-0-|


  S  S S  S S S  S S  S S  S S    S  S S  S S S  S S  S  S  S S






-------------------------------|--------------------------------|----|----|----|
-------------------------------|--------------------------------|----|----|----|
-------------------------------|--------------------------------|----|----|----|
-------------------------------|--------------------------------|----|----|----|
-------------------------------|--------------------------------|----|----|----|
-------------------------------|--------------------------------|----|----|----|
--6p-0-7p-0-0-6p-0-7p-0-9p-0-0-|--7p-0-9p-0-0-7p-0-9p-0-10p-0-0-|----|----|----|


   S   E    E   S  E.    E   S     S  S  E   E.    S S  S  E
-------------------------------|------------------------------|
--14h-15~--14--12-14~---12-----|--11-12-----------------------|
----------------------------11-|--------11--10~--------10-11--|
-------------------------------|------------------12----------|
-------------------------------|------------------------------|
-------------------------------|------------------------------|
-------------------------------|------------------------------|


   E   S  S  S  S  S  S  S  S  S  S     E   S  E   E   E  S S S
------------------------------------|--16--15-14--13--10--7-7-7-|
--10--14-10-12-------14-10-12-------|---------------------------|
---------------11-------------11----|---------------------------|
------------------12-------------12-|---------------------------|
------------------------------------|---------------------------|
------------------------------------|---------------------------|
------------------------------------|---------------------------|


   E   S  E   E   E   S  S  S     E   S  E   E   E   S  S  S
--19--18-17--16--13--10-10-10-|--22--21-20--19--16--13-13-13-|
------------------------------|------------------------------|
------------------------------|------------------------------|
------------------------------|------------------------------|
------------------------------|------------------------------|
------------------------------|------------------------------|
------------------------------|------------------------------|


   S S  S S S  S S  S S S  S S  S S S     E   S  E   E  E  S S S
--------------------------------------|--13--12-11--10--7--4-4-4-|
--15-0-18-0-0-15-0-18-0-0-15-0-18-0-0-|--------------------------|
--------------------------------------|--------------------------|
--------------------------------------|--------------------------|
--------------------------------------|--------------------------|
--------------------------------------|--------------------------|
--------------------------------------|--------------------------|


   E   S  E   E   E  S S S     E   S  E   E   E   S  S  S
--16--15-14--13--10--7-7-7-|--19--18-17--16--13--10-10-10-|
---------------------------|------------------------------|
---------------------------|------------------------------|
---------------------------|------------------------------|
---------------------------|------------------------------|
---------------------------|------------------------------|
---------------------------|------------------------------|


   S  S  S  S  S  S  S  S  S  S  S  S  S  S  S
--13-10----10-13-16-13----13-16-19-16----16-19-|
--------12-------------15-------------18-------|
-----------------------------------------------|
-----------------------------------------------|
-----------------------------------------------|
-----------------------------------------------|
-----------------------------------------------|


  PM PM PM   PM   PM PM PM PM PM PM PM   PM   PM PM PM PM
  S  S  S  S S  S S  S  S  S  S  S  S  S S  S S  S  S  S





----------------------------------------------------------|
----------------------------------------------------------|
----------------------------------------------------------|
----------------------------------------------------------|
----------------------------------------------------------|
--------1--2----1-------------------1--2----1-------------|
--3--4-------4----3--4--3--0--3--4-------4----3--4--3--0--|


  PM PM PM   PM   PM PM PM PM PM PM PM   PM   PM PM PM PM
  S  S  S  S S  S S  S  S  S  S  S  S  S S  S S  S  S  S
----------------------------------------------------------|
----------------------------------------------------------|
----------------------------------------------------------|
----------------------------------------------------------|
----------------------------------------------------------|
--------4--5----4-------------------4--5----4-------------|
--6--7-------7----6--7--6--0--6--7-------7----6--7--6--0--|


  PM PM PM   PM   PM PM PM PM PM PM PM   PM   PM PM PM PM
  S  S  S  S S  S S  S  S  S  S  S  S  S S  S S  S  S  S
----------------------------------------------------------|
----------------------------------------------------------|
----------------------------------------------------------|
----------------------------------------------------------|
----------------------------------------------------------|
--------1--2----1-------------------1--2----1-------------|
--3--4-------4----3--4--3--0--3--4-------4----3--4--3--0--|


  PM PM PM   PM   PM PM PM PM PM PM
  S  S  S  S S  S S  S  S  S  S  S  S S S S S S S S    E  E  E.  E.
----------------------------------------------------|----------------|
----------------------------------------------------|----------------|
----------------------------------------------------|----------------|
----------------------------------------------------|----------------|
----------------------------------------------------|----------------|
--------4--5----4-------------------4-5---4---------|--2--1----------|
--6--7-------7----6--7--6--0--6--7------7---6-7-6-0-|--------3---0---|


  E  E  E.  E  E  E     E  E  E.  E.     E  E  E.  E  E  E     E  E  E.  E.
---------------------|----------------|---------------------|----------------|
---------------------|----------------|---------------------|----------------|
---------------------|----------------|---------------------|----------------|
---------------------|----------------|---------------------|----------------|
---------------------|----------------|---------------------|----------------|
--2--1---------------|--2--1----------|--2--1---------------|--5--4----------|
--------3---4--3--0--|--------3---0---|--------3---4--3--0--|--------6---0---|


  E  E  E.  E  E  E     E  E  E.  E.     E  E  E.  E  E  E     E  E  E.  E.
---------------------|----------------|---------------------|----------------|
---------------------|----------------|---------------------|----------------|
---------------------|----------------|---------------------|----------------|
---------------------|----------------|---------------------|----------------|
---------------------|----------------|---------------------|----------------|
--5--4---------------|--5--4----------|--5--4---------------|--7--5----------|
--------6---7--6--0--|--------6---0---|--------6---7--6--0--|--------6---0---|


  E  E  E.  E  E  E     E  E   E.  E.     E  E   E.  E  E  E
---------------------|-----------------|----------------------|
---------------------|-----------------|----------------------|
---------------------|-----------------|----------------------|
---------------------|-----------------|----------------------|
---------------------|--6--------------|--6-------------------|
--7--5---------------|-----7-----------|-----7----------------|
--------6---3--4--0--|--------10---0---|--------10---6--7--0--|


  S S S S S S S S S S    S S S  S S S  S  S  S  S



----------------------|---------------------------|
----------------------|------------------10-12----|
----------------------|------8-10---8-10-------10-|
----------------7-9---|--7-9------9---------------|
------6-8---6-8-----8-|---------------------------|
----------7-----------|---------------------------|
--4-6-----------------|---------------------------|


   S S  S S S S S S S S S S S S S S    W                   H.           E  E
------------------------------------|-------------------|----------------------|
--10--------------------------------|-------------------|----------------------|
-----8-10---8-----------------------|-------------------|----------------------|
----------9---7-9---7---------------|-------------------|----------------------|
------------------8---6-8---6-------|-------------------|----------------------|
--------------------------7---5-7---|-------------------|----------------------|
----------------------------------6-|-------------------|---------------7--L\--|


  S S S S S S S S S S S S S S S S    S S S S S S S S S S S S S S S S
----------------------------------|----------------------------------|
----------------------------------|----------------------------------|
----------------------------------|----------------------------------|
----------------------------------|----------------------------------|
----------------------------------|----------------------------------|
------4---4-------4---4-------5---|------4---4-------4---4-------7---|
--0-3---3---3-0-3---3---3-0-6---6-|--0-3---3---3-0-3---3---3-0-6---6-|


  Q    H.           H           W.
-----------------------------|-------------------|-------------------|
-----------------------------|-------------------|-------------------|
-----------------------------|-------------------|-------------------|
-----------------------------|-------------------|-------------------|
--2--------------------------|-------------------|-------------------|
--2--------------------------|-------------------|-------------------|
--0--------------------------|-------------------|-------------------|


  Q    E  Q    Q    Q    S S S S S S
-------------------------------------|
-------------------------------------|
-------------------------------------|
-------------------------------------|
--2-------2--------------------------|
--2-------2--------------1-2-4-2-4-2-|
--0-------0--------------------------|


  PM PM PM PM PM PM PM PM PM PM PM PM PM PM PM PM PM PM PM PM PM PM PM PM
  S  S  S  S  S  S  S  S  S  S  S  S  S  S  S  S  S  S  S  S  S  S  S  S
--------------------------------------------------------------------------|
--------------------------------------------------------------------------|
--------------------------------------------------------------------------|
--------------------------------------------------------------------------|
--------------------------------------------------------------------------|
--4--------4--5--4-----------4--5--4-----------4--------------------------|
-----6--7-----------7--6--5-----------7--6--7-----7--6--0--0--0--0--0--0--|


  PM PM PM PM PM PM PM PM PM PM PM PM PM PM PM PM PM PM PM PM PM PM PM PM
  S  S  S  S  S  S  S  S  S  S  S  S  S  S  S  S  S  S  S  S  S  S  S  S
--------------------------------------------------------------------------|
--------------------------------------------------------------------------|
--------------------------------------------------------------------------|
--------------------------------------------------------------------------|
-----------------------------4--------------------------------------------|
-----------4--5--4--------------7--5--4-----------4-----4--------------4--|
--7--6--7-----------7--6--7--------------7--6--7-----7-----7--6--6--7-----|


  PM PM PM PM PM PM PM PM PM PM PM PM PM PM PM PM PM PM PM PM PM PM PM PM
  S  S  S  S  S  S  S  S  S  S  S  S  S  S  S  S  S  S  S  S  S  S  S  S



--------------------------------------------------------------------------|
--------------------------------------------------------------------------|
--------------------------------------------------------------------------|
--------------------------------------------------------------------------|
--------------------------------------------------------------------------|
--4--------4--5--4-----------4--5--4-----------4--------------------------|
-----6--7-----------7--6--5-----------7--6--7-----7--6--0--0--0--0--0--0--|


  PM PM PM PM PM PM PM PM PM PM PM PM PM PM PM PM PM PM PM PM PM PM PM PM
  S  S  S  S  S  S  S  S  S  S  S  S  S  S  S  S  S  S  S  S  S  S  S  S
--------------------------------------------------------------------------|
--------------------------------------------------------------------------|
--------------------------------------------------------------------------|
--------------------------------------------------------------------------|
-----------------------------4--------------------------------------------|
-----------4--5--4--------------7--5--4-----------4-----4--------------4--|
--7--6--7-----------7--6--7--------------7--6--7-----7-----7--6--6--7-----|


  PM PM PM PM PM PM PM PM PM PM PM PM PM PM PM PM PM PM PM PM PM PM PM PM
  S  S  S  S  S  S  S  S  S  S  S  S  S  S  S  S  S  S  S  S  S  S  S  S
--------------------------------------------------------------------------|
--------------------------------------------------------------------------|
--------------------------------------------------------------------------|
--------------------------------------------------------------------------|
--------------------------------------------------------------------------|
--4--------4--5--4-----------4--5--4-----------4--------------------------|
-----6--7-----------7--6--5-----------7--6--7-----7--6--0--0--0--0--0--0--|


  PM PM PM PM PM PM PM PM PM PM PM PM PM PM PM PM PM PM PM PM PM PM PM PM
  S  S  S  S  S  S  S  S  S  S  S  S  S  S  S  S  S  S  S  S  S  S  S  S
--------------------------------------------------------------------------|
--------------------------------------------------------------------------|
--------------------------------------------------------------------------|
--------------------------------------------------------------------------|
-----------------------------4--------------------------------------------|
-----------4--5--4--------------7--5--4-----------4-----4--------------4--|
--7--6--7-----------7--6--7--------------7--6--7-----7-----7--6--6--7-----|


  PM PM PM PM PM PM PM PM PM PM PM PM PM PM PM PM PM PM PM PM PM PM PM PM
  S  S  S  S  S  S  S  S  S  S  S  S  S  S  S  S  S  S  S  S  S  S  S  S
--------------------------------------------------------------------------|
--------------------------------------------------------------------------|
--------------------------------------------------------------------------|
--------------------------------------------------------------------------|
--------------------------------------------------------------------------|
--4--------4--5--4-----------4--5--4-----------4--------------------------|
-----6--7-----------7--6--5-----------7--6--7-----7--6--0--0--0--0--0--0--|


  PM PM PM PM PM PM PM PM PM PM PM PM PM PM PM PM PM PM PM PM PM PM PM PM
  S  S  S  S  S  S  S  S  S  S  S  S  S  S  S  S  S  S  S  S  S  S  S  S
--------------------------------------------------------------------------|
--------------------------------------------------------------------------|
--------------------------------------------------------------------------|
--------------------------------------------------------------------------|
-----------------------------4--------------------------------------------|
-----------4--5--4--------------7--5--4-----------4-----4--------------4--|
--7--6--7-----------7--6--7--------------7--6--7-----7-----7--6--6--7-----|


  S. S. S. S. S. S. S. S. S. S. S. S. S. S. S. S.
--------------------------------------------------|
--------------------------------------------------|
--------------------------------------------------|
--------------------------------------------------|
--------------------------------------------------|
--------4-----4-----------4-----4-----------5-----|
--0--3-----3-----3--0--3-----3-----3--0--3-----6--|


  S. S. S. S. S. S. S. S. S. S. S. S. S. S. S. S.

--------------------------------------------------|
--------------------------------------------------|
--------------------------------------------------|
--------------------------------------------------|
--------------------------------------------------|
--------4-----4-----------4-----4-----------7-----|
--0--3-----3-----3--0--3-----3-----3--0--3-----6--|


  PM PM PM PM PM PM PM PM PM PM PM PM PM PM PM PM PM PM PM PM PM PM PM PM
  S  S  S  S  S  S  S  S  S  S  S  S  S  S  S  S  S  S  S  S  S  S  S  S
--------------------------------------------------------------------------|
--------------------------------------------------------------------------|
--------------------------------------------------------------------------|
--------------------------------------------------------------------------|
--------------------------------------------------------------------------|
--4--------4--5--4-----------4--5--4-----------4--------------------------|
-----6--7-----------7--6--5-----------7--6--7-----7--6--0--0--0--0--0--0--|


  PM PM PM PM PM PM PM PM PM PM PM PM PM PM PM PM PM PM PM PM PM PM PM PM
  S  S  S  S  S  S  S  S  S  S  S  S  S  S  S  S  S  S  S  S  S  S  S  S
--------------------------------------------------------------------------|
--------------------------------------------------------------------------|
--------------------------------------------------------------------------|
--------------------------------------------------------------------------|
-----------------------------4--------------------------------------------|
-----------4--5--4--------------7--5--4-----------4-----4--------------4--|
--7--6--7-----------7--6--7--------------7--6--7-----7-----7--6--6--7-----|


  PM PM PM PM PM PM PM PM PM PM PM PM PM PM PM PM PM PM PM PM PM PM PM PM
  S  S  S  S  S  S  S  S  S  S  S  S  S  S  S  S  S  S  S  S  S  S  S  S
--------------------------------------------------------------------------|
--------------------------------------------------------------------------|
--------------------------------------------------------------------------|
--------------------------------------------------------------------------|
--------------------------------------------------------------------------|
--4--------4--5--4-----------4--5--4-----------4--------------------------|
-----6--7-----------7--6--5-----------7--6--7-----7--6--0--0--0--0--0--0--|


  PM PM PM PM PM PM PM PM PM PM PM PM PM PM PM PM PM PM PM PM PM PM PM PM
  S  S  S  S  S  S  S  S  S  S  S  S  S  S  S  S  S  S  S  S  S  S  S  S
--------------------------------------------------------------------------|
--------------------------------------------------------------------------|
--------------------------------------------------------------------------|
--------------------------------------------------------------------------|
-----------------------------4--------------------------------------------|
-----------4--5--4--------------7--5--4-----------4-----4--------------4--|
--7--6--7-----------7--6--7--------------7--6--7-----7-----7--6--6--7-----|


  S. S. S. S. S. S. S. S. S. S. S. S. S. S. S. S.
--------------------------------------------------|
--------------------------------------------------|
--------------------------------------------------|
--------------------------------------------------|
--------------------------------------------------|
--------4-----4-----------4-----4-----------5-----|
--0--3-----3-----3--0--3-----3-----3--0--3-----6--|


  S. S. S. S. S. S. S. S. S. S. S. S. S. S. S. S.
--------------------------------------------------|
--------------------------------------------------|
--------------------------------------------------|
--------------------------------------------------|
--------------------------------------------------|
--------4-----4-----------4-----4-----------7-----|
--0--3-----3-----3--0--3-----3-----3--0--3-----6--|


  S. S. S. S. S. S. S. S. S. S. S. S. S. S. S. S.


--------------------------------------------------|
--------------------------------------------------|
--------------------------------------------------|
--------------------------------------------------|
--------------------------------------------------|
--------4-----4-----------4-----4-----------5-----|
--0--3-----3-----3--0--3-----3-----3--0--3-----6--|


  S. S. S. S. S. S. S. S. S. S. S. S. S. S. S. S.    H
--------------------------------------------------|-----------|----|
--------------------------------------------------|-----------|----|
--------------------------------------------------|-----------|----|
--------------------------------------------------|-----------|----|
--------------------------------------------------|--2--------|----|
--------4-----4-----------4-----4-----------7-----|--2--------|----|
--0--3-----3-----3--0--3-----3-----3--0--3-----6--|--0--------|----|


          PM PM PM PM PM PM
          |--3--|  |--3--|
  Q    E  S  S  S  E  E  E  Q       S S E  E  S S S S S S S S S S
---------------------------------|--------------------------------|
---------------------------------|--------------------------------|
---------------------------------|--------------------------------|
----------------------------6----|--------------------------------|
----------------------------5----|--------------------------------|
----------------------------4----|--------------------4-5---4-----|
----------0--0--0--0--0--0-------|--7-6-0-----0-0-6-7-----7---6-0-|


            PM PM PM PM    PM
  S S E  E  S  S  S  S  E  S  S S S    S S E  E  S S S S S S S S S S
------------------------------------|--------------------------------|
------------------------------------|--------------------------------|
------------------------------------|--------------------------------|
------------------------7-----------|--------------------------------|
------------------------6-----------|--------------------------------|
------------------------5-----4-----|--------------------1-2---1-----|
--7-6-0-----0--0--0--0-----0----2-0-|--7-6-0-----0-0-3-4-----4---3-0-|


            PM PM PM PM PM PM    PM PM PM
            |--3--|  |--3--|     |--3--|
  S S E  E  S  S  S  E  E  E  E  S  S  S  E.  S     Q.      S  S  E   Q    E
-------------------------------------------------|----------------------------|
-------------------------------------------------|----------------------------|
-------------------------------------------------|----------------------------|
------------------------------6-----------7---L\-|---------12-12-12--11----9--|
------------------------------5-----------6---L\-|--2-------------------------|
------------------------------4-----------5---L\-|--2------10-10-10---9----7--|
--4-3-0-----0--0--0--0--0--0-----0--0--0---------|--0-------------------------|


  |----3----|
  Q    Q    Q    Q    Q       Q.      S  S  E   Q    E
---------------------------|----------------------------|
---------------------------|----------------------------|
---------------------------|----------------------------|
---------------------------|---------12-12-12--11----9--|
-------4----5---------7----|--2-------------------------|
--5----L----L--------------|--2------10-10-10---9----7--|
-----------------5----L----|--0-------------------------|


  |----3----|
  Q    Q    Q    E.  S Q       Q.      S  S  E   Q    E
----------------------------|----------------------------|
----------------------------|----------------------------|
-----------------------0----|----------------------------|
---------------------0-L----|---------12-12-12--11----9--|
-------4----5---------------|--2-------------------------|
--5----L----L----3-----L----|--2------10-10-10---9----7--|
----------------------------|--0-------------------------|


  |----3----|
  Q    Q    Q    Q    Q       E.  Q    S E.  S Q       E.  S Q    E.  S Q
---------------------------|------------------------|------------------------|
---------------------------|------------------------|------------------------|
---------------------------|------------------------|------------------------|
---------------------------|------------------------|------------------------|
-------4----5---------7----|------4----L-----0-L----|------0-L---------------|
--5----L----L--------------|------------------------|-----------------0-L----|
-----------------5----L----|--7----------3----------|--5----------2----------|


                               |----3----|
  Q.      S  S  E   Q    E     Q    Q    Q    Q    Q
----------------------------|---------------------------|
----------------------------|---------------------------|
----------------------------|---------------------------|
---------12-12-12--11----9--|---------------------------|
--2-------------------------|-------4----5---------7----|
--2------10-10-10---9----7--|--5----L----L--------------|
--0-------------------------|-----------------5----L----|


                               |----3----|
  Q.      S  S  E   Q    E     Q    Q    Q    E.  S Q
----------------------------|-----------------------------|
----------------------------|-----------------------------|
----------------------------|-----------------------0~----|
---------12-12-12--11----9--|---------------------0-L-----|
--2-------------------------|-------4----5----------------|
--2------10-10-10---9----7--|--5----L----L----3-----L-----|
--0-------------------------|-----------------------------|


                               |----3----|
  Q.      S  S  E   Q    E     Q    Q    Q    Q    Q
----------------------------|---------------------------|
----------------------------|---------------------------|
----------------------------|---------------------------|
---------12-12-12--11----9--|---------------------------|
--2-------------------------|-------4----5---------7----|
--2------10-10-10---9----7--|--5----L----L--------------|
--0-------------------------|-----------------5----L----|


  E.  Q    S E.  S Q       E.  S Q    E.  S Q       W
------------------------|------------------------|-------------------|
------------------------|------------------------|-------------------|
------------------------|------------------------|-------------------|
------------------------|------------------------|-------------------|
------4----L-----0-L----|------0-L---------------|--2----------------|
------------------------|-----------------0-L----|--2----------------|
--7----------3----------|--5----------2----------|--0----------------|


  W                   W                   W
-------------------|-------------------|-------------------|-------------------|
-------------------|-------------------|-------------------|-------------------|
-------------------|-------------------|-------------------|-------------------|
-------------------|-------------------|-------------------|-------------------|
--L----------------|--L----------------|--L----------------|-------------------|
--L----------------|--L----------------|--L----------------|-------------------|
--L----------------|--L----------------|--L----------------|-------------------|


                                          E  E  E  E  E  E    Q
-------------------|-------------------|----------------------------|
-------------------|-------------------|----------------------------|
-------------------|-------------------|----------------------------|
-------------------|-------------------|----------------------------|
-------------------|-------------------|----------------------------|
-------------------|-------------------|--------7-------------------|
-------------------|-------------------|--5--6-----6--5--0--<>3~----|


         PM PM      PM PM           PM PM      PM PM

  E   E  E  E  Q    E  E     E   E  E  E  Q    E  E
--------------------------|--------------------------|
--------------------------|--------------------------|
--------------------------|--------------------------|
--------------------------|--------------------------|
---------------2----------|---------------2----------|
---------------2----------|---------------2----------|
--3p--0--0--0--0----0--0--|--3p--0--0--0--0----0--0--|


         PM PM      PM PM
  E   E  E  E  Q    E  E     E  E  E  E  E  E  Q
--------------------------|--------------------------|
--------------------------|--------------------------|
--------------------------|--------------------------|
--------------------------|--------------------------|
---------------2----------|--------------------------|
---------------2----------|--------7-----------------|
--3p--0--0--0--0----0--0--|--5--6-----6--5--0--3~----|


         PM PM      PM PM           PM PM      PM PM
  E   E  E  E  Q    E  E     E   E  E  E  Q    E  E
--------------------------|--------------------------|
--------------------------|--------------------------|
--------------------------|--------------------------|
--------------------------|--------------------------|
---------------2----------|---------------2----------|
---------------2----------|---------------2----------|
--3p--0--0--0--0----0--0--|--3p--0--0--0--0----0--0--|


         PM PM      PM PM
  E   E  E  E  Q    E  E     E  E  E  E  E  E  Q
--------------------------|--------------------------|
--------------------------|--------------------------|
--------------------------|--------------------------|
--------------------------|--------------------------|
---------------2----------|--------------------------|
---------------2----------|--------7-----------------|
--3p--0--0--0--0----0--0--|--5--6-----6--5--0--3~----|


         PM PM      PM PM           PM PM      PM PM
  E   E  E  E  Q    E  E     E   E  E  E  Q    E  E
--------------------------|--------------------------|
--------------------------|--------------------------|
--------------------------|--------------------------|
--------------------------|--------------------------|
---------------2----------|---------------2----------|
---------------2----------|---------------2----------|
--3p--0--0--0--0----0--0--|--3p--0--0--0--0----0--0--|


         PM PM      PM PM
  E   E  E  E  Q    E  E     E  E  E  E  E  E  Q
--------------------------|--------------------------|
--------------------------|--------------------------|
--------------------------|--------------------------|
--------------------------|--------------------------|
---------------2----------|--------------------------|
---------------2----------|--------7-----------------|
--3p--0--0--0--0----0--0--|--5--6-----6--5--0--3~----|


         PM PM      PM PM           PM PM      PM PM
  E   E  E  E  Q    E  E     E   E  E  E  Q    E  E
--------------------------|--------------------------|
--------------------------|--------------------------|
--------------------------|--------------------------|
--------------------------|--------------------------|
---------------2----------|---------------2----------|
---------------2----------|---------------2----------|
--3p--0--0--0--0----0--0--|--3p--0--0--0--0----0--0--|


         PM PM      PM PM
  E   E  E  E  Q    E  E     E  E  E  E  E  E  Q
--------------------------|--------------------------|
--------------------------|--------------------------|
--------------------------|--------------------------|
--------------------------|--------------------------|
---------------2----------|--------------------------|
---------------2----------|--------7-----------------|
--3p--0--0--0--0----0--0--|--5--6-----6--5--0--3~----|


         PM PM      PM PM           PM PM      PM PM
  E   E  E  E  Q    E  E     E   E  E  E  Q    E  E
--------------------------|--------------------------|
--------------------------|--------------------------|
--------------------------|--------------------------|
--------------------------|--------------------------|
---------------2----------|---------------2----------|
---------------2----------|---------------2----------|
--3p--0--0--0--0----0--0--|--3p--0--0--0--0----0--0--|


         PM PM      PM PM
  E   E  E  E  Q    E  E     E  E  E  E  E  E  Q
--------------------------|--------------------------|
--------------------------|--------------------------|
--------------------------|--------------------------|
--------------------------|--------------------------|
---------------2----------|--------------------------|
---------------2----------|--------7-----------------|
--3p--0--0--0--0----0--0--|--5--6-----6--5--0--3~----|


         PM PM      PM PM           PM PM      PM PM
  E   E  E  E  Q    E  E     E   E  E  E  Q    E  E
--------------------------|--------------------------|
--------------------------|--------------------------|
--------------------------|--------------------------|
--------------------------|--------------------------|
---------------2----------|---------------2----------|
---------------2----------|---------------2----------|
--3p--0--0--0--0----0--0--|--3p--0--0--0--0----0--0--|


         PM PM      PM PM
  E   E  E  E  Q    E  E     E  E  E  E  E  E  Q
--------------------------|--------------------------|
--------------------------|--------------------------|
--------------------------|--------------------------|
--------------------------|--------------------------|
---------------2----------|--------------------------|
---------------2----------|--------7-----------------|
--3p--0--0--0--0----0--0--|--5--6-----6--5--0--3~----|


         PM PM      PM PM           PM PM      PM PM
  E   E  E  E  Q    E  E     E   E  E  E  Q    E  E
--------------------------|--------------------------|
--------------------------|--------------------------|
--------------------------|--------------------------|
--------------------------|--------------------------|
---------------2----------|---------------2----------|
---------------2----------|---------------2----------|
--3p--0--0--0--0----0--0--|--3p--0--0--0--0----0--0--|


         PM PM      PM PM
  E   E  E  E  Q    E  E     E  E  E  E  E  E  Q
--------------------------|--------------------------|
--------------------------|--------------------------|
--------------------------|--------------------------|
--------------------------|--------------------------|
---------------2----------|--------------------------|
---------------2----------|--------7-----------------|
--3p--0--0--0--0----0--0--|--5--6-----6--5--0--3~----|


         PM PM      PM PM           PM PM      PM PM
  E   E  E  E  Q    E  E     E   E  E  E  Q    E  E
--------------------------|--------------------------|
--------------------------|--------------------------|
--------------------------|--------------------------|
--------------------------|--------------------------|
---------------2----------|---------------2----------|
---------------2----------|---------------2----------|
--3p--0--0--0--0----0--0--|--3p--0--0--0--0----0--0--|


         PM PM      PM PM
  E   E  E  E  Q    E  E     E  E  E  E  E  E  Q
--------------------------|--------------------------||
--------------------------|--------------------------||
--------------------------|--------------------------||
--------------------------|--------------------------||
---------------2----------|--------------------------||
---------------2----------|--------7-----------------||
--3p--0--0--0--0----0--0--|--5--6-----6--5--0--3~----||


***************************************************
***************************************************
***************************************************

GUITAR 3


E||-------|-------|-------|-------|-------|-------|-------|-------|-------|
B||-------|-------|-------|-------|-------|-------|-------|-------|-------|
G||-------|-------|-------|-------|-------|-------|-------|-------|-------|
D||-------|-------|-------|-------|-------|-------|-------|-------|-------|
A||-------|-------|-------|-------|-------|-------|-------|-------|-------|
E||-------|-------|-------|-------|-------|-------|-------|-------|-------|
B||-------|-------|-------|-------|-------|-------|-------|-------|-------|





           Q     H.
-------|--10------------------|-------|-------|-------|-------|-------|-------|
-------|--13b-----------------|-------|-------|-------|-------|-------|-------|
-------|----------------------|-------|-------|-------|-------|-------|-------|
-------|----------------------|-------|-------|-------|-------|-------|-------|
-------|----------------------|-------|-------|-------|-------|-------|-------|
-------|----------------------|-------|-------|-------|-------|-------|-------|
-------|----------------------|-------|-------|-------|-------|-------|-------|





  S S S S E.  S  S  S E   S  S  S  S
-------------------10-7-----------13-|
------7---6--------------------12----|
----7---7-----6s-7----------10-------|
--9----------------------12----------|
-------------------------------------|
-------------------------------------|
-------------------------------------|


  S  S  S  S  S  S  S  S  S  S  S  S  S  S  S

--L-------21-19-13----------------------------|
----14-15----------15-------------------------|
----------------------16-11----14-11-13-------|
----------------------------12----------14-12-|
----------------------------------------------|
----------------------------------------------|
----------------------------------------------|


  S S S S E.  S  S  S E   S  S  S  S
-------------------10-7-----------13-|
------7---6--------------------12----|
----7---7-----6s-7----------10-------|
--9----------------------12----------|
-------------------------------------|
-------------------------------------|
-------------------------------------|


  S  S  S  S  S  S  S  S  S  S  S  S  S  S  S  S  S  S  S  S  S  S  S  S  S
--L-------21-19-13----------------------------------------------------------|
----14-15----------15-------------------------------------------------------|
----------------------16-11----14-11-13-------14-11-13-------13-11----------|
----------------------------12----------14-12----------14-12-------14-12-11-|
----------------------------------------------------------------------------|
----------------------------------------------------------------------------|
----------------------------------------------------------------------------|




                                                 \4/
   Q     Q      S  S  S  S  S  S  S  S  S  S  E  Q
--------------/13-16-14-13----14-13-------------------|
--10b----L-----------------16-------16-14-------------|
------------------------------------------16-14--L----|
------------------------------------------------------|
------------------------------------------------------|
------------------------------------------------------|
------------------------------------------------------|


            T
   Q.       E    E      E   E   E   E   Q.
---------------------------14--19--14--13~------|
--13b------20pb--Lpbr--12-----------------------|
------------------------------------------------|
------------------------------------------------|
------------------------------------------------|
------------------------------------------------|
------------------------------------------------|


   |---3---|  |-------7-------|  7   7  ---- 3   3 ---- |-------7------|   7  --
   S   S   S  S   S   S   S   S  S   S   S   S   S  S   S   S   S   S  S   S   S
--18p-16p-14--------------------14h-16h-18p-16p-14--------------------14h-16h-18-|
-------------17p-15p-13h-15h-17--------------------17p-15p-13h-15h-17------------|
---------------------------------------------------------------------------------|
---------------------------------------------------------------------------------|
---------------------------------------------------------------------------------|
---------------------------------------------------------------------------------|
---------------------------------------------------------------------------------|


   S. S. S. S. S. S. S. S. S. S. S. S. Q     E
-----------------13-13-------17-17-13-21~----L\--|
-----14-14-------------14-14----------20~----L\--|
-----------14-14---------------------------------|
--12---------------------------------------------|
-------------------------------------------------|
-------------------------------------------------|
-------------------------------------------------|


                            3   3   3
   S. S. S. S. S. S.  S. S. S.  S.  S. S. S. S. S. S. S.
--------------------------------------------------------|
--------------------------------------------------21----|
-----10-13----10-13s-19----16h-19p-16----16-19-22----22-|
--12-------12-----------18------------18----------------|
--------------------------------------------------------|
--------------------------------------------------------|
--------------------------------------------------------|


   |--3--|  |------3-----|  |--3--|
   S  S  S  S  S  E   S  S  S  S  S  E   E.   S  S  S  S  E.   S  S  S  S


--------16-19--------------19-22------------------------------------------|
-----18-------18--------21-------21-----18s---6p-5p-4p-3------------------|
--19-------------16--22-------------19-------------------19s---7p-6p-5p-4-|
--------------------------------------------------------------------------|
--------------------------------------------------------------------------|
--------------------------------------------------------------------------|
--------------------------------------------------------------------------|


   S S S  S S S  S S S  S S S  S S S S S S  S S S   S  S  S
---------------------------------7-8-9-8-7----7-9s-10-12-13-|
--10-9-7----7-9-10-9-7----7-9-10-----------10---------------|
---------10------------10-----------------------------------|
------------------------------------------------------------|
------------------------------------------------------------|
------------------------------------------------------------|
------------------------------------------------------------|


                                                                    |-----5-----
   S S  S  S  S  S  T  T  T  T  T  T  S  S  S  T  T  T  S  S  S  S  S  S  S  S
--11-9-11-13-11-13-14-13-12-11-16-14-13-14-16-13-14-16-17-17-16-14-19-17-16-17-1-|
---------------------------------------------------------------------------------|
---------------------------------------------------------------------------------|
---------------------------------------------------------------------------------|
---------------------------------------------------------------------------------|
---------------------------------------------------------------------------------|
---------------------------------------------------------------------------------|


   |---3--|   |---3---|  |---3--|   |---3---|  |---3--|   |---3--|   |---3--|
   S   S  S   S   S   S  S   S  S   S   S   S  S   S  S   S   S  S   S   S  S
--23p-19-23p-19p-17p-14-23p-19-23p-19p-17p-14-23p-19-23p-19p-17-13h-14h-17-21p-1-|
---------------------------------------------------------------------------------|
---------------------------------------------------------------------------------|
---------------------------------------------------------------------------------|
---------------------------------------------------------------------------------|
---------------------------------------------------------------------------------|
---------------------------------------------------------------------------------|


                                  |--3-| |--3-| |--3--|                 |---3---
   S  S  S   S T T  S S S  Q      S  S S S  S S S  S  S  T  T  T  T  T  S   S
-----------------------------------------9-13-9---------------------13-16s-17s-1-|
---------------------------------------9--------9----------------14--------------|
--16-14-10s-11-8-9-10-8-7s-6~-------10------------10----------13-----------------|
---------------------------------11------------------11----15--------------------|
--------------------------------------------------------16-----------------------|
---------------------------------------------------------------------------------|
---------------------------------------------------------------------------------|


  |--3--|  |--3-|  |--3-|  |--3--|  |--3--|  |--3--| |--3--|  |--3-|  |--3--|  |
  S  S  S  S S  S  S S  S  S  S  S  S  S  S  S  S  S S  S  S  S S  S  S  S  S  S
---------------------------------------------------------------------------------|
---------------------------------------------------------------------------------|
--------------------------10-13-16-13-10-13-16-10-----------------------10-13-16-|
--9-12-15-12-9-12-15-9-12-------------------------15-9-12-15-12-9-12-15----------|
---------------------------------------------------------------------------------|
---------------------------------------------------------------------------------|
---------------------------------------------------------------------------------|


   |--3--|  |--3--|  |--3--|  |--3--|  |--3--|  |--3--|  |--3--|  |--3--|  |--3-
   S  S  S  S  S  S  S  S  S  S  S  S  S  S  S  S  S  S  S  S  S  S  S  S  S  S
--19-16-13-16-19-16-19-16-13-------------------------------13-16-19-16-13-16-19-|
-----------------------------18-15-12-15-18-15-12----12-18----------------------|
--------------------------------------------------16----------------------------|
--------------------------------------------------------------------------------|
--------------------------------------------------------------------------------|
--------------------------------------------------------------------------------|
--------------------------------------------------------------------------------|




   |--3--|  |--3--|  |--3--|  |--3--|  |--3--|  |--3--|  |--3--|  |--3--|  |--3-
   S  S  S  S  S  S  S  S  S  S  S  S  S  S  S  S  S  S  S  S  S  S  S  S  S  S
--16-22-19-16-19-22-19-22-19-16-19-16-19-22-19-16-19-22-19-22-19-16-19-16-19-22-|
--------------------------------------------------------------------------------|
--------------------------------------------------------------------------------|
--------------------------------------------------------------------------------|
--------------------------------------------------------------------------------|
--------------------------------------------------------------------------------|
--------------------------------------------------------------------------------|


                                                         TP
   |--3--|  |--3--|  |--3--|  |--3--|  |--3--|  |--3--|
   S  S  S  S  S  S  S  S  S  S  S  S  S  S  S  S  S  S  H.
--19-22-19-22-19-16-19-16-19-22-19-16-19-22-19-22-19-22-22b------------|
-----------------------------------------------------------------------|
-----------------------------------------------------------------------|
-----------------------------------------------------------------------|
-----------------------------------------------------------------------|
-----------------------------------------------------------------------|
-----------------------------------------------------------------------|


   Q     Q
--22b----L~----|---------|-------|-------|-------|-------|-------|-------|
---------------|---------|-------|-------|-------|-------|-------|-------|
---------------|---------|-------|-------|-------|-------|-------|-------|
---------------|---------|-------|-------|-------|-------|-------|-------|
---------------|---------|-------|-------|-------|-------|-------|-------|
---------------|---------|-------|-------|-------|-------|-------|-------|
---------------|---------|-------|-------|-------|-------|-------|-------|



  
Duration Legend
---------------
W - whole
H - half
Q - quarter
E - 8th
S - 16th
T - 32nd
X - 64th
. - note dotted
|-n-|  - n-tuplets


Tablature Legend
----------------
L - tied note
x - dead note
g - grace note
(n) - ghost note
> - accentuded note
NH - natural harmonic
AH - artificial harmonic
TH - tapped harmonic
SH - semi harmonic
PH - pitch harmonic
h - hammer on
p - pull off
b - bend
br - bendRelease
pb - preBend
pbr - preBendRelease
brb - bendReleaseBend
\n/ - tremolo bar dip
\n - tremolo bar dive
-/n - tremolo bar Release up
/n\ - tremolo bar inverted dip
/n - tremolo bar return
-\n - tremolo bar Release down
S - shift slide
s - legato slide
/ -  slide into from below or out of upwards
\ -  slide into from above or out of downwards
~ - vibrato
W - wide vibrato
tr - trill
TP - tremolo picking
T - tapping
S - slap
P - pop
< - fade in
^ - brush up
v - brush down

comments
print report bad tab
3 comments total.
0 reply
clearfin wrote on March 19 2011, 08:18 pm

This tab isn't even cliffs of dover

0 reply
TheGuitarNewbie wrote on June 27 2011, 03:04 pm

Wait, what. This isn't correct. For christ sake, who made this? Try to play the song before you post it as a tab.

0 reply
ZoSo127 wrote on December 12 2011, 01:45 am

...Is this "The Dark Eternal Night" by Dream Theater?? Haha...

I want to post or [tab]
guest
You may want to rate the tab now too:
select rating
Please do not post tabs as comments. Select "correction" instead!