Oops, an error
Loading. Please wait.

Auld Lang Syne Tab

1,539 views 3 this week
no commentswrite comment
1 2 3 4 5
excellent!
x 1
add to favorites launch autoscroll
font size
0
reset
Autoscroll
+/-
esc
set tempo
stop
Contributor
Difficulty
advanced
WARNING: You are trying to view
                                    content from Ultimate-Guitar.com
                                    in an unauthorized application,
                                    which is prohibited.

                                    Please use an official Ultimate
                                    Guitar Tabs application for iPhone,
                                    iPad or Android to access legitimate
                                    chords, guitar, bass, and drum tabs
                                    from Ultimate-Guitar.com database.

                                    Type "ultimate guitar tabs" in Apple
                                    App Store's or Android Market's
                                    search to find the application.
Auld Lang Syne

arrangement by Eric Tingstad on "The Gift" album
See http://www.tingstadrumbel.com/ or http://erictingstad.com/

tabbed by Alex "Zandy" Wight

(Capo 4)

     E  E     E  S S S S S S E  S S S S S S  
E||--------|--------------------------0-----|
B||--------|--1--------0-----1--------------|
G||-----0--|-------0-------0------0-------0-|
D||--------|-----2-------2------2-------2---|
A||--------|--3------3-------3------3-------|
E||--------|--------------------------------|


  E  S S S S  S S E  S S S S S S    E  S S S S S S E  S S S S S  S    
-----------------------0---------|-----------------0--------3---(3)S-|
--3----1---0h---1-3--------3-----|--1--------1-----1--------1---(1)S-|
-------------------------------0-|-------0-------0------0--------0---|
-----0--------0------0-------0---|-----2-------2------2-------2------|
---------------------------------|--3------3-------3------3----------|
--3------3--------3------3-------|-----------------------------------|


  E  S S S S S S E  S S S S  E       E  S S S S S S E  S S S S S S  
--5-----------------------5-(5)s--|--3--------0-----0--------------|
--3--------3-----3--------3-(3)s--|--1--------1-----1--------1-----|
-------4-------4------4-----------|-------0-------0------0-------0-|
-----0-------0------0--------0----|-----2-------2------2-------2---|
----------------------------------|--3------3-------3------3-------|
--1------1-------1------1---------|--------------------------------|


  E  S S S S S S E  S S S S S S    E  S S S S S S E  S S S S S S  
----------------------0---------|--------------------------------|
--3--------1-----3--------3-----|--1-----------------------------|
-------0-------0--------------0-|-----------2-----2--------0-----|
-----0-------0------0-------0---|-------3-------3------3-------3-|
--------------------------------|-----3-------3------3-------3---|
--3------3-------3------3-------|--1------1-------1------1-------|


  E  S S S S S S S S  S   S S S S S    S S S S S S S S S S S  S S S S S  
-----------0--------------0-------0-|--------0-------0--------0-------0-|
--1------------3-1---(1)s---6-------|------1-------3-------1s---6-------|
-------0-----0-----2----------0-----|----0-------0-------2--------0-----|
-----2----------------0---------7---|------2-------0-------2--------7---|
--3------2-------0----------8---L---|--3-------2-------0--------8-----L-|
------------------------------------|-----------------------------------|


  E  S S S S S S E  S S S S S S    E  S S S S  S S E  S S S S S S  
--------------------------0-----|-----------------------0---------|
-----------0-----1--------------|--3----1---0h---1-3--------3-----|
-------0-------0------0-------0-|-------------------------------0-|
-----2-------2------2-------2---|-----0--------0------0-------0---|
--3------3-------3------3-------|---------------------------------|
--------------------------------|--3------3--------3------3-------|


  E  S S S S S S E  S S S S S  S      E  S S S S S S E  S S S S  E     
-----------------0--------3---(3)s-|--5-----------------------5-(5)s--|
--1--------1-----1--------1---(1)s-|--3--------3-----3--------3-(3)s--|
-------0-------0------0--------0---|-------4-------4------4-----------|
-----2-------2------2-------2------|-----0-------0------0--------0----|
--3------3-------3------3----------|----------------------------------|
-----------------------------------|--1------1-------1------1---------|


  E  S S S S S S E  S S S S S S    E  S S S S S S E  S S S S S S  
--3--------0-----0--------------|----------------------0---------|
--1--------1-----1--------1-----|--3--------1-----3--------3-----|
-------0-------0------0-------0-|-------0-------0--------------0-|
-----2-------2------2-------2---|-----0-------0------0-------0---|
--3------3-------3------3-------|--------------------------------|
--------------------------------|--3------3-------3------3-------|


  E  S S S S S S E  S S S S S S    E  S S S S S S S S  S   S S S S S  
--------------------------------|-----------0--------------0-------0-|
--1-----------------------------|--1------------3-1---(1)s---6-------|
-----------2-----2--------0-----|-------0-----0-----2----------0-----|
-------3-------3------3-------3-|-----2----------------0---------7---|
-----3-------3------3-------3---|--3------2-------0----------8-----L-|
--1------1-------1------1-------|------------------------------------|


    S S S S S S S S S S S  S S S S S      E  S S S S S S S S S S S S S S  
|---------0-------0--------0-------0--||-----------------0-----0-------0-|
|-------1-------3-------1s---6---6----||--3--------3-------3---------3---|
|*----0-------0-------2--------0-----*||-------5-------5-----------5-----|
|*------2-------0-------2--------7---*||-----7-------7-------7-----------|
|---3-------2-------0--------8-----L--||--0------0-------0-------0-------|
|-------------------------------------||---------------------------------|


  E  T  T  S S S S S S S S S S S S S    E  S S S S S S S S S S S S S S  
-------------------------------------|-----------0-----3-----0-------0-|
---------------------------0---------|-----3-----0-------0---------0---|
---------------0-----2-----0-----0---|-------5-------5-----------5-----|
-----0h-2h-3-------3---3-------3---3-|-----7-------7-------7-----------|
-----3-----------3-------3-------3---|--0------0-------0-------0-------|
--1----------1-------1-------1-------|---------------------------------|


  E  T  T  S S S S S S S S S S S S S    E  S S S S S S S S S S S S S S  
-------------------------------------|-----------0-----3-----0-------0-|
---------------------------0-------0-|-------3-----------0---------0---|
---------------0-----2-----0-----0---|-----5---------5-----------5-----|
-----0h-2h-3-------3---3-------3-----|-----7-------7-------7-----------|
-----3-----------3-------3-----------|--0------0-------0-------0-------|
--1----------1-------1-------1-------|---------------------------------|


  E  T  T  S S S S S S S S S S S S S  
-------------------------------------|
---------------------------0-----0---|
---------------0-----2-----0-----0---|
-----0h-2h-3-------3---3-------3---0-|
-----3-----------3-------3-------3---|
--1----------1-------1-------1-------|


  E  T  T  S S S S S S S S S S S S  S     E  S S S S S S E  S S S S S S  
---------------------------0-------(0)-|--------------------------0-----|
---------------------------0--------0--|--1--------0-----1--------------|
---------------0-----2-----0-----0-----|-------0-------0------0-------0-|
-----0h-2h-3-------3---3-------3-------|-----2-------2------2-------2---|
-----3-----------3-------3-------------|--3------3-------3------3-------|
--1----------1-------1-------1---------|--------------------------------|


  E  S S S S  S S E  S S S S S S    E  S S S S S S E  S S S S S  S    
-----------------------0---------|-----------------0--------3---(3)S-|
--3----1---0h---1-3--------3-----|--1--------1-----1--------1---(1)S-|
-------------------------------0-|-------0-------0------0--------0---|
-----0--------0------0-------0---|-----2-------2------2-------2------|
---------------------------------|--3------3-------3------3----------|
--3------3--------3------3-------|-----------------------------------|


  E  S S S S S S E  S S S S  E       E  S S S S S S E  S S S S S S  
--5-----------------------5-(5)S--|--3--------0-----0--------------|
--3--------3-----3--------3-(3)S--|--1--------1-----1--------1-----|
-------4-------4------4-----------|-------0-------0------0-------0-|
-----0-------0------0--------0----|-----2-------2------2-------2---|
----------------------------------|--3------3-------3------3-------|
--1------1-------1------1----L----|--------------------------------|


  E  S S S S S S E  S S S S S S    E  S S S S S S E  S S S S S S  
----------------------0-L-------|--------------------------------|
--3--------1-----3--------3-----|--1----L------------------------|
-------0-------0--------------0-|-----------2-----2----L---0---L-|
-----0-------0------0-------0---|-------3---L---3-L----3---L---3-|
--------------------------------|-----3-------3------3-------3---|
--3------3-------3------3-------|--1------1-------1------1-----L-|


  E  S S S S S S S S  S   S S S S S    S S S S S S S S S S S  S S S S S  
-----------0--------------0-------0-|--------0-------0--------0-------0-|
--1------------3-1---(1)s---6-------|------1-------3-------1s---6---6---|
-------0-----0-----2----------0-----|----0-------0-------2--------0-----|
-----2----------------0---------7---|------2-------0-------2--------7---|
--3------2-------0----------8-----L-|--3-------2-------0--------8-----L-|
------------------------------------|-----------------------------------|


  S S S S S S S S S S S  S S S S S    S S S S S S S S S S S S  
--------0-------0--------0-------0-|----------------0---L---0-|
------1-------3-------1s---6-------|--------6---L-6-------6-L-|
----0-------0-------2--------0-----|----0-------0-------0-----|
------2-------0-------2--------7---|------7-------7-------7---|
--3-------2-------0--------8-----L-|--8---L---8---L---8---L---|
-----------------------------------|--------------------------|


  E  S S S S S S S S S S S S S S    E  S S S S S S S S S S S S S S  
---------------0-----L---------0-|--8------L-8---L-8-----0-L-0---0-|
--8----L---6---L-------6---L-6---|-----------6-------6---------6---|
-------0-L---------0-L-----0---L-|-------0-------0-----------------|
-----7---L---7---L---7---L-------|-----7-------7-------7-----------|
---------------------------------|--8----L-8---L---8---L---8-----L-|
--8----L-8---L---8---L---8-----L-|---------------------------------|


  E  S S S S S S S S S S S S S S    E  S S S S S S S S S S S S S S  
---------------0-----L---------0-|--8------L-0---L-------0---L---0-|
--8----L---6---L-------6---L-6-L-|-----------------6---L-------6-L-|
-------0-----------0-------0-----|-------0-------0---0-------0-----|
-----7-------7-------7-------7---|-----7-------7-------7-------7---|
---------------------------------|--8----L-8---L---8---L---8-----L-|
--8----L-8---L---8---L---8-----L-|---------------------------------|


  E  S S S S S S S S S S S S S S    E  S S S S S S S S S S S S S S  
---------------0-----L---------0-|--8------L-8---L-8---L-0-L-0-L-0-|
--8------L-6-L---------6---L-6-L-|--6--------6-------6---------6---|
-------0-----------0-------0-----|-------0-------0-----------------|
-----7-------7-------7-------7---|-----7-------7-------7-------7---|
---------------------------------|--8----L-8-----L-8---L---8-----L-|
--8----L-8---L---8---L---8-----L-|---------------------------------|


  E  S S S S S S S S S S S S S S    E  S S S S S S S S S S S S S S  
---------------0-----L-0---L---0-|-----------0---L-------0-----L-0-|
--8----L---6---L-------------6-L-|--3----L---------3---L-------3---|
-------0-----------0-------0-----|-------5-L-----5---5-------5-----|
-----7-------7-------7-----------|-----7-------7-------7-------7---|
---------------------------------|--0----L-0-----L-0-----L-0-----L-|
--8----L-8---L---8---L---8-----L-|---------------------------------|


  E  T  T  S S S S S S S S S S S S S    E  S S S S S S E  S E  S S S  
--L----------------------------------|-----------0---L-3--L-3--0---L-|
---------------------------0---L-----|-----3---L-0---L-0--L-0--0---L-|
---------------0-L---2-----0-L---0---|-------5---L---5----5------0---|
-----0h-2h-3-------3---3-------3---3-|-----7-------7-----------------|
-----3-----L-----3-L-----3-------3---|--0----L-0-----L-0---------L---|
--1--------L-1-----L-1-----L-1-----L-|-----------------------------0-|


  E  T  T  S S S S S S S S S S S S S    E  S S S S S S S S S S S S S S  
-------------------------------------|-----------0---L-3-L---0-----L-0-|
---------------------------0---L-----|-----3---L-0---L---0---L-----0---|
---------------0-L---2-----0-L---0---|-------5---L---5-----------5-----|
-----0h-2h-3-------3---3-------3---3-|-----7-------7-------7-------7---|
-----3-----L-----3-L-----3-------3---|--0----L-0-----L-0-----L-0-----L-|
--1--------L-1-----L-1-----L-1-----L-|---------------------------------|


  E  T  T  S S S S S S S S S S S S S  
--L----------------------------------|
---------------------------0---L-----|
---------------0-L---2---L-------0-L-|
-----0h-2h-3-------3---3-L-----3---0-|
-----3-----L-----3-L-----3-L---------|
--1--------L-1-----L-1-----L-1-----L-|


  E  T  T  S S S S S S S S S S S S S    E  S S S S S S E  S S S S S S  
-------------------------------------|--------------------------0---L-|
---------------------------0---L---0-|--1--------0-----1--------------|
---------------0-----2---L-0---L-0-L-|-------0-------0------0-------0-|
--L--0h-2h-3-L-----3---3-L-----3-----|-----2-------2------2-------2---|
-----3-----L-----3-------3-L---------|--3------3-------3------3-----L-|
--1--------L-1-----L-1-----L-1-----L-|--------------------------------|


  E  S S S S  S S E  S S S S S S    E  S S S S S S E  S S S S  S S  
-----------------------0---------|-----------------0--------3s-----|
--3----1---0h-L-1-3--------3---L-|--1--------1-----1--------1s-----|
-------------------------------0-|-------0-------0------0--------0-|
-----0--------0------0-------0---|-----2-------2------2--------2---|
---------------------------------|--3------3-------3------3------L-|
--3------3--------3------3-----L-|---------------------------------|


  E  S S S S S S E  S S S S  E     E  S S S S S S E  S S S S S S  
--5-----------------------5s----|--3--------0-----0--------------|
--3--------3-----3--------3s----|--1--------1-----1--------1---L-|
-------4-------4------4---------|-------0-------0------0-------0-|
-----0-------0------0--------0--|-----2-------2------2-------2---|
--------------------------------|--3------3-------3------3-----L-|
--1------1-------1------1----L--|--------------------------------|


  E  S S S S S S E  S S S S S S    E  S S S S S S E  S S S S S S  
----------------------0---------|--------------------------------|
--3--------1-----3--------3---L-|--1------L----------------------|
-------0-------0--------------0-|-----------2-----2--------0---L-|
-----0-------0------0-------0---|-------3---L---3-L----3-------3-|
--------------------------------|-----3-------3------3-------3---|
--3------3-------3------3-----L-|--1------1-------1------1-----L-|


  E  S S S S S S S S  S   S S S S S    S S S S S S S S S S S  S S S S S  
-----------0--------------0-------0-|--------0-------0--------0-------0-|
--1------------3-1---(1)s---6-------|------1-------3-------1s---6---6---|
-------0-----0-----2----------0-----|----0-------0-------2--------0-----|
-----2----------------0---------7---|------2-------0-------2--------7---|
--3------2-------0----------8-----L-|--3-------2-------0--------8-----L-|
------------------------------------|-----------------------------------|


                            Ritard...               
  S S S S S S S S S S S  S S S S S S S E   
--------0-------0--------0-----------0----|
------1-------3-------1s---6-------6------|
----0-------0-------2--------0---0-----0--|
------2-------0-------2--------7----------|
--3-------2-------0--------8-------L------|
------------------------------------------|


  Slowly...                  
  E  E  E  E  E  E  E  E   
--------------------0--L--|
--1-----L--0--1-----L-----|
-----0-----L-----0--L--0--|
--------2--L-----2-----L--|
--3--------L--3--------L--|
--------------------------|


  E  E  E  E  E  E  E  E     E  E  E  E  E  E  E  E   
--------------------0--L--|--------------0--L--3--L--|
--3-----L--1--3--L--------|--1-----L--1--L--1--L-----|
-----0-----L-----0--L--0--|--------0-----L--------0--|
--------0--L--------0--L--|-----2-----L--------------|
--------------------------|--3--------------L--3--L--|
--3--------L--3--------L--|--------------------------|


  E  E  E  E  E  E  E  E     E  E  E  E  E  E  E  E   
--5--------L-----------5--|--3-----L--0--0-----L-----|
--3-----L--3--------3--L--|--1-----L-----1--L--1--L--|
--------4-----L--4-----L--|--------0--L-----0--L--0--|
-----0-----L--------0--L--|-----2-----L--------------|
--------------------------|--3--------L--3--------L--|
--1--------L--1--------L--|--------------------------|


                                         Ritard...           
  E  E  E  E  E  E  E  E     E  E  E  E  E  E  E  E   
--------------------0--L--|--------------------------|
--3-----L--1--3-----L-----|--1--------L--------------|
--------0-----L--0--L--0--|-----------2--2--L--0-----|
-----0--------L--0--L-----|--------3--L-----3--L--3--|
--------------------------|-----3-----L-----3--L-----|
--3--------L--3--------L--|--1--------L--1--------L--|


  ^                  
  W                  
-------------------||
--1----------------||
--0----------------||
--2----------------||
--3----------------||
-------------------||




Duration Legend
---------------
W - whole
H - half
Q - quarter
E - 8th
S - 16th
T - 32nd
X - 64th
. - note dotted
|-n-|  - n-tuplets


Tablature Legend
----------------
L - tied note
x - dead note
g - grace note
(n) - ghost note
> - accentuded note
NH - natural harmonic
AH - artificial harmonic
TH - tapped harmonic
SH - semi harmonic
PH - pitch harmonic
h - hammer on
p - pull off
b - bend
br - bendRelease
pb - preBend
pbr - preBendRelease
brb - bendReleaseBend
\n/ - tremolo bar dip
\n - tremolo bar dive
-/n - tremolo bar Release up
/n\ - tremolo bar inverted dip
/n - tremolo bar return
-\n - tremolo bar Release down
S - shift slide
s - legato slide
/ -  slide into from below or out of upwards
\ -  slide into from above or out of downwards
~ - vibrato
W - wide vibrato
tr - trill
TP - tremolo picking
T - tapping
S - slap
P - pop
< - fade in
^ - brush up
v - brush down
comments
We did not receive enough feedback on this tab! Please rate:
print report bad tab
1 2 3 4 5
I want to post or [tab]
guest
You may want to rate the tab now too:
select rating
Please do not post tabs as comments. Select "correction" instead!