Oops, an error
Loading. Please wait.

City Of Sin Tab

ver3
ver3

Whole song

Interactive

More versions @911Tabs.com
4,749 views 6 this week
no commentswrite comment
1 2 3 4 5
excellent!
x 6
Autoscroll
+/-
esc
set tempo
stop
Contributor
Difficulty
Tuning
intermediate
C G C F A D
Hey! There's an official Ultimate Guitar app which is ideal
for learning songs when you're away from computer. Get the app
WARNING: You are trying to view
                                    content from Ultimate-Guitar.com
                                    in an unauthorized application,
                                    which is prohibited.

                                    Please use an official Ultimate
                                    Guitar Tabs application for iPhone,
                                    iPad or Android to access legitimate
                                    chords, guitar, bass, and drum tabs
                                    from Ultimate-Guitar.com database.

                                    Type "ultimate guitar tabs" in Apple
                                    App Store's or Android Market's
                                    search to find the application.
----------------------------------------------------------------------------
                                 City of Sin
                               Escape the Fate
----------------------------------------------------------------------------

Well, to cut to the chase, I made this tab because it was suggested by a couple people 
on my guitar cover of this song. So, me being a “tabber” already, I thought it would be 
kind of cool. So, without-further-a-do, here it is. Enjoy!

Username: dkm817 (same on X box live)
Youtube Guitar Cover: http://www.youtube.com/watch?v=yEOkppt_DGM
Email: guitardrums@rockfan.com

(Tab Legend at bottom)
Guitar 1 Rhythmic (C G C F A D)
Guitar 2 Lead     (C G C F A D)
Guitar 3 Backup   (C G C F A D)

Intro 1

Guitar 1
D-----------------------------------------------------------------|
A-----------------------------------------------------------------|
F-----------------------------------------------------------------|
C-----------------------------------------------------------------|
G-----------------------------------------------------------------|
C-4---4---4---7~~~~~~-4---4---9~~~~~~-4---4---6---6---3---3~~~~~\-|

Guitar 1 & 2
D-----------------------------------------------------------------|
A-----------------------------------------------------------------|
F-----------------------------------------------------------------|
C-----------------------------------------------------------------|
G-----------------------------------------------------------------|
C-4---4---4---7~~~~~~-4---4---9~~~~~~-4---4---6---6---3---3~~~~~\-|

Guitar 3
D-------------19~~~~~---------21~~~~~-----------------------------|
A-20--20--20----------20--20----------20--20--22--22--19--19~~~~\-|
F-----------------------------------------------------------------|
C-----------------------------------------------------------------|
G-----------------------------------------------------------------|
C-----------------------------------------------------------------|

Intro 2

Guitar 1 & 2
D-----------------------------------------------------------------|
A-----------------------------------------------------------------|
F-----------------------------------------------------------------|
C-4---4---4---11~~~~~-4---4---12~~~~~-4---4---6---6---3---3~~~~~~-|
G-4---4---4---7~~~~~~-4---4---9~~~~~~-4---4---6---6---3---3~~~~~~-|
C-4---4---4---7~~~~~~-4---4---9~~~~~~-4---4---6---6---3---3~~~~~~-|

Guitar 3
D-------------19~~~~~---------21~~~~~-----------------------------|
A-20--20--20----------20--20----------20--20--22--22--19--19~~~~~-|
F-----------------------------------------------------------------|
C-----------------------------------------------------------------|
G-----------------------------------------------------------------|
C-----------------------------------------------------------------|

Guitar 1 & 2
D-----------------------------------------------------------------|
A-----------------------------------------------------------------|
F-----------------------------------------------------------------|
C-4---4---4---11~~~~~-4---4---12~~~~~-4---4---6---6---3---3~~~~~~-|
G-4---4---4---7~~~~~~-4---4---9~~~~~~-4---4---6---6---3---3~~~~~~-|
C-4---4---4---7~~~~~~-4---4---9~~~~~~-4---4---6---6---3---3~~~~~~-|

Guitar 3
D-------------19~~~~~---------21~~~~~-----------------------------|
A-20--20--20----------20--20----------20--20--22--22--19--19~~~~~-|
F-----------------------------------------------------------------|
C-----------------------------------------------------------------|
G-----------------------------------------------------------------|
C-----------------------------------------------------------------|

Verse

Guitar 1 & 2 & 3 “Come on, Come on...”
D-----------------------------------------------------------------|
A-----------------------------------------------------------------|
F-----------------------------------------------------------------|
C-----------------------------------------------------------------|
G-----------------------------------------------------------------|
C-----------------------------------------------------------------|

Guitar 1 & 2
D-----------------------------------------------------------------|
A-----------------------------------------------------------------|
F-----------------------------------------------------------------|
C-4---4---4---11~~~~~-4---4---12~~~~~-4---4---6---6---3---3~~~~~~-|
G-4---4---4---7~~~~~~-4---4---9~~~~~~-4---4---6---6---3---3~~~~~~-|
C-4---4---4---7~~~~~~-4---4---9~~~~~~-4---4---6---6---3---3~~~~~~-|

Guitar 3
D-------------19~~~~~---------21~~~~~-----------------------------|
A-20--20--20----------20--20----------20--20--22--22--19--19~~~~~-|
F-----------------------------------------------------------------|
C-----------------------------------------------------------------|
G-----------------------------------------------------------------|
C-----------------------------------------------------------------|

Guitar 1 & 2 “Take, Take your time...”
D-----------------------------------------------------------------|
A-----------------------------------------------------------------|
F-----------------------------------------------------------------|
C---------------------------------------------------------12\~~~~-|
G---------------------------------------------------------12\~~~~-|
C---------------------------------------------------------12\~~~~-|

Guitar 3
D-----------------------------------------------------------------|
A-----------------------------------------------------------------|
F-----------------------------------------------------------------|
C-----------------------------------------------------------------|
G-----------------------------------------------------------------|
C-----------------------------------------------------------------|

Guitar 1 & 2
D-----------------------------------------------------------------|
A-----------------------------------------------------------------|
F-----------------------------------------------------------------|
C-4---4---4---11~~~~~-4---4---12~~~~~-4---4---6---6---3---3~~~~~~-|
G-4---4---4---7~~~~~~-4---4---9~~~~~~-4---4---6---6---3---3~~~~~~-|
C-4---4---4---7~~~~~~-4---4---9~~~~~~-4---4---6---6---3---3~~~~~~-|

Guitar 3
D-------------19~~~~~---------21~~~~~-----------------------------|
A-20--20--20----------20--20----------20--20--22--22--19--19~~~~~-|
F-----------------------------------------------------------------|
C-----------------------------------------------------------------|
G-----------------------------------------------------------------|
C-----------------------------------------------------------------|

Pre Chorus

Guitar 1 & 2 (Just let it ring) “Double down another round...”
D-----------------------------------------------------------------|
A---------------------------------------------10~~~~~-9~~~~~~~~~~-|
F---------6~~~~~~-7---6~~~~~~~~~~-------------------------9~~~~~~-|
C-------------------------7~~~~~~---------------------------------|
G-5~~~~~~~~~~~~~~~~~~~~~~~~~~-----7~~~~~~~~~~---------------------|
C-----------------------------------------------------------------|

Guitar 3
D-----------------------------------------------------------------|
A---------------------------------18~~~~~~~~~~~~~~~~~~~~~~~~~~~~~-|
F-19~~~~~~~~~~~~~~~~~~~~~~~~~~~~~---------------------------------|
C-----------------------------------------------------------------|
G-----------------------------------------------------------------|
C-----------------------------------------------------------------|

Guitar 1 & 2 “Wasted space on my face...”
D-----------------------------------------------------------------|
A-----------------------------------------------------------------|
F---------6~~~~~~-7---6~~~~~~~~~~-9---9---9---9---9---9-----------|
C-------------------------7~~~~~~-9---9---9---9---9---9---x-x-x-x-|
G-5~~~~~~~~~~~~~~~~~~~~~~~~~~~~~~-7---7---7---7---7---7---x-x-x-x-|
C---------------------------------------------------------x-x-x-x-|
Pm                                    .   .   .   .   .

Guitar 3
D-------------------------------------------------18~~~~~~~~~~~~~-|
A---------------------------------18~~~~~-20~~~~~-----------------|
F-19~~~~~~~~~~~~~~~~~~~~~~~~~~~~~---------------------------------|
C-----------------------------------------------------------------|
G-----------------------------------------------------------------|
C-----------------------------------------------------------------|

Chorus

Guitar 1 & 2 “City of sin...”
D-----------------------------------------------------------------|
A-----------------------------------------------------------------|
F-----------------------------7-----------------------------------|
C-4---4---4---7---4---4---4---7---0---0-------0-------2---2~~~~~~-|
G-4---4---4---4---4---4---4---5---0---0-------0-------2---2~~~~~~-|
C-4---4---4---4---4---4---4-------0---0-------0-------2---2~~~~~~-|

Guitar 3
D-----------------------------------------------------------------|
A-20~~~~~~~~~~~~~~~~~~~~~~~~~~~~~---------------------18--18~~~~~-|
F---------------------------------19--19------19------------------|
C-----------------------------------------------------------------|
G-----------------------------------------------------------------|
C-----------------------------------------------------------------|

Guitar 1 “City of sin...”
D-----------------------------------------------------------------|
A-----------------------------------------------------------------|
F-----------------------------7-----------------------------------|
C-4---4---4---7---4---4---4---7---0---0-------0-------2-----------|
G-4---4---4---4---4---4---4---5---0---0-------0-------2---7*~~~~~-|
C-4---4---4---4---4---4---4-------0---0-------0-------2-----------|

Guitar 2
D-----------------------------------------------------------------|
A-----------------------------------------------------------------|
F-----------------------------7-----------------------------------|
C-4---4---4---7---4---4---4---7---0---0-------0-------2---4*~~~~~-|
G-4---4---4---4---4---4---4---5---0---0-------0-------2-----------|
C-4---4---4---4---4---4---4-------0---0-------0-------2-----------|

Guitar 3
D-------------19--------------21----------------------------------|
A-20--20--20------20--20--20--------------------------18--18~~~~~-|
F---------------------------------19--19------19------------------|
C-----------------------------------------------------------------|
G-----------------------------------------------------------------|
C-----------------------------------------------------------------|

Guitar 1 & 2 “City of sin...”
D-----------------------------------------------------------------|
A-----------------------------------------------------------------|
F-----------------------------7-----------------------------------|
C-4---4---4---7---4---4---4---7---0---0-------0-------2---2~~~~~~-|
G-4---4---4---4---4---4---4---5---0---0-------0-------2---2~~~~~~-|
C-4---4---4---4---4---4---4-------0---0-------0-------2---2~~~~~~-|

Guitar 3
D-------------19--------------21----------------------------------|
A-20--20--20------20--20--20--------------------------18--18~~~~~-|
F---------------------------------19--19------19------------------|
C-----------------------------------------------------------------|
G-----------------------------------------------------------------|
C-----------------------------------------------------------------|

Guitar 1 & 2 “We’re singing...”
D-----------------------------------------------------------------|
A-----------------------------------------------------------------|
F-6---6---6---6---6---6---6---6-----------------------------------|
C-6---6---6---6---6---6---6---6---12\~~~~-------------------------|
G-4---4---4---4---4---4---4---4---12\~~~~-------------------------|
C---------------------------------12\~~~~-------------------------|

Guitar 3
D---------19~~~~~-18~~~~~~~~~~~~~---------------------------------|
A-----------------------------------------------------------------|
F-18~~~~~-------------------------18\~~~~-------------------------|
C-----------------------------------------------------------------|
G-----------------------------------------------------------------|
C-----------------------------------------------------------------|

Bridge 1

Guitar 1 & 2 “Sin sin sin...”
D-----------------------------------------------------------------|
A-----------------------------------------------------------------|
F-----------------------------------------------------------------|
C-4~~~~~~-4---11~~~~~-4---4---12~~~~~-4---4---6---6---3---3~~~~~~-|
G-4~~~~~~-4---7~~~~~~-4---4---9~~~~~~-4---4---6---6---3---3~~~~~~-|
C-4~~~~~~-4---7~~~~~~-4---4---9~~~~~~-4---4---6---6---3---3~~~~~~-|

Guitar 3
D-------------19~~~~~---------21~~~~~-----------------------------|
A-20~~~~~-20----------20--20----------20--20--22--22--19--19~~~~~-|
F-----------------------------------------------------------------|
C-----------------------------------------------------------------|
G-----------------------------------------------------------------|
C-----------------------------------------------------------------|

Guitar 1 & 2 “Sin sin sin...”
D-----------------------------------------------------------------|
A-----------------------------------------------------------------|
F-----------------------------------------------------------------|
C-4---4---4---11~~~~~-4---4---12~~~~~-4---4---6---6---3---3~~~~~~-|
G-4---4---4---7~~~~~~-4---4---9~~~~~~-4---4---6---6---3---3~~~~~~-|
C-4---4---4---7~~~~~~-4---4---9~~~~~~-4---4---6---6---3---3~~~~~~-|

Guitar 3
D-------------19~~~~~---------21~~~~~-----------------------------|
A-20--20--20----------20--20----------20--20--22--22--19--19~~~~~-|
F-----------------------------------------------------------------|
C-----------------------------------------------------------------|
G-----------------------------------------------------------------|
C-----------------------------------------------------------------|

Verse

Guitar 1 & 2 & 3 “Come on, Come on...”
D-----------------------------------------------------------------|
A-----------------------------------------------------------------|
F-----------------------------------------------------------------|
C-----------------------------------------------------------------|
G-----------------------------------------------------------------|
C-----------------------------------------------------------------|

Guitar 1 & 2
D-----------------------------------------------------------------|
A-----------------------------------------------------------------|
F-----------------------------------------------------------------|
C-4---4---4---11~~~~~-4---4---12~~~~~-4---4---6---6---3---3~~~~~~-|
G-4---4---4---7~~~~~~-4---4---9~~~~~~-4---4---6---6---3---3~~~~~~-|
C-4---4---4---7~~~~~~-4---4---9~~~~~~-4---4---6---6---3---3~~~~~~-|

Guitar 3
D-------------19~~~~~---------21~~~~~-----------------------------|
A-20--20--20----------20--20----------20--20--22--22--19--19~~~~~-|
F-----------------------------------------------------------------|
C-----------------------------------------------------------------|
G-----------------------------------------------------------------|
C-----------------------------------------------------------------|

Guitar 1 & 2 “So dangerous...”
D-----------------------------------------------------------------|
A-----------------------------------------------------------------|
F-----------------------------------------------------------------|
C---------------------------------------------------------12\~~~~-|
G---------------------------------------------------------12\~~~~-|
C---------------------------------------------------------12\~~~~-|

Guitar 3
D-----------------------------------------------------------------|
A-----------------------------------------------------------------|
F-----------------------------------------------------------------|
C-----------------------------------------------------------------|
G-----------------------------------------------------------------|
C-----------------------------------------------------------------|

Guitar 1 & 2
D-----------------------------------------------------------------|
A-----------------------------------------------------------------|
F-----------------------------------------------------------------|
C-4---4---4---11~~~~~-4---4---12~~~~~-4---4---6---6---3---3~~~~~~-|
G-4---4---4---7~~~~~~-4---4---9~~~~~~-4---4---6---6---3---3~~~~~~-|
C-4---4---4---7~~~~~~-4---4---9~~~~~~-4---4---6---6---3---3~~~~~~-|

Guitar 3
D-------------19~~~~~---------21~~~~~-----------------------------|
A-20--20--20----------20--20----------20--20--22--22--19--19~~~~~-|
F-----------------------------------------------------------------|
C-----------------------------------------------------------------|
G-----------------------------------------------------------------|
C-----------------------------------------------------------------|

Pre Chorus

Guitar 1 & 2 “Double down another round...”
D-----------------------------------------------------------------|
A---------------------------------------------10~~~~~-9~~~~~~~~~~-|
F---------6~~~~~~-7---6~~~~~~~~~~-------------------------9~~~~~~-|
C-------------------------7~~~~~~---------------------------------|
G-5~~~~~~~~~~~~~~~~~~~~~~~~~~-----7~~~~~~~~~~---------------------|
C-----------------------------------------------------------------|

Guitar 3
D-----------------------------------------------------------------|
A---------------------------------18~~~~~~~~~~~~~~~~~~~~~~~~~~~~~-|
F-19~~~~~~~~~~~~~~~~~~~~~~~~~~~~~---------------------------------|
C-----------------------------------------------------------------|
G-----------------------------------------------------------------|
C-----------------------------------------------------------------|

Guitar 1 & 2 “Wasted space on my face...”
D-----------------------------------------------------------------|
A-----------------------------------------------------------------|
F---------6~~~~~~-7---6~~~~~~~~~~-9---9---9---9---9---9-----------|
C-------------------------7~~~~~~-9---9---9---9---9---9---x-x-x-x-|
G-5~~~~~~~~~~~~~~~~~~~~~~~~~~~~~~-7---7---7---7---7---7---x-x-x-x-|
C---------------------------------------------------------x-x-x-x-|
Pm                                    .   .   .   .   .

Guitar 3
D-------------------------------------------------18~~~~~~~~~~~~~-|
A---------------------------------18~~~~~-20~~~~~-----------------|
F-19~~~~~~~~~~~~~~~~~~~~~~~~~~~~~---------------------------------|
C-----------------------------------------------------------------|
G-----------------------------------------------------------------|
C-----------------------------------------------------------------|

Chorus

Guitar 1 & 2 “City of sin...”
D-----------------------------------------------------------------|
A-----------------------------------------------------------------|
F-----------------------------7-----------------------------------|
C-4---4---4---7---4---4---4---7---0---0-------0-------2---2~~~~~~-|
G-4---4---4---4---4---4---4---5---0---0-------0-------2---2~~~~~~-|
C-4---4---4---4---4---4---4-------0---0-------0-------2---2~~~~~~-|

Guitar 3
D-----------------------------------------------------------------|
A-20~~~~~~~~~~~~~~~~~~~~~~~~~~~~~---------------------18--18~~~~~-|
F---------------------------------19--19------19------------------|
C-----------------------------------------------------------------|
G-----------------------------------------------------------------|
C-----------------------------------------------------------------|

Guitar 1 “City of sin...”
D-----------------------------------------------------------------|
A-----------------------------------------------------------------|
F-----------------------------7-----------------------------------|
C-4---4---4---7---4---4---4---7---0---0-------0-------2-----------|
G-4---4---4---4---4---4---4---5---0---0-------0-------2---7*~~~~~-|
C-4---4---4---4---4---4---4-------0---0-------0-------2-----------|

Guitar 2
D-----------------------------------------------------------------|
A-----------------------------------------------------------------|
F-----------------------------7-----------------------------------|
C-4---4---4---7---4---4---4---7---0---0-------0-------2---4*~~~~~-|
G-4---4---4---4---4---4---4---5---0---0-------0-------2-----------|
C-4---4---4---4---4---4---4-------0---0-------0-------2-----------|

Guitar 3
D-------------19--------------21----------------------------------|
A-20--20--20------20--20--20--------------------------18--18~~~~~-|
F---------------------------------19--19------19------------------|
C-----------------------------------------------------------------|
G-----------------------------------------------------------------|
C-----------------------------------------------------------------|

Guitar 1 & 2 “City of sin...”
D-----------------------------------------------------------------|
A-----------------------------------------------------------------|
F-----------------------------7-----------------------------------|
C-4---4---4---7---4---4---4---7---0---0-------0-------2---2~~~~~~-|
G-4---4---4---4---4---4---4---5---0---0-------0-------2---2~~~~~~-|
C-4---4---4---4---4---4---4-------0---0-------0-------2---2~~~~~~-|

Guitar 3
D-------------19--------------21----------------------------------|
A-20--20--20------20--20--20--------------------------18--18~~~~~-|
F---------------------------------19--19------19------------------|
C-----------------------------------------------------------------|
G-----------------------------------------------------------------|
C-----------------------------------------------------------------|

Guitar 1 & 2 “We’re singing...”
D-----------------------------------------------------------------|
A-----------------------------------------------------------------|
F-6---6---6---6---6---6---6---6-----------------------------------|
C-6---6---6---6---6---6---6---6---12\~~~~-------------------------|
G-4---4---4---4---4---4---4---4---12\~~~~-------------------------|
C---------------------------------12\~~~~-------------------------|

Guitar 3
D---------19~~~~~-18~~~~~~~~~~~~~---------------------------------|
A-----------------------------------------------------------------|
F-18~~~~~-------------------------18\~~~~-------------------------|
C-----------------------------------------------------------------|
G-----------------------------------------------------------------|
C-----------------------------------------------------------------|

Breakdown

Guitar 1
D-----------------------------------------------------------------|
A-----------------------------------------------------------------|
F-----------------------------------------------------------------|
C-4~~~~~~-4---11~~~~~-4---4---------------------------------------|
G-4~~~~~~-4---7~~~~~~-4---4---------------------------------------|
C-4~~~~~~-4---7~~~~~~-4---4---------------------------------------|

Guitar 2
D-----------------------------------------------------------------|
A-/19~~~~~~~~~\~~~~~~~~~~~~~~~~~~-17b~~~~^~^~^~^~^~^~^~^~^~^~^~~~-|
F-----------------------------------------------------------------|
C-----------------------------------------------------------------|
G-----------------------------------------------------------------|
C-----------------------------------------------------------------|

Guitar 3
D-------------19~~~~~---------------------------------------------|
A-20~~~~~-20----------20--20--------------------------------------|
F-----------------------------------------------------------------|
C-----------------------------------------------------------------|
G-----------------------------------------------------------------|
C-----------------------------------------------------------------|

Guitar 1
D-----------------------------------------------------------------|
A-----------------------------------------------------------------|
F-----------------------------------------------------------------|
C-4~~~~~~-4---11~~~~~-4---4-------------------------------x-x-x-x-|
G-4~~~~~~-4---7~~~~~~-4---4-------------------------------x-x-x-x-|
C-4~~~~~~-4---7~~~~~~-4---4-------------------------------x-x-x-x-|

Guitar 2
D-----------------------------------------------------------------|
A-/19~~~~~~~~~\~~~~~~~~~~~~~~-------------------------------------|
F-----------------------------------------------------------------|
C-----------------------------------------------------------------|
G-----------------------------2---4~~~~~~-------------------------|
C-----------------------------------------4^~~~~~~~~~~~~~---------|

Guitar 3
D-------------19~~~~~---------------------------------------------|
A-20~~~~~-20----------20--20--------------------------------------|
F-----------------------------------------------------------------|
C-----------------------------------------------------------------|
G-----------------------------------------------------------------|
C-----------------------------------------------------------------|

Guitar Solo

Guitar 1
D-----------------------------------------------------------------|
A-----------------------------------------------------------------|
F-----------------------------7-----------------------------------|
C-4---4---4---7---4---4---4---7---0---0-------0-------2---2~~~~~~-|
G-4---4---4---4---4---4---4---5---0---0-------0-------2---2~~~~~~-|
C-4---4---4---4---4---4---4-------0---0-------0-------2---2~~~~~~-|

Guitar 2
D-------------------------------18h19p18p16-----------------------|
A-----------------18~~-19~~~~~~-------------18p14-----------------|
F-------------16----------------------------------17p16p14-16~br~-|
C-/16~~~~-16------------------------------------------------------|
G-----------------------------------------------------------------|
C-----------------------------------------------------------------|

Guitar 1
D-----------------------------------------------------------------|
A-----------------------------------------------------------------|
F-----------------------------7-----------------------------------|
C-4---4---4---7---4---4---4---7---0---0-------0-------2-----------|
G-4---4---4---4---4---4---4---5---0---0-------0-------2---7*~~~~~-|
C-4---4---4---4---4---4---4-------0---0-------0-------2-----------|

Guitar 2
D----------------------------16h18h19----------------18h20h22b~rb-|
A-------------------16h18h20----------20p18p16h18h20--------------|
F----------14h16h17-----------------------------------------------|
C-14h16h17--------------------------------------------------------|
G-----------------------------------------------------------------|
C-----------------------------------------------------------------|

Guitar 1
D-----------------------------------------------------------------|
A-----------------------------------------------------------------|
F-----------------------------7-----------------------------------|
C-4---4---4---7---4---4---4---7---0---0-------0-------2---2~~~~~~-|
G-4---4---4---4---4---4---4---5---0---0-------0-------2---2~~~~~~-|
C-4---4---4---4---4---4---4-------0---0-------0-------2---2~~~~~~-|

Guitar 2
D-22b-22b-22b-22b~~-22--------------------------------------------|
A----------------------20~~~-20~~~b~~~~-20~~~b~~~r~~~-------------|
F-----------------------------------------------------21~~~~~~~~~-|
C-----------------------------------------------------------------|
G-----------------------------------------------------------------|
C-----------------------------------------------------------------|

Guitar 1
D-----------------------------------------------------------------|
A-----------------------------------------------------------------|
F-6---6---6---6---6---6---6---6-----------------------------------|
C-6---6---6---6---6---6---6---6---12\~~~~-------------------------|
G-4---4---4---4---4---4---4---4---12\~~~~-------------------------|
C---------------------------------12\~~~~-------------------------|

Guitar 2
D----------18b~~-18~~~~~~~~~~~~~~-|
A-20~~~---------------------------|
F-------18------------------------|
C---------------------------------|
G---------------------------------|
C---------------------------------|


Guitar 2 continued
D-18-19-18-16----------------------------------------------16-18-16-13-|
A-------------18-16-14----------------------------14-16-18-------------|
F----------------------17-16-14-13-14-16-14-16-17----------------------|
C----------------------------------------------------------------------|
G----------------------------------------------------------------------|
C----------------------------------------------------------------------|

Bridge 2

Guitar 1 (Basically whammy and return from bend) “Sin sin sin...”
D-----------------------------------------------------------------|
A-18~b~~~~~~~~~~~-18b~~r^~~^~~^~~-18~b~~~~~~~~~~~-18b~~r^~~^~~^~~-|
F-x---------------x-----------------------------------------------|
C-15~b~~~~~~~~~~~-15b~~r^~~^~~^~~-15~b~~~~~~~~~~~-15b~~r^~~^~~^~~-|
G-----------------------------------------------------------------|
C-----------------------------------------------------------------|

Guitar 2 (Basically whammy and return from bend)
D-15~b~~~~~~~~~~~~~~~r~~~~~~~~~~~-15~b~~~~~~~~~~~-15b~~r^~~^~~^~~-|
A---------------------------------18~b~~~~~~~~~~~-18b~~r^~~^~~^~~-|
F-----------------------------------------------------------------|
C-----------------------------------------------------------------|
G-----------------------------------------------------------------|
C-----------------------------------------------------------------|

Guitar 1 “Sin sin sin...”                         (City of Sin)
D-----------------------------------------------------------------|
A-18~b~~~~~~~~~~~-18b~~r^~~^~~^~~-18~b~~~~~~~~~~~-----------------|
F-x---------------x-----------------------------------------------|
C-15~b~~~~~~~~~~~-15b~~r^~~^~~^~~-15~b~~~~~~~~~~~-----------------|
G-----------------------------------------------------------------|
C-----------------------------------------------------------------|

Guitar 2
D-15~b~~~~~~~~~~~-15b~~r^~~^~~^~~-15~b~~~~~~~~~~~-----------------|
A-18~b~~~~~~~~~~~-18b~~r^~~^~~^~~-18~b~~~~~~~~~~~-----------------|
F-----------------------------------------------------------------|
C-----------------------------------------------------------------|
G-----------------------------------------------------------------|
C-----------------------------------------------------------------|

Chorus

Guitar 1 & 2 “City of sin...”
D-----------------------------------------------------------------|
A-----------------------------------------------------------------|
F-----------------------------7-----------------------------------|
C-4---4---4---7---4---4---4---7---0---0-------0-------2---2~~~~~~-|
G-4---4---4---4---4---4---4---5---0---0-------0-------2---2~~~~~~-|
C-4---4---4---4---4---4---4-------0---0-------0-------2---2~~~~~~-|

Guitar 3
D-----------------------------------------------------------------|
A-20~~~~~~~~~~~~~~~~~~~~~~~~~~~~~---------------------18--18~~~~~-|
F---------------------------------19--19------19------------------|
C-----------------------------------------------------------------|
G-----------------------------------------------------------------|
C-----------------------------------------------------------------|

Guitar 1 “City of sin...”
D-----------------------------------------------------------------|
A-----------------------------------------------------------------|
F-----------------------------7-----------------------------------|
C-4---4---4---7---4---4---4---7---0---0-------0-------2-----------|
G-4---4---4---4---4---4---4---5---0---0-------0-------2---7*~~~~~-|
C-4---4---4---4---4---4---4-------0---0-------0-------2-----------|

Guitar 2
D-----------------------------------------------------------------|
A-----------------------------------------------------------------|
F-----------------------------7-----------------------------------|
C-4---4---4---7---4---4---4---7---0---0-------0-------2---4*~~~~~-|
G-4---4---4---4---4---4---4---5---0---0-------0-------2-----------|
C-4---4---4---4---4---4---4-------0---0-------0-------2-----------|

Guitar 3
D-------------19--------------21----------------------------------|
A-20--20--20------20--20--20--------------------------18--18~~~~~-|
F---------------------------------19--19------19------------------|
C-----------------------------------------------------------------|
G-----------------------------------------------------------------|
C-----------------------------------------------------------------|

Guitar 1 & 2 “City of sin...”
D-----------------------------------------------------------------|
A-----------------------------------------------------------------|
F-----------------------------7-----------------------------------|
C-4---4---4---7---4---4---4---7---0---0-------0-------2---2~~~~~~-|
G-4---4---4---4---4---4---4---5---0---0-------0-------2---2~~~~~~-|
C-4---4---4---4---4---4---4-------0---0-------0-------2---2~~~~~~-|

Guitar 3
D-------------19--------------21----------------------------------|
A-20--20--20------20--20--20--------------------------18--18~~~~~-|
F---------------------------------19--19------19------------------|
C-----------------------------------------------------------------|
G-----------------------------------------------------------------|
C-----------------------------------------------------------------|

Guitar 1 & 2 “We’re singing...”
D-----------------------------------------------------------------|
A-----------------------------------------------------------------|
F-6---6---6---6---6---6---6---6-----------------------------------|
C-6---6---6---6---6---6---6---6---12\~~~~-------------------------|
G-4---4---4---4---4---4---4---4---12\~~~~-------------------------|
C---------------------------------12\~~~~-------------------------|

Guitar 3
D---------19~~~~~-18~~~~~~~~~~~~~---------------------------------|
A-----------------------------------------------------------------|
F-18~~~~~-------------------------18\~~~~-------------------------|
C-----------------------------------------------------------------|
G-----------------------------------------------------------------|
C-----------------------------------------------------------------|

Guitar 1 “Welcome to the city of sin”
D-----------------------------------------------------------------|
A-18~b~~~~~~~~~~~-18b~~r^~~^~~^~~-18~b~~~~~~~~~~~-18b~~r^~~^~~^~~-|
F-x---------------x-----------------------------------------------|
C-15~b~~~~~~~~~~~-15b~~r^~~^~~^~~-15~b~~~~~~~~~~~-15b~~r^~~^~~^~~-|
G-----------------------------------------------------------------|
C-----------------------------------------------------------------|

Guitar 2
D-15~b~~~~~~~~~~~-15b~~r^~~^~~^~~-15~b~~~~~~~~~~~-15b~~r^~~^~~^~~-|
A-18~b~~~~~~~~~~~-18b~~r^~~^~~^~~-18~b~~~~~~~~~~~-18b~~r^~~^~~^~~-|
F-----------------------------------------------------------------|
C-----------------------------------------------------------------|
G-----------------------------------------------------------------|
C-----------------------------------------------------------------|

Guitar 1                                           City of Sin!
D-----------------------------------------------------------------|
A-18~b~~~~~~~~~~~-18b~~r^~~^~~^~~-18~b~~~~~~~~~~~-----------------|
F-x---------------x-----------------------------------------------|
C-15~b~~~~~~~~~~~-15b~~r^~~^~~^~~-15~b~~~~~~~~~~~-----------------|
G-------------------------------------------------8---11--12--9~\-|
C-----------------------------------------------------------------|

Guitar 2
D-15~b~~~~~~~~~~~-15b~~r^~~^~~^~~-15~b~~~~~~~~~~~-14--18--19--15\-|
A-18~b~~~~~~~~~~~-18b~~r^~~^~~^~~-18~b~~~~~~~~~~~-----------------|
F-----------------------------------------------------------------|
C-----------------------------------------------------------------|
G-----------------------------------------------------------------|
C-----------------------------------------------------------------|

Tab Legend
h  -  hammer-on
p  -  pull-off
/  -  slide up
\  -  slide down
ps/-  pickslide up
ps\-  pickslide down
~  -  let ring
pm.-  palm mute
b  -  bend
r  -  return from bend
*  -  harmonic
x  -  dead note
^ -  Whammy bar

Well, that’s all of it. I hope it was useful, and, if you want, check out my other tabs 
for this album! Thanks, oh and one last thing... ROCK OUT!!!!
comments
print report bad tab
I want to post or [tab]
guest
You may want to rate the tab now too:
select rating
Please do not post tabs as comments. Select "correction" instead!