Oops, an error
Loading. Please wait.

Dragging Dead Bodies In Blue Bags Up Really Long Hills Tab

25,571 views 24 this week
13 commentsread comments
1 2 3 4 5
worth learning
x 9
Autoscroll
+/-
esc
set tempo
stop
Contributor
Difficulty
Tuning
novice
D A D G B E
WARNING: You are trying to view
                                    content from Ultimate-Guitar.com
                                    in an unauthorized application,
                                    which is prohibited.

                                    Please use an official Ultimate
                                    Guitar Tabs application for iPhone,
                                    iPad or Android to access legitimate
                                    chords, guitar, bass, and drum tabs
                                    from Ultimate-Guitar.com database.

                                    Type "ultimate guitar tabs" in Apple
                                    App Store's or Android Market's
                                    search to find the application.
            Dragging Dead Bodies In Blue Bags Up Really Long Hills   
                         Song By: Escape The Fate
                        Tabbed By:  LeDrew L'Amour

                           *Blanks are Rests*
              **See bottom for tablature and duration legends**

Lead Guitar (Tabbed in Dropped D tuning)

      E   E  E  E  E  E   E   E     E   E   E  E  E  E   E  E   
E||------------------------------|-----------------------------|
B||------------------------------|-----------------------------|
G||--10--10-----9--9-----12--12--|-----10--10-----9-----10-----|
D||---x---x-----x--x------x---x--|------x---x-----x------x-----|
A||---8---8-----7--7-----10--10--|------8---8-----7------8-----|
D||------------------------------|-----------------------------|


   E   E  E  E  E  E   E   E     E   E   E  E  E  E   E  E   
------------------------------|-----------------------------|
----------------------13--13--|-----------------------------|
--10--10-----9--9------x---x--|-----10--10-----9-----10-----|
---x---x-----x--x-----10--10--|------x---x-----x------x-----|
---8---8-----7--7-------------|------8---8-----7------8-----|
------------------------------|-----------------------------|


   E   E  E  E  E  E   E   E     E   E   E  E   E  E   E  E   
------------------------------|------------------------------|
------------------------------|-----11--11-----10------------|
--10--10-----9--9-----12--12--|------x---x------x-----10-----|
---x---x-----x--x------x---x--|------8---8------7------x-----|
---8---8-----7--7-----10--10--|------------------------8-----|
------------------------------|------------------------------|


   E   E  E  E  E  E   E   E     E   E   E  E  E  E   E  E   
------------------------------|-----------------------------|
----------------------13--13--|-----------------------------|
--10--10-----9--9------x---x--|-----10--10-----9-----10-----|
---x---x-----x--x-----10--10--|------x---x-----x------x-----|
---8---8-----7--7-------------|------8---8-----7------8-----|
------------------------------|-----------------------------|


   E   E  E  E  E  E   E   E     E   E   E  E  E  E   E  E   
------------------------------|-----------------------------|
------------------------------|-----------------------------|
--10--10-----9--9-----12--12--|-----10--10-----9-----10-----|
---x---x-----x--x------x---x--|------x---x-----x------x-----|
---8---8-----7--7-----10--10--|------8---8-----7------8-----|
------------------------------|-----------------------------|


   E   E  E  E  E  E   E   E     E   E   E  E  E  E   E  E   
------------------------------|-----------------------------|
----------------------13--13--|-----------------------------|
--10--10-----9--9------x---x--|-----10--10-----9-----10-----|
---x---x-----x--x-----10--10--|------x---x-----x------x-----|
---8---8-----7--7-------------|------8---8-----7------8-----|
------------------------------|-----------------------------|


   E   E  E  E  E  E   E   E     E   E   E  E   E  E   E  E   
------------------------------|------------------------------|
------------------------------|-----11--11-----10------------|
--10--10-----9--9-----12--12--|------x---x------x-----10-----|
---x---x-----x--x------x---x--|------8---8------7------x-----|
---8---8-----7--7-----10--10--|------------------------8-----|
------------------------------|------------------------------|


   E   E  E  E  E  E   E  E     W                   W                 
-----------------------------|-------------------|-------------------|
-----------------------------|-------------------|-------------------|
--10--10-----9--9------------|-------------------|-------------------|
---x---x-----x--x-----10--0--|--L----------------|--L----------------|
---8---8-----7--7-----10--0--|--L----------------|--L----------------|
----------------------10--0--|--L----------------|--L----------------|


  W                   W                   E  E   E  E  E   E  E  E   
-------------------|-------------------|----------------------------|
-------------------|-------------------|----------------------------|
-------------------|-------------------|----------------------------|
--L----------------|--L----------------|-----7p--3-----5p--2--------|
--L----------------|--L----------------|-------------------------3--|
--L----------------|--L----------------|--0---------0---------0-----|


  E  E   E  E  E   E  E  E     E  E   E  E  E   E  E  E   
----------------------------|----------------------------|
----------------------------|----------------------------|
----------------------------|----------------------------|
---------------5p--2--0-----|-----7p--3-----5p--2--------|
-----3h--7------------0-----|-------------------------3--|
------------0---------0-----|--0---------0---------0-----|


  E  E   E  E  E  E  Q        E   E   E   E   E   E   E   E   
--------------------------|----------------------------------|
--------------------------|----------------------------------|
--------------------------|----------------------------------|
--------------------------|--10--10--10--10--10--10--10--10--|
-----3h--7-----5----------|---8---8---8---8---8---8---8---8--|
--------------------------|---8---8---8---8---8---8---8---8--|


   E   E   E   E   E   E   E   E      E   E   E   E   E   E   E   E   
----------------------------------|----------------------------------|
----------------------------------|----------------------------------|
----------------------------------|----------------------------------|
--10--10--10--10--10--10--10--10--|--10--10--10--10--10--10--10--10--|
---8---8---8---8---8---8---8---8--|--10--10--10--10--10--10--10--10--|
---8---8---8---8---8---8---8---8--|--10--10--10--10--10--10--10--10--|


   E   E   E   E   E   E   E   E     E  E   E  E  E   E  E  E   
----------------------------------|----------------------------|
----------------------------------|----------------------------|
----------------------------------|----------------------------|
--10--10--10--10--10--10--10--10--|-----7p--3-----5p--2--------|
--10--10--10--10--10--10--10--10--|-------------------------3--|
--10--10--10--10--10--10--10--10--|--0---------0---------0-----|


  E  E   E  E  E   E  E   E     E  E   E  E  E   E  E  E   
-----------------------------|----------------------------|
-----------------------------|----------------------------|
-----------------------------|----------------------------|
---------------5p--2---------|-----7p--3-----5p--2--------|
-----3h--7------------3h--7--|-------------------------3--|
------------0----------------|--0---------0---------0-----|


  E  E   E  E  E   E  E   E      E   E   E   E   E   E   E   E   
-----------------------------|----------------------------------|
-----------------------------|----------------------------------|
-----------------------------|----------------------------------|
---------------5p--2---------|--10--10--10--10--10--10--10--10--|
-----3h--7------------3p--0--|---8---8---8---8---8---8---8---8--|
------------0----------------|---8---8---8---8---8---8---8---8--|


   E   E   E   E   E   E   E   E      E   E   E   E   E   E   E   E   
----------------------------------|----------------------------------|
----------------------------------|----------------------------------|
----------------------------------|----------------------------------|
--10--10--10--10--10--10--10--10--|--10--10--10--10--10--10--10--10--|
---8---8---8---8---8---8---8---8--|--10--10--10--10--10--10--10--10--|
---8---8---8---8---8---8---8---8--|--10--10--10--10--10--10--10--10--|


   E   E   E   E   E   E   E   E     E  E  E   E  E   E  E  E    
----------------------------------|-----------------------------|
----------------------------------|-----------------------------|
----------------------------------|-----------------------------|
--10--10--10--10--10--10--10--10--|--0--0--7p--0--7p--0--0--5h--|
--10--10--10--10--10--10--10--10--|-----------------------------|
--10--10--10--10--10--10--10--10--|-----------------------------|


  E  E   E  E  S  S  E  S  S  E     E  E  E   E  E   E  E  E    
---------------------------------|-----------------------------|
---------------------------------|-----------------------------|
---------------------------------|-----------------------------|
--0--8p--0--0--3h-7p-3--2h-5p-2--|--0--0--7p--0--7p--0--0--5h--|
---------------------------------|-----------------------------|
---------------------------------|-----------------------------|


  E  E   E  E  S  S  E  S  S  E      E   E   E   E   E   E   E   E   
---------------------------------|----------------------------------|
---------------------------------|----------------------------------|
---------------------------------|----------------------------------|
--0--8p--0--0--3h-7p-3--2h-5p-2--|--10--10--10--10--10--10--10--10--|
---------------------------------|---8---8---8---8---8---8---8---8--|
---------------------------------|---8---8---8---8---8---8---8---8--|


   E   E   E   E   E   E   E   E      E   E   E   E   E   E   E   E   
----------------------------------|----------------------------------|
----------------------------------|----------------------------------|
----------------------------------|----------------------------------|
--10--10--10--10--10--10--10--10--|--10--10--10--10--10--10--10--10--|
---8---8---8---8---8---8---8---8--|--10--10--10--10--10--10--10--10--|
---8---8---8---8---8---8---8---8--|--10--10--10--10--10--10--10--10--|


   E   E  E  E   E   E   E  E     E  E  E  E   E   E   E  E   
-------------------------------|-----------------------------|
-------------------------------|-----------------------------|
-------------------------------|--------------10--10--10-----|
--10--10--------10--10--10--0--|--L--0--0--0---x---x---x--8--|
--10--10--------10--10--10--0--|--L--0--0--0---8---8---8--8--|
--10--10--------10--10--10--0--|--L--0--0--0--------------8--|


  E  E  E  E  E  E  E   E     E   E   E   E   E   E   E  E   
---------------------------|--------------------------------|
---------------------------|--------------------------------|
---------------------------|--------------------------------|
--L--8--8--8--8--8--8--10--|--L--10--10--10--10--10--10--3--|
--L--8--8--8--8--8--8--10--|--L--10--10--10--10--10--10--3--|
--L--8--8--8--8--8--8--10--|--L--10--10--10--10--10--10--3--|


  E  E  E  E  E  E  E  E     E  E  E  E   E   E   E  E   
--------------------------|-----------------------------|
--------------------------|-----------------------------|
--------------------------|--------------10--10--10-----|
--L--3--3--5--L--5--5--0--|--L--0--0--0---x---x---x--8--|
--L--3--3--5--L--5--5--0--|--L--0--0--0---8---8---8--8--|
--L--3--3--5--L--5--5--0--|--L--0--0--0--------------8--|


  E  E  E  E  E  E  E   E     E   E   E   E   E   E   E   E   
---------------------------|---------------------------------|
---------------------------|---------------------------------|
---------------------------|---------------------------------|
--L--8--8--8--8--8--8--10--|--L--10--10--10--10--10--10--10--|
--L--8--8--8--8--8--8--10--|--L--10--10--10--10--10--10--10--|
--L--8--8--8--8--8--8--10--|--L--10--10--10--10--10--10--10--|


   E   E  E  E   E   E   E  E     E  E  E  E   E   E   E  E   
-------------------------------|-----------------------------|
-------------------------------|-----------------------------|
-------------------------------|--------------10--10--10-----|
--10--10-----x--10--10--10--0--|--L--0--0--0---x---x---x--8--|
--10--10-----x--10--10--10--0--|--L--0--0--0---8---8---8--8--|
--10--10-----x--10--10--10--0--|--L--0--0--0--------------8--|


  E  E  E  E  E  E  E   E     E   E   E   E   E   E   E  E   
---------------------------|--------------------------------|
---------------------------|--------------------------------|
---------------------------|--------------------------------|
--L--8--8--8--8--8--8--10--|--L--10--10--10--10--10--10--3--|
--L--8--8--8--8--8--8--10--|--L--10--10--10--10--10--10--3--|
--L--8--8--8--8--8--8--10--|--L--10--10--10--10--10--10--3--|


  E  E  E  E  E  E  E  E     E  E  E  E   E   E   E  E   
--------------------------|-----------------------------|
--------------------------|-----------------------------|
--------------------------|--------------10--10--10-----|
--L--3--3--5--L--5--5--0--|--L--0--0--0---x---x---x--8--|
--L--3--3--5--L--5--5--0--|--L--0--0--0---8---8---8--8--|
--L--3--3--5--L--5--5--0--|--L--0--0--0--------------8--|


  E  E  E  E  E  E  E   E     E   E   E   E   E   E   E   E   
---------------------------|---------------------------------|
---------------------------|---------------------------------|
---------------------------|---------------------------------|
--L--8--8--8--8--8--8--10--|--L--10--10--10--10--10--10--10--|
--L--8--8--8--8--8--8--10--|--L--10--10--10--10--10--10--10--|
--L--8--8--8--8--8--8--10--|--L--10--10--10--10--10--10--10--|


   E   E   E   E   E   E   E   E     E  E  E  E  E  E  E  E   
----------------------------------|--------------------------|
----------------------------------|--------------------------|
----------------------------------|--------------------------|
--10--10--10--10--10--10--10--10--|--7--7--7--7--7-----x--3--|
--10--10--10--10--10--10--10--10--|--7--7--7--7--7-----x--3--|
--10--10--10--10--10--10--10--10--|--7--7--7--7--7-----x--3--|


  E  E  E  E  E  E  Q       E  E   E  E  E   E  E   E   
-------------------------|-----------------------------|
-------------------------|-----------------------------|
-------------------------|-----------------------------|
--L--3--x--2--L--2-------|-----------------------------|
--L--3--x--3--L--3-------|-----8p--5-----8p--5--8p--5--|
--L--3--x--2--L--2-------|--0---------0----------------|


  E  E   E  E  E   E  Q       E  E   E  E  E   E  E   E   
---------------------------|-----------------------------|
---------------------------|-----------------------------|
---------------------------|-----------------------------|
---------------------------|-----------------------------|
-----7p--3-----7p--3-------|-----8p--5-----8p--5--8p--5--|
--0---------0--------------|--0---------0----------------|


  E  E   E  E  E   E  Q       E  E   E  E  E   E  E   E   
---------------------------|-----------------------------|
---------------------------|-----------------------------|
---------------------------|-----------------------------|
---------------------------|-----7p--3-----7p--3--7p--3--|
-----7p--3-----7p--3-------|-----------------------------|
--0---------0--------------|--0---------0----------------|


  E  E   E  E  E   E  Q       E  E   E  E  E   E  E   E   
---------------------------|-----------------------------|
---------------------------|-----------------------------|
---------------------------|-----------------------------|
-----5p--2-----5p--2-------|-----7p--3-----7p--3--7p--3--|
---------------------------|-----------------------------|
--0---------0--------------|--0---------0----------------|


  E  E   E  E  E   E  Q        E   E   E   E   E   E   E   E   
---------------------------|----------------------------------|
---------------------------|----------------------------------|
---------------------------|----------------------------------|
-----5p--2-----5p--2-------|--10--10--10--10--10--10--10--10--|
---------------------------|---8---8---8---8---8---8---8---8--|
--0---------0--------------|---8---8---8---8---8---8---8---8--|


   E   E   E   E   E   E   E   E      E   E   E   E   E   E   E   E   
----------------------------------|----------------------------------|
----------------------------------|----------------------------------|
----------------------------------|----------------------------------|
--10--10--10--10--10--10--10--10--|--10--10--10--10--10--10--10--10--|
---8---8---8---8---8---8---8---8--|--10--10--10--10--10--10--10--10--|
---8---8---8---8---8---8---8---8--|--10--10--10--10--10--10--10--10--|


   E   E   E   E   E   E   E   E     E  E   E  E  E   E  E  E   
----------------------------------|----------------------------|
----------------------------------|----------------------------|
----------------------------------|----------------------------|
--10--10--10--10--10--10--10--10--|-----7p--3-----5p--2--------|
--10--10--10--10--10--10--10--10--|-------------------------3--|
--10--10--10--10--10--10--10--10--|--0---------0---------0-----|


  E  E   E  E  E   E  E   E     E  E   E  E  E   E  E  E   
-----------------------------|----------------------------|
-----------------------------|----------------------------|
-----------------------------|----------------------------|
---------------5p--2---------|-----7p--3-----5p--2--------|
-----3h--7------------3h--7--|-------------------------3--|
------------0----------------|--0---------0---------0-----|


  E  E   E  E  E   E  E   E      E   E   E   E   E   E   E   E   
-----------------------------|----------------------------------|
-----------------------------|----------------------------------|
-----------------------------|----------------------------------|
---------------5p--2---------|--10--10--10--10--10--10--10--10--|
-----3h--7------------3p--0--|---8---8---8---8---8---8---8---8--|
------------0----------------|---8---8---8---8---8---8---8---8--|


   E   E   E   E   E   E   E   E      E   E   E   E   E   E   E   E   
----------------------------------|----------------------------------|
----------------------------------|----------------------------------|
----------------------------------|----------------------------------|
--10--10--10--10--10--10--10--10--|--10--10--10--10--10--10--10--10--|
---8---8---8---8---8---8---8---8--|--10--10--10--10--10--10--10--10--|
---8---8---8---8---8---8---8---8--|--10--10--10--10--10--10--10--10--|


   E   E   E   E   E   E   E   E     E  E  E   E  E   E  E  E    
----------------------------------|-----------------------------|
----------------------------------|-----------------------------|
----------------------------------|-----------------------------|
--10--10--10--10--10--10--10--10--|--0--0--7p--0--7p--0--0--5h--|
--10--10--10--10--10--10--10--10--|-----------------------------|
--10--10--10--10--10--10--10--10--|-----------------------------|


  E  E   E  E  S  S  E  S  S  E     E  E  E   E  E   E  E  E    
---------------------------------|-----------------------------|
---------------------------------|-----------------------------|
---------------------------------|-----------------------------|
--0--8p--0--0--3h-7p-3--2h-5p-2--|--0--0--7p--0--7p--0--0--5h--|
---------------------------------|-----------------------------|
---------------------------------|-----------------------------|


  E  E   E  E  S  S  E  S  S  E      E   E   E   E   E   E   E   E   
---------------------------------|----------------------------------|
---------------------------------|----------------------------------|
---------------------------------|----------------------------------|
--0--8p--0--0--3h-7p-3--2h-5p-2--|--10--10--10--10--10--10--10--10--|
---------------------------------|---8---8---8---8---8---8---8---8--|
---------------------------------|---8---8---8---8---8---8---8---8--|


   E   E   E   E   E   E   E   E      E  E  E  E  E  E  E  E   
----------------------------------|---------------------------|
----------------------------------|---------------------------|
----------------------------------|---------------------------|
--10--10--10--10--10--10--10--10--|--10-----------------------|
---8---8---8---8---8---8---8---8--|--10-----------------------|
---8---8---8---8---8---8---8---8--|--10-----------------------|


   E   E   E   E   E   E   E  E     E  E  E  E   E   E   E  E   
---------------------------------|-----------------------------|
---------------------------------|-----------------------------|
---------------------------------|--------------10--10--10-----|
--10--10--10--10--10--10--10--0--|--L--0--0--0---x---x---x--8--|
--10--10--10--10--10--10--10--0--|--L--0--0--0---8---8---8--8--|
--10--10--10--10--10--10--10--0--|--L--0--0--0--------------8--|


  E  E  E  E  E  E  E   E     E   E   E   E   E   E   E  E   
---------------------------|--------------------------------|
---------------------------|--------------------------------|
---------------------------|--------------------------------|
--L--8--8--8--8--8--8--10--|--L--10--10--10--10--10--10--3--|
--L--8--8--8--8--8--8--10--|--L--10--10--10--10--10--10--3--|
--L--8--8--8--8--8--8--10--|--L--10--10--10--10--10--10--3--|


  E  E  E  E  E  E  E  E     E  E  E  E   E   E   E  E   
--------------------------|-----------------------------|
--------------------------|-----------------------------|
--------------------------|--------------10--10--10-----|
--L--3--3--5--L--5--5--0--|--L--0--0--0---x---x---x--8--|
--L--3--3--5--L--5--5--0--|--L--0--0--0---8---8---8--8--|
--L--3--3--5--L--5--5--0--|--L--0--0--0--------------8--|


  E  E  E  E  E  E  E   E     E   E   E   E   E   E   E   E   
---------------------------|---------------------------------|
---------------------------|---------------------------------|
---------------------------|---------------------------------|
--L--8--8--8--8--8--8--10--|--L--10--10--10--10--10--10--10--|
--L--8--8--8--8--8--8--10--|--L--10--10--10--10--10--10--10--|
--L--8--8--8--8--8--8--10--|--L--10--10--10--10--10--10--10--|


   E   E  E  E   E   E   E  E     E  E  E  E   E   E   E  E   
-------------------------------|-----------------------------|
-------------------------------|-----------------------------|
-------------------------------|--------------10--10--10-----|
--10--10-----x--10--10--10--0--|--L--0--0--0---x---x---x--8--|
--10--10-----x--10--10--10--0--|--L--0--0--0---8---8---8--8--|
--10--10-----x--10--10--10--0--|--L--0--0--0--------------8--|


  E  E  E  E  E  E  E   E     E   E   E   E   E   E   E  E   
---------------------------|--------------------------------|
---------------------------|--------------------------------|
---------------------------|--------------------------------|
--L--8--8--8--8--8--8--10--|--L--10--10--10--10--10--10--3--|
--L--8--8--8--8--8--8--10--|--L--10--10--10--10--10--10--3--|
--L--8--8--8--8--8--8--10--|--L--10--10--10--10--10--10--3--|


  E  E  E  E  E  E  E  E     E  E  E  E   E   E   E  E   
--------------------------|-----------------------------|
--------------------------|-----------------------------|
--------------------------|--------------10--10--10-----|
--L--3--3--5--L--5--5--0--|--L--0--0--0---x---x---x--8--|
--L--3--3--5--L--5--5--0--|--L--0--0--0---8---8---8--8--|
--L--3--3--5--L--5--5--0--|--L--0--0--0--------------8--|


  E  E  E  E  E  E  E   E     E   E   E   E   E   E   E   E   
---------------------------|---------------------------------|
---------------------------|---------------------------------|
---------------------------|---------------------------------|
--L--8--8--8--8--8--8--10--|--L--10--10--10--10--10--10--10--|
--L--8--8--8--8--8--8--10--|--L--10--10--10--10--10--10--10--|
--L--8--8--8--8--8--8--10--|--L--10--10--10--10--10--10--10--|


   E   E   E   E   E   E   E  E     E  E  E  E  E  E  E  E   
---------------------------------|--------------------------|
---------------------------------|--------------------------|
---------------------------------|--------------------------|
--10--10--10--10--10--10--10-----|--7--7--7--7--7--7--7--7--|
--10--10--10--10--10--10--10-----|--7--7--7--7--7--7--7--7--|
--10--10--10--10--10--10--10-----|--7--7--7--7--7--7--7--7--|


  E  E  E  E  E  E  E  E     Q    E  E  E   E  E   E   
--------------------------|---------------------------|
--------------------------|---------------------------|
--------------------------|-------------x--10--L--10--|
--7--7--7--7--7--7--7-----|--0----0-----x---x------x--|
--7--7--7--7--7--7--7-----|--0----0-----x---8--L---8--|
--7--7--7--7--7--7--7-----|--0----0-------------------|


  Q    E  E  E   E  E   E     Q    E  E  E  E  E  E     Q    E  E  E  E  E  E   
---------------------------|-------------------------|-------------------------|
---------------------------|-------------------------|-------------------------|
-------------x--10--L--10--|-------------x--9--L--9--|-------------x--9--L--9--|
--0----0-----x---x------x--|--0----0-----x--x-----x--|--0----0-----x--x-----x--|
--0----0-----x---8--L---8--|--0----0-----x--7--L--7--|--0----0-----x--7--L--7--|
--0----0-------------------|--0----0-----------------|--0----0-----------------|


  Q    E  E  E   E  E   E     Q    E  E  E   E  E   E   
---------------------------|---------------------------|
---------------------------|---------------------------|
-------------x--10--L--10--|-------------x--10--L--10--|
--8----8-----x---x------x--|--8----8-----x---x------x--|
--8----8-----x---8--L---8--|--8----8-----x---8--L---8--|
--8----8-------------------|--8----8-------------------|


  Q    E  E  E  E  E  E     E  E  E  E  Q       Q    E  E  E   E  E   E   
-------------------------|-------------------|---------------------------|
-------------------------|-------------------|---------------------------|
-------------x--9--L--9--|-------------------|-------------x--10--L--10--|
--7----7-----x--x-----x--|--7--7--7--7-------|--0----0-----x---x------x--|
--7----7-----x--7--L--7--|--7--7--7--7-------|--0----0-----x---8--L---8--|
--7----7-----------------|--7--7--7--7-------|--0----0-------------------|


  Q    E  E  E   E  E   E     Q    E  E  E  E  E  E     Q    E  E  E  E  E  E   
---------------------------|-------------------------|-------------------------|
---------------------------|-------------------------|-------------------------|
-------------x--10--L--10--|-------------x--9--L--9--|-------------x--9--L--9--|
--0----0-----x---x------x--|--0----0-----x--x-----x--|--0----0-----x--x-----x--|
--0----0-----x---8--L---8--|--0----0-----x--7--L--7--|--0----0-----x--7--L--7--|
--0----0-------------------|--0----0-----------------|--0----0-----------------|


  Q    E  E  E   E  E   E     Q    E  E  E   E  E   E   
---------------------------|---------------------------|
---------------------------|---------------------------|
-------------x--10--L--10--|-------------x--10--L--10--|
--8----8-----x---x------x--|--8----8-----x---x------x--|
--8----8-----x---8--L---8--|--8----8-----x---8--L---8--|
--8----8-------------------|--8----8-------------------|


  Q    E  E  E  E  E  E     Q    E  E  E   E  E   E   
-------------------------|---------------------------|
-------------------------|---------------------------|
-------------x--9--L--9--|-------------x-------------|
--7----7-----x--x-----x--|--7----7-----x--10--L--10--|
--7----7-----x--7--L--7--|--7----7-----x--10--L--10--|
--7----7-----------------|--7----7--------10--L--10--|


  Q    E  E  E   E  E   E     Q    E  E  E   E  E   E   
---------------------------|---------------------------|
----------------10--L--10--|----------------10--L--10--|
-------------x---x------x--|-------------x---x------x--|
--0----0-----x---7--L---7--|--0----0-----x---7--L---7--|
--0----0-----x-------------|--0----0-----x-------------|
--0----0-------------------|--0----0-------------------|


  Q    E  E  E  E  E  E     Q    E  E  E  E  E  E     Q    E  E  E   E  E   E   
-------------------------|-------------------------|---------------------------|
----------------8--L--8--|----------------8--L--8--|----------------10--L--10--|
-------------x--x-----x--|-------------x--x-----x--|-------------x---x------x--|
--0----0-----x--5--L--5--|--0----0-----x--5--L--5--|--8----8-----x---7--L---7--|
--0----0-----x-----------|--0----0-----x-----------|--8----8-----x-------------|
--0----0-----------------|--0----0-----------------|--8----8-------------------|


  Q    E  E  E   E  E   E     Q    E  E  E  E  E  E     Q    E  E  E  E  E  E   
---------------------------|-------------------------|-------------------------|
----------------10--L--10--|----------------8--L--8--|----------------8--L--8--|
-------------x---x------x--|-------------x--x-----x--|-------------x--x-----x--|
--8----8-----x---7--L---7--|--7----7-----x--5--L--5--|--7----7-----x--5--L--5--|
--8----8-----x-------------|--7----7-----x-----------|--7----7-----x-----------|
--8----8-------------------|--7----7-----------------|--7----7-----------------|


   E   E   S  S  E   E   E   E   E      E   E   E   E   S  S  E   E   E   
--17--------------------------------|------------------------------------|
------15--13-15-13------13----------|------------------------------------|
--------------------15------15--14--|--15--14--12--14--12-14-12----------|
------------------------------------|----------------------------15--14--|
------------------------------------|------------------------------------|
------------------------------------|------------------------------------|


   E   E   E   E   E    E   E   E      E    E   E   E   E   E   E  E   
-----------------------------------|----------------------------------|
-----------------------------------|----------------------------------|
--14--14--14--14--14S--15--15--15--|--15S--17--17--17--17--15--14-----|
-----------------------------------|----------------------------------|
-----------------------------------|----------------------------------|
-----------------------------------|----------------------------------|


   E    E   E   E    E   E   E    E      E   E    E   E   E    E   E  E   
--17p--13------17p--13------17p--13--|------17p--13------17p--13---------|
-----------15-----------15-----------|--15-----------15-----------15-----|
-------------------------------------|-----------------------------------|
-------------------------------------|-----------------------------------|
-------------------------------------|-----------------------------------|
-------------------------------------|-----------------------------------|


   E   E   E   E   E   E   E   E     E   E   E   E  S  S E  E    E   
--12------------------------------|---------------------------------|
------13--11--13--11--10--11--10--|--8--10--11--10--8-10-8----------|
----------------------------------|-------------------------9S--10--|
----------------------------------|---------------------------------|
----------------------------------|---------------------------------|
----------------------------------|---------------------------------|


  E   E   E   E   E   E   E   E     E   E   E   E   E   E   E   E   
---------------------------------|---------------------------------|
---------------------------------|-----------------11--10----------|
--L--10--12--10--12--14--12--10--|--L--10--12--10----------12--10--|
---------------------------------|---------------------------------|
---------------------------------|---------------------------------|
---------------------------------|---------------------------------|


  E   E   E   E   E   E   E   E     E   E   E   E   E   E   E   E   
---------------------------------|---------------------------------|
---------------------------------|-----------------11--10----------|
--L--10--12--10--12--14--12--10--|--L--10--12--10----------12--10--|
---------------------------------|---------------------------------|
---------------------------------|---------------------------------|
---------------------------------|---------------------------------|


  E   E   E   E   E   E   E   E     E   E   E   E   E   E   Q     
---------------------------------|-------------------------------|
---------------------------------|-----------------11--10--------|
--L--10--12--10--12--14--12--10--|--L--10--12--10----------12----|
---------------------------------|-------------------------------|
---------------------------------|-------------------------------|
---------------------------------|-------------------------------|


   E   E   S  S  E   E   E   E   E      E   E   E   E   S  S  E   E  E   
--17--------------------------------|-----------------------------------|
------15--13-15-13------13----------|-----------------------------------|
--------------------15------15--14--|--15--14--12--14--12-14-12---------|
------------------------------------|----------------------------15--0--|
------------------------------------|--------------------------------0--|
------------------------------------|--------------------------------0--|


  E  E  E  E   E   E   E  E     E  E  E  E  E  E  E   E   
-----------------------------|---------------------------|
-----------------------------|---------------------------|
--------------10--10--10-----|---------------------------|
--L--0--0--0---x---x---x--8--|--L--8--8--8--8--8--8--10--|
--L--0--0--0---8---8---8--8--|--L--8--8--8--8--8--8--10--|
--L--0--0--0--------------8--|--L--8--8--8--8--8--8--10--|


  E   E   E   E   E   E   E  E     E  E  E  E  E  E  E  E   
--------------------------------|--------------------------|
--------------------------------|--------------------------|
--------------------------------|--------------------------|
--L--10--10--10--10--10--10--3--|--L--3--3--5--L--5--5--0--|
--L--10--10--10--10--10--10--3--|--L--3--3--5--L--5--5--0--|
--L--10--10--10--10--10--10--3--|--L--3--3--5--L--5--5--0--|


  E  E  E  E   E   E   E  E     E  E  E  E  E  E  E   E   
-----------------------------|---------------------------|
-----------------------------|---------------------------|
--------------10--10--10-----|---------------------------|
--L--0--0--0---x---x---x--8--|--L--8--8--8--8--8--8--10--|
--L--0--0--0---8---8---8--8--|--L--8--8--8--8--8--8--10--|
--L--0--0--0--------------8--|--L--8--8--8--8--8--8--10--|


  E   E   E   E   E   E   E   E      E   E  E  E   E   E   E  E   
---------------------------------|-------------------------------|
---------------------------------|-------------------------------|
---------------------------------|-------------------------------|
--L--10--10--10--10--10--10--10--|--10--10-----x--10--10--10--0--|
--L--10--10--10--10--10--10--10--|--10--10-----x--10--10--10--0--|
--L--10--10--10--10--10--10--10--|--10--10-----x--10--10--10--0--|


  E  E  E  E   E   E   E  E     E  E  E  E  E  E  E   E   
-----------------------------|---------------------------|
-----------------------------|---------------------------|
--------------10--10--10-----|---------------------------|
--L--0--0--0---x---x---x--8--|--L--8--8--8--8--8--8--10--|
--L--0--0--0---8---8---8--8--|--L--8--8--8--8--8--8--10--|
--L--0--0--0--------------8--|--L--8--8--8--8--8--8--10--|


  E   E   E   E   E   E   E  E     E  E  E  E  E  E  E  E   
--------------------------------|--------------------------|
--------------------------------|--------------------------|
--------------------------------|--------------------------|
--L--10--10--10--10--10--10--3--|--L--3--3--5--L--5--5--0--|
--L--10--10--10--10--10--10--3--|--L--3--3--5--L--5--5--0--|
--L--10--10--10--10--10--10--3--|--L--3--3--5--L--5--5--0--|


  E  E  E  E   E   E   E  E     E  E  E  E  E  E  E   E   
-----------------------------|---------------------------|
-----------------------------|---------------------------|
--------------10--10--10-----|---------------------------|
--L--0--0--0---x---x---x--8--|--L--8--8--8--8--8--8--10--|
--L--0--0--0---8---8---8--8--|--L--8--8--8--8--8--8--10--|
--L--0--0--0--------------8--|--L--8--8--8--8--8--8--10--|


  E   E   E   E   E   E   E   E      E   E   E   E   E   E   E  E   
---------------------------------|---------------------------------|
---------------------------------|---------------------------------|
---------------------------------|---------------------------------|
--L--10--10--10--10--10--10--10--|--10--10--10--10--10--10--10--0--|
--L--10--10--10--10--10--10--10--|--10--10--10--10--10--10--10--0--|
--L--10--10--10--10--10--10--10--|--10--10--10--10--10--10--10--0--|


  E  E  E  E   E   E   E  E     E  E  E  E  E  E  E   E   
-----------------------------|---------------------------|
-----------------------------|---------------------------|
--------------10--10--10-----|---------------------------|
--L--0--0--0---x---x---x--8--|--L--8--8--8--8--8--8--10--|
--L--0--0--0---8---8---8--8--|--L--8--8--8--8--8--8--10--|
--L--0--0--0--------------8--|--L--8--8--8--8--8--8--10--|


  E   E   E   E   E   E   E  E     E  E  E  E  E  E  E  E   
--------------------------------|--------------------------|
--------------------------------|--------------------------|
--------------------------------|--------------------------|
--L--10--10--10--10--10--10--3--|--L--3--3--5--L--5--5--0--|
--L--10--10--10--10--10--10--3--|--L--3--3--5--L--5--5--0--|
--L--10--10--10--10--10--10--3--|--L--3--3--5--L--5--5--0--|


  E  E  E  E   E   E   E  E     E  E  E  E  E  E  E   E   
-----------------------------|---------------------------|
-----------------------------|---------------------------|
--------------10--10--10-----|---------------------------|
--L--0--0--0---x---x---x--8--|--L--8--8--8--8--8--8--10--|
--L--0--0--0---8---8---8--8--|--L--8--8--8--8--8--8--10--|
--L--0--0--0--------------8--|--L--8--8--8--8--8--8--10--|


  E   E   E   E   E   E   E   E      E   E   E   E   E   E   E   E   
---------------------------------|----------------------------------|
---------------------------------|----------------------------------|
---------------------------------|----------------------------------|
--L--10--10--10--10--10--10--10--|--10--10--10--10--10--10--10--10--|
--L--10--10--10--10--10--10--10--|--10--10--10--10--10--10--10--10--|
--L--10--10--10--10--10--10--10--|--10--10--10--10--10--10--10--10--|


   E   E   E   E   E   E   E   E      E   E   E   E   E   E   E   E   
----------------------------------|----------------------------------|
----------------------------------|----------------------------------|
----------------------------------|----------------------------------|
--10--10--10--10--10--10--10--10--|--10--10--10--10--10--10--10--10--|
--10--10--10--10--10--10--10--10--|--10--10--10--10--10--10--10--10--|
--10--10--10--10--10--10--10--10--|--10--10--10--10--10--10--10--10--|


  E  E   E  E  E   E  E  E     E  E   E  E  E   E  E   E   
----------------------------|-----------------------------|
----------------------------|-----------------------------|
----------------------------|-----------------------------|
-----7p--3-----5p--2--------|---------------5p--2---------|
-------------------------3--|-----3h--7------------3h--7--|
--0---------0---------0-----|------------0----------------|


  E  E   E  E  E   E  E  E     E  E   E  E  E   E  E   E   
----------------------------|-----------------------------|
----------------------------|-----------------------------|
----------------------------|-----------------------------|
-----7p--3-----5p--2--------|---------------5p--2---------|
-------------------------3--|-----3h--7------------3p--0--|
--0---------0---------0-----|------------0----------------|


  E  E   E  E  E   E  E  E     E  E   E  E  E   E  E   E   
----------------------------|-----------------------------|
----------------------------|-----------------------------|
----------------------------|-----------------------------|
-----7p--3-----5p--2--------|---------------5p--2---------|
-------------------------3--|-----3h--7------------3h--7--|
--0---------0---------0-----|------------0----------------|


  E  E   E  E  E   E  E  E     E  E  E  E  E  E  E  E    
----------------------------|--------------------------||
----------------------------|--------------------------||
----------------------------|--------------------------||
-----7p--3-----5p--2--------|-----0-----0-----0--0-----||
-------------------------3--|-----0-----0-----0--0-----||
--0---------0---------0-----|-----0-----0-----0--0-----||



***********************************************************************

Rythm Guitar (Tabbed in Dropped D tuning)



      E   E  E   E   E  E   E   E     E   E   E  E   E  E   E  E   
E||--------------------------------|------------------------------|
B||--------------------------------|------------------------------|
G||--------------------------------|------------------------------|
D||--12--12-----12--12-----12--12--|-----12--12-----12-----12-----|
A||--12--12-----12--12-----12--12--|-----12--12-----12-----12-----|
D||--12--12-----12--12-----12--12--|-----12--12-----12-----12-----|


  E  E  E  E  E  E   E   E     E   E   E  E   E  E   E  E   
----------------------------|------------------------------|
----------------------------|------------------------------|
----------------------------|------------------------------|
--8--8-----8--8-----10--10--|-----10--10-----10-----10-----|
--8--8-----8--8-----10--10--|-----10--10-----10-----10-----|
--8--8-----8--8-----10--10--|-----10--10-----10-----10-----|


   E   E  E   E   E  E   E   E     E   E   E  E   E  E   E  E   
--------------------------------|------------------------------|
--------------------------------|------------------------------|
--------------------------------|------------------------------|
--12--12-----12--12-----12--12--|-----12--12-----12-----12-----|
--12--12-----12--12-----12--12--|-----12--12-----12-----12-----|
--12--12-----12--12-----12--12--|-----12--12-----12-----12-----|


  E  E  E  E  E  E   E   E     E   E   E  E   E  E   E  E   
----------------------------|------------------------------|
----------------------------|------------------------------|
----------------------------|------------------------------|
--8--8-----8--8-----10--10--|-----10--10-----10-----10-----|
--8--8-----8--8-----10--10--|-----10--10-----10-----10-----|
--8--8-----8--8-----10--10--|-----10--10-----10-----10-----|


   E   E  E   E   E  E   E   E     E   E   E  E   E  E   E  E   
--------------------------------|------------------------------|
--------------------------------|------------------------------|
--------------------------------|------------------------------|
--12--12-----12--12-----12--12--|-----12--12-----12-----12-----|
--12--12-----12--12-----12--12--|-----12--12-----12-----12-----|
--12--12-----12--12-----12--12--|-----12--12-----12-----12-----|


  E  E  E  E  E  E   E   E     E   E   E  E   E  E   E  E   
----------------------------|------------------------------|
----------------------------|------------------------------|
----------------------------|------------------------------|
--8--8-----8--8-----10--10--|-----10--10-----10-----10-----|
--8--8-----8--8-----10--10--|-----10--10-----10-----10-----|
--8--8-----8--8-----10--10--|-----10--10-----10-----10-----|


   E   E  E   E   E  E   E   E     E   E   E  E   E  E   E  E   
--------------------------------|------------------------------|
--------------------------------|------------------------------|
--------------------------------|------------------------------|
--12--12-----12--12-----12--12--|-----12--12-----12-----12-----|
--12--12-----12--12-----12--12--|-----12--12-----12-----12-----|
--12--12-----12--12-----12--12--|-----12--12-----12-----12-----|


  E  E  E  E  E  E   E  E     W                   W                 
---------------------------|-------------------|-------------------|
---------------------------|-------------------|-------------------|
---------------------------|-------------------|-------------------|
--8--8-----8--8-----10--0--|--L----------------|--L----------------|
--8--8-----8--8-----10--0--|--L----------------|--L----------------|
--8--8-----8--8-----10--0--|--L----------------|--L----------------|


  W                   W                   E  E  H.            
-------------------|-------------------|---------------------|
-------------------|-------------------|---------------------|
-------------------|-------------------|---------------------|
--L----------------|--L----------------|--0------------------|
--L----------------|--L----------------|--0------------------|
--L----------------|--L----------------|--0------------------|


  H.           E  E     E  E  H.              W                 
---------------------|---------------------|-------------------|
---------------------|---------------------|-------------------|
---------------------|---------------------|-------------------|
---------------0-----|--0------------------|-------------------|
---------------0-----|--0------------------|-------------------|
---------------0-----|--0------------------|-------------------|


   E   E   E   E   E   E   E   E      E   E   E   E   E   E   E   E   
----------------------------------|----------------------------------|
----------------------------------|----------------------------------|
----------------------------------|----------------------------------|
--10--10--10--10--10--10--10--10--|--10--10--10--10--10--10--10--10--|
---8---8---8---8---8---8---8---8--|---8---8---8---8---8---8---8---8--|
---8---8---8---8---8---8---8---8--|---8---8---8---8---8---8---8---8--|


   E   E   E   E   E   E   E   E      E   E   E   E   E   E   E   E   
----------------------------------|----------------------------------|
----------------------------------|----------------------------------|
----------------------------------|----------------------------------|
--10--10--10--10--10--10--10--10--|--10--10--10--10--10--10--10--10--|
--10--10--10--10--10--10--10--10--|--10--10--10--10--10--10--10--10--|
--10--10--10--10--10--10--10--10--|--10--10--10--10--10--10--10--10--|


  PM PM PM PM                                 PM PM PM PM        
  S  S  S  S  E  E  E  E  E  E     Q    E  E  S  S  S  S  E  E   
--------------------------------|-------------------------------|
--------------------------------|-------------------------------|
--------------------------------|-------------------------------|
--------------0--------0-----0--|-------0-----------------0-----|
--0--0--0--0--0--------0-----0--|-------0-----0--0--0--0--0-----|
--0--0--0--0--0--------0-----0--|-------0-----0--0--0--0--0-----|


  PM PM PM PM                                 PM PM PM PM        
  S  S  S  S  E  E  E  E  E  E     Q    E  E  S  S  S  S  E  E   
--------------------------------|-------------------------------|
--------------------------------|-------------------------------|
--------------------------------|-------------------------------|
--------------0--------0-----0--|-------0-----------------0-----|
--0--0--0--0--0--------0-----0--|-------0-----0--0--0--0--0-----|
--0--0--0--0--0--------0-----0--|-------0-----0--0--0--0--0-----|


   E   E   E   E   E   E   E   E      E   E   E   E   E   E   E   E   
----------------------------------|----------------------------------|
----------------------------------|----------------------------------|
----------------------------------|----------------------------------|
--10--10--10--10--10--10--10--10--|--10--10--10--10--10--10--10--10--|
---8---8---8---8---8---8---8---8--|---8---8---8---8---8---8---8---8--|
---8---8---8---8---8---8---8---8--|---8---8---8---8---8---8---8---8--|


   E   E   E   E   E   E   E   E      E   E   E   E   E   E   E   E   
----------------------------------|----------------------------------|
----------------------------------|----------------------------------|
----------------------------------|----------------------------------|
--10--10--10--10--10--10--10--10--|--10--10--10--10--10--10--10--10--|
--10--10--10--10--10--10--10--10--|--10--10--10--10--10--10--10--10--|
--10--10--10--10--10--10--10--10--|--10--10--10--10--10--10--10--10--|


  PM PM PM PM                                 PM PM PM PM        
  S  S  S  S  E  E  E  E  E  E     Q    E  E  S  S  S  S  E  E   
--------------------------------|-------------------------------|
--------------------------------|-------------------------------|
--------------------------------|-------------------------------|
--------------0--------0-----0--|-------0-----------------0-----|
--0--0--0--0--0--------0-----0--|-------0-----0--0--0--0--0-----|
--0--0--0--0--0--------0-----0--|-------0-----0--0--0--0--0-----|


  PM PM PM PM                                 PM PM PM PM        
  S  S  S  S  E  E  E  E  E  E     Q    E  E  S  S  S  S  E  E   
--------------------------------|-------------------------------|
--------------------------------|-------------------------------|
--------------------------------|-------------------------------|
--------------0--------0-----0--|-------0-----------------0-----|
--0--0--0--0--0--------0-----0--|-------0-----0--0--0--0--0-----|
--0--0--0--0--0--------0-----0--|-------0-----0--0--0--0--0-----|


   E   E   E   E   E   E   E   E      E   E   E   E   E   E   E   E   
----------------------------------|----------------------------------|
----------------------------------|----------------------------------|
----------------------------------|----------------------------------|
--10--10--10--10--10--10--10--10--|--10--10--10--10--10--10--10--10--|
---8---8---8---8---8---8---8---8--|---8---8---8---8---8---8---8---8--|
---8---8---8---8---8---8---8---8--|---8---8---8---8---8---8---8---8--|


   E   E   E   E   E   E   E   E      E   E  E  E   E   E   E  E   
----------------------------------|-------------------------------|
----------------------------------|-------------------------------|
----------------------------------|-------------------------------|
--10--10--10--10--10--10--10--10--|--10--10--------10--10--10--0--|
--10--10--10--10--10--10--10--10--|--10--10--------10--10--10--0--|
--10--10--10--10--10--10--10--10--|--10--10--------10--10--10--0--|


  E  E  E  E   E   E   E  E     E  E  E  E  E  E  E   E   
-----------------------------|---------------------------|
-----------------------------|---------------------------|
--------------10--10--10-----|---------------------------|
--L--0--0--0---x---x---x--8--|--L--8--8--8--8--8--8--10--|
--L--0--0--0---8---8---8--8--|--L--8--8--8--8--8--8--10--|
--L--0--0--0--------------8--|--L--8--8--8--8--8--8--10--|


  E   E   E   E   E   E   E  E     E  E  E  E  E  E  E  E   
--------------------------------|--------------------------|
--------------------------------|--------------------------|
--------------------------------|--------------------------|
--L--10--10--10--10--10--10--3--|--L--3--3--5--L--5--5--0--|
--L--10--10--10--10--10--10--3--|--L--3--3--5--L--5--5--0--|
--L--10--10--10--10--10--10--3--|--L--3--3--5--L--5--5--0--|


  E  E  E  E   E   E   E  E     E  E  E  E  E  E  E   E   
-----------------------------|---------------------------|
-----------------------------|---------------------------|
--------------10--10--10-----|---------------------------|
--L--0--0--0---x---x---x--8--|--L--8--8--8--8--8--8--10--|
--L--0--0--0---8---8---8--8--|--L--8--8--8--8--8--8--10--|
--L--0--0--0--------------8--|--L--8--8--8--8--8--8--10--|


  E   E   E   E   E   E   E   E      E   E  E  E   E   E   E  E   
---------------------------------|-------------------------------|
---------------------------------|----------------------------6--|
---------------------------------|----------------------------x--|
--L--10--10--10--10--10--10--10--|--10--10-----x--10--10--10--3--|
--L--10--10--10--10--10--10--10--|--10--10-----x--10--10--10-----|
--L--10--10--10--10--10--10--10--|--10--10-----x--10--10--10-----|


  Q    Q    Q    E  E     Q    Q    Q    E  E     Q    Q    Q    E  E   
-----------------------|-----------------------|-----------------------|
--L----5---------x--6--|--L----5---------x--6--|--L----5---------------|
-------x----5----x--x--|-------x----5----x--x--|-------x----5----x--7--|
--L----2----x----x--3--|--L----2----x----x--3--|--L----2----x----x--x--|
------------3----------|------------3----------|------------3----x--5--|
-----------------------|-----------------------|-----------------------|


  E  E  E  E  E  E  E  E     Q    Q    Q    E  E     Q    Q    Q    E  E   
--------------------------|-----------------------|-----------------------|
-----------------------6--|--L----5---------x--6--|--L----5---------x-----|
--L--7--7--9--L--9--9--x--|-------x----5----x--x--|-------x----5----x--7--|
-----x--x--x-----x--x--3--|--L----2----x----x--3--|--L----2----x----x--x--|
--L--5--5--7--L--7--7-----|------------3----------|------------3-------5--|
--------------------------|-----------------------|-----------------------|


  E  E  E  E  E  E  E   E     E  E  E  E  E  E  E  E   
---------------------------|--------------------------|
---------------------------|--------------------------|
--L--7--7--7--7--7--7S--9--|--L--9--9--9--9--9--9-----|
-----x--x--x--x--x--x---x--|-----x--x--x--x--x--x-----|
--L--5--5--5--5--5--5S--7--|--L--7--7--7--7--7--7-----|
---------------------------|--------------------------|


   E   E   E   E   E  E  E  E     E  E  E  E  E  E  Q     
-------------------------------|-------------------------|
-------------------------------|-------------------------|
--10--10--10--10--10-----------|-------------------------|
---x---x---x---x---x-----x--3--|--L--3--x--2--L--2-------|
---8---8---8---8---8-----x--3--|--L--3--x--3--L--3-------|
-------------------------x--3--|--L--3--x--2--L--2-------|


  E  E   E  E  E   E  E   E     E  E   E  E  E   E  Q     
-----------------------------|---------------------------|
-----------------------------|---------------------------|
-----------------------------|---------------------------|
-----------------------------|---------------------------|
-----8p--5-----8p--5--8p--5--|-----7p--3-----7p--3-------|
--0---------0----------------|--0---------0--------------|


  E  E   E  E  E   E  E   E     E  E   E  E  E   E  Q     
-----------------------------|---------------------------|
-----------------------------|---------------------------|
-----------------------------|---------------------------|
-----------------------------|---------------------------|
-----8p--5-----8p--5--8p--5--|-----7p--3-----7p--3-------|
--0---------0----------------|--0---------0--------------|


  E  E   E  E  E   E  E   E     E  E   E  E  E   E  Q     
-----------------------------|---------------------------|
-----------------------------|---------------------------|
-----------------------------|---------------------------|
-----------------------------|---------------------------|
-----8p--5-----8p--5--8p--5--|-----7p--3-----7p--3-------|
--0---------0----------------|--0---------0--------------|


  E  E   E  E  E   E  E   E     E  E   E  E  E   E  Q     
-----------------------------|---------------------------|
-----------------------------|---------------------------|
-----------------------------|---------------------------|
-----------------------------|---------------------------|
-----8p--5-----8p--5--8p--5--|-----7p--3-----7p--3-------|
--0---------0----------------|--0---------0--------------|


   E   E   E   E   E   E   E   E      E   E   E   E   E   E   E   E   
----------------------------------|----------------------------------|
----------------------------------|----------------------------------|
----------------------------------|----------------------------------|
--10--10--10--10--10--10--10--10--|--10--10--10--10--10--10--10--10--|
---8---8---8---8---8---8---8---8--|---8---8---8---8---8---8---8---8--|
---8---8---8---8---8---8---8---8--|---8---8---8---8---8---8---8---8--|


   E   E   E   E   E   E   E   E      E   E   E   E   E   E   E   E   
----------------------------------|----------------------------------|
----------------------------------|----------------------------------|
----------------------------------|----------------------------------|
--10--10--10--10--10--10--10--10--|--10--10--10--10--10--10--10--10--|
--10--10--10--10--10--10--10--10--|--10--10--10--10--10--10--10--10--|
--10--10--10--10--10--10--10--10--|--10--10--10--10--10--10--10--10--|


  PM PM PM PM                                 PM PM PM PM        
  S  S  S  S  E  E  E  E  E  E     Q    E  E  S  S  S  S  E  E   
--------------------------------|-------------------------------|
--------------------------------|-------------------------------|
--------------------------------|-------------------------------|
--------------0--------0-----0--|-------0-----------------0-----|
--0--0--0--0--0--------0-----0--|-------0-----0--0--0--0--0-----|
--0--0--0--0--0--------0-----0--|-------0-----0--0--0--0--0-----|


  PM PM PM PM                                 PM PM PM PM        
  S  S  S  S  E  E  E  E  E  E     Q    E  E  S  S  S  S  E  E   
--------------------------------|-------------------------------|
--------------------------------|-------------------------------|
--------------------------------|-------------------------------|
--------------0--------0-----0--|-------0-----------------0-----|
--0--0--0--0--0--------0-----0--|-------0-----0--0--0--0--0-----|
--0--0--0--0--0--------0-----0--|-------0-----0--0--0--0--0-----|


   E   E   E   E   E   E   E   E      E   E   E   E   E   E   E   E   
----------------------------------|----------------------------------|
----------------------------------|----------------------------------|
----------------------------------|----------------------------------|
--10--10--10--10--10--10--10--10--|--10--10--10--10--10--10--10--10--|
---8---8---8---8---8---8---8---8--|---8---8---8---8---8---8---8---8--|
---8---8---8---8---8---8---8---8--|---8---8---8---8---8---8---8---8--|


   E   E   E   E   E   E   E   E      E   E   E   E   E   E   E   E   
----------------------------------|----------------------------------|
----------------------------------|----------------------------------|
----------------------------------|----------------------------------|
--10--10--10--10--10--10--10--10--|--10--10--10--10--10--10--10--10--|
--10--10--10--10--10--10--10--10--|--10--10--10--10--10--10--10--10--|
--10--10--10--10--10--10--10--10--|--10--10--10--10--10--10--10--10--|


  PM PM PM PM                                 PM PM PM PM        
  S  S  S  S  E  E  E  E  E  E     Q    E  E  S  S  S  S  E  E   
--------------------------------|-------------------------------|
--------------------------------|-------------------------------|
--------------------------------|-------------------------------|
--------------0--------0-----0--|-------0-----------------0-----|
--0--0--0--0--0--------0-----0--|-------0-----0--0--0--0--0-----|
--0--0--0--0--0--------0-----0--|-------0-----0--0--0--0--0-----|


  PM PM PM PM                                 PM PM PM PM        
  S  S  S  S  E  E  E  E  E  E     Q    E  E  S  S  S  S  E  E   
--------------------------------|-------------------------------|
--------------------------------|-------------------------------|
--------------------------------|-------------------------------|
--------------0--------0-----0--|-------0-----------------0-----|
--0--0--0--0--0--------0-----0--|-------0-----0--0--0--0--0-----|
--0--0--0--0--0--------0-----0--|-------0-----0--0--0--0--0-----|


   E   E   E   E   E   E   E   E      E   E   E   E   E   E   E   E   
----------------------------------|----------------------------------|
----------------------------------|----------------------------------|
----------------------------------|----------------------------------|
--10--10--10--10--10--10--10--10--|--10--10--10--10--10--10--10--10--|
---8---8---8---8---8---8---8---8--|---8---8---8---8---8---8---8---8--|
---8---8---8---8---8---8---8---8--|---8---8---8---8---8---8---8---8--|


   E  E  E  E  E  E  E  E      E   E   E   E   E   E   E  E   
---------------------------|---------------------------------|
---------------------------|---------------------------------|
---------------------------|---------------------------------|
--10-----------------------|--10--10--10--10--10--10--10--0--|
--10-----------------------|--10--10--10--10--10--10--10--0--|
--10-----------------------|--10--10--10--10--10--10--10--0--|


  E  E  E  E   E   E   E  E     E  E  E  E  E  E  E   E   
-----------------------------|---------------------------|
-----------------------------|---------------------------|
--------------10--10--10-----|---------------------------|
--L--0--0--0---x---x---x--8--|--L--8--8--8--8--8--8--10--|
--L--0--0--0---8---8---8--8--|--L--8--8--8--8--8--8--10--|
--L--0--0--0--------------8--|--L--8--8--8--8--8--8--10--|


  E   E   E   E   E   E   E  E     E  E  E  E  E  E  E  E   
--------------------------------|--------------------------|
--------------------------------|--------------------------|
--------------------------------|--------------------------|
--L--10--10--10--10--10--10--3--|--L--3--3--5--L--5--5--0--|
--L--10--10--10--10--10--10--3--|--L--3--3--5--L--5--5--0--|
--L--10--10--10--10--10--10--3--|--L--3--3--5--L--5--5--0--|


  E  E  E  E   E   E   E  E     E  E  E  E  E  E  E   E   
-----------------------------|---------------------------|
-----------------------------|---------------------------|
--------------10--10--10-----|---------------------------|
--L--0--0--0---x---x---x--8--|--L--8--8--8--8--8--8--10--|
--L--0--0--0---8---8---8--8--|--L--8--8--8--8--8--8--10--|
--L--0--0--0--------------8--|--L--8--8--8--8--8--8--10--|


  E   E   E   E   E   E   E   E      E   E  E  E   E   E   E  E   
---------------------------------|-------------------------------|
---------------------------------|----------------------------6--|
---------------------------------|----------------------------x--|
--L--10--10--10--10--10--10--10--|--10--10-----x--10--10--10--3--|
--L--10--10--10--10--10--10--10--|--10--10-----x--10--10--10-----|
--L--10--10--10--10--10--10--10--|--10--10-----x--10--10--10-----|


  Q    Q    Q    E  E     Q    Q    Q    E  E     Q    Q    Q    E  E   
-----------------------|-----------------------|-----------------------|
--L----5---------x--6--|--L----5---------x--6--|--L----5---------------|
-------x----5----x--x--|-------x----5----x--x--|-------x----5----x--7--|
--L----2----x----x--3--|--L----2----x----x--3--|--L----2----x----x--x--|
------------3----------|------------3----------|------------3----x--5--|
-----------------------|-----------------------|-----------------------|


  E  E  E  E  E  E  E  E     Q    Q    Q    E  E     Q    Q    Q    E  E   
--------------------------|-----------------------|-----------------------|
-----------------------6--|--L----5---------x--6--|--L----5---------x-----|
--L--7--7--9--L--9--9--x--|-------x----5----x--x--|-------x----5----x--7--|
-----x--x--x-----x--x--3--|--L----2----x----x--3--|--L----2----x----x--x--|
--L--5--5--7--L--7--7-----|------------3----------|------------3-------5--|
--------------------------|-----------------------|-----------------------|


  E  E  E  E  E  E  E   E     E  E  E  E  E  E  E  E   
---------------------------|--------------------------|
---------------------------|--------------------------|
--L--7--7--7--7--7--7S--9--|--L--9--9--9--9--9--9-----|
-----x--x--x--x--x--x---x--|-----x--x--x--x--x--x-----|
--L--5--5--5--5--5--5S--7--|--L--7--7--7--7--7--7-----|
---------------------------|--------------------------|


   E   E   E   E   E   E   E   E      E   E   E   E   E   E   E  E         
----------------------------------|---------------------------------|-----|
----------------------------------|---------------------------------|-----|
--10--10--10--10--10--10--10--10--|--10--10--10--10--10--10--10-----|-----|
---x---x---x---x---x---x---x---x--|---x---x---x---x---x---x---x-----|-----|
---8---8---8---8---8---8---8---8--|---8---8---8---8---8---8---8-----|-----|
----------------------------------|---------------------------------|-----|


                                      E  E  E  E  Q     
-----|-----|-----|-----|-----|-----|-------------------|
-----|-----|-----|-----|-----|-----|-------------------|
-----|-----|-----|-----|-----|-----|-------------------|
-----|-----|-----|-----|-----|-----|--7--7--7--7-------|
-----|-----|-----|-----|-----|-----|--7--7--7--7-------|
-----|-----|-----|-----|-----|-----|--7--7--7--7-------|


  Q    E  E  E   E  E   E     Q    E  E  E   E  E   E   
---------------------------|---------------------------|
---------------------------|---------------------------|
-------------x--10--L--10--|-------------x--10--L--10--|
--0----0-----x---x------x--|--0----0-----x---x------x--|
--0----0-----x---8--L---8--|--0----0-----x---8--L---8--|
--0----0-------------------|--0----0-------------------|


  Q    E  E  E  E  E  E     Q    E  E  E  E  E  E     Q    E  E  E   E  E   E   
-------------------------|-------------------------|---------------------------|
-------------------------|-------------------------|---------------------------|
-------------x--9--L--9--|-------------x--9--L--9--|-------------x--10--L--10--|
--0----0-----x--x-----x--|--0----0-----x--x-----x--|--8----8-----x---x------x--|
--0----0-----x--7--L--7--|--0----0-----x--7--L--7--|--8----8-----x---8--L---8--|
--0----0-----------------|--0----0-----------------|--8----8-------------------|


  Q    E  E  E   E  E   E     Q    E  E  E  E  E  E   
---------------------------|-------------------------|
---------------------------|-------------------------|
-------------x--10--L--10--|-------------x--9--L--9--|
--8----8-----x---x------x--|--7----7-----x--x-----x--|
--8----8-----x---8--L---8--|--7----7-----x--7--L--7--|
--8----8-------------------|--7----7-----------------|


  Q    E  E  E   E  E   E     Q    E  E  E   E  E   E   
---------------------------|---------------------------|
---------------------------|---------------------------|
-------------x-------------|-------------x--10--L--10--|
--7----7-----x--10--L--10--|--0----0-----x---x------x--|
--7----7-----x--10--L--10--|--0----0-----x---8--L---8--|
--7----7--------10--L--10--|--0----0-------------------|


  Q    E  E  E   E  E   E     Q    E  E  E  E  E  E     Q    E  E  E  E  E  E   
---------------------------|-------------------------|-------------------------|
---------------------------|-------------------------|-------------------------|
-------------x--10--L--10--|-------------x--9--L--9--|-------------x--9--L--9--|
--0----0-----x---x------x--|--0----0-----x--x-----x--|--0----0-----x--x-----x--|
--0----0-----x---8--L---8--|--0----0-----x--7--L--7--|--0----0-----x--7--L--7--|
--0----0-------------------|--0----0-----------------|--0----0-----------------|


  Q    E  E  E   E  E   E     Q    E  E  E   E  E   E   
---------------------------|---------------------------|
---------------------------|---------------------------|
-------------x--10--L--10--|-------------x--10--L--10--|
--8----8-----x---x------x--|--8----8-----x---x------x--|
--8----8-----x---8--L---8--|--8----8-----x---8--L---8--|
--8----8-------------------|--8----8-------------------|


  Q    E  E  E  E  E  E     Q    E  E  E   E  E   E   
-------------------------|---------------------------|
-------------------------|---------------------------|
-------------x--9--L--9--|-------------x-------------|
--7----7-----x--x-----x--|--7----7-----x--10--L--10--|
--7----7-----x--7--L--7--|--7----7-----x--10--L--10--|
--7----7-----------------|--7----7--------10--L--10--|


   E   E   S  S  E   E   E   E   E      E   E  E   E  S  S E   E   E   
--13--------------------------------|---------------------------------|
------13--10-11-10------10----------|---------------------------------|
--------------------12------12--10--|--12--10--9--10--9-10-9----------|
------------------------------------|-------------------------12--10--|
------------------------------------|---------------------------------|
------------------------------------|---------------------------------|


   E   E   E   E   E    E   E   E      E    E   E   E   E   E   E  E   
-----------------------------------|----------------------------------|
-----------------------------------|----------------------------------|
--10--10--10--10--10S--12--12--12--|--12S--14--14--14--14--12--10-----|
-----------------------------------|----------------------------------|
-----------------------------------|----------------------------------|
-----------------------------------|----------------------------------|


   E    E   E   E    E   E   E    E      E   E    E   E   E    E   E  E   
--13p--10------13p--10------13p--10--|------13p--10------13p--10---------|
-----------10-----------10-----------|--10-----------10-----------10-----|
-------------------------------------|-----------------------------------|
-------------------------------------|-----------------------------------|
-------------------------------------|-----------------------------------|
-------------------------------------|-----------------------------------|


  E   E  E   E  E   E  E   E     E   E   E   E  S  S E   E    E   
--8---------------------------|----------------------------------|
-----10--8--10--8------8------|----------------------------------|
-------------------10-----10--|--9--10--12--10--9-10-9-----------|
------------------------------|-------------------------10S--12--|
------------------------------|----------------------------------|
------------------------------|----------------------------------|


  E   E   E   E   E   E   E   E     E   E   E   E   E   E   E   E   
---------------------------------|---------------------------------|
---------------------------------|---------------------------------|
---------------------------------|-----------------12--------------|
--L--12--14--12--14--15--14--12--|--L--12--14--12------15--14--12--|
---------------------------------|---------------------------------|
---------------------------------|---------------------------------|


  E   E   E   E   E   E   E   E     E   E   E   E   E   E   E   E   
---------------------------------|---------------------------------|
---------------------------------|---------------------------------|
---------------------------------|-----------------12--------------|
--L--12--14--12--14--15--14--12--|--L--12--14--12------15--14--12--|
---------------------------------|---------------------------------|
---------------------------------|---------------------------------|


  E   E   E   E   E   E   E   E     E   E   E   E   E   E   Q     
---------------------------------|-------------------------------|
---------------------------------|-------------------------------|
---------------------------------|-----------------12------------|
--L--12--14--12--14--15--14--12--|--L--12--14--12------15--14----|
---------------------------------|-------------------------------|
---------------------------------|-------------------------------|


   E   E   S  S  E   E   E   E   E      E   E  E   E  S  S E   E  E   
--13--------------------------------|--------------------------------|
------13--10-11-10------10----------|--------------------------------|
--------------------12------12--10--|--12--10--9--10--9-10-9---------|
------------------------------------|-------------------------12--0--|
------------------------------------|-----------------------------0--|
------------------------------------|-----------------------------0--|


  E  E  E  E   E   E   E  E     E  E  E  E  E  E  E   E   
-----------------------------|---------------------------|
-----------------------------|---------------------------|
--------------10--10--10-----|---------------------------|
--L--0--0--0---x---x---x--8--|--L--8--8--8--8--8--8--10--|
--L--0--0--0---8---8---8--8--|--L--8--8--8--8--8--8--10--|
--L--0--0--0--------------8--|--L--8--8--8--8--8--8--10--|


  E   E   E   E   E   E   E  E     E  E  E  E  E  E  E  E   
--------------------------------|--------------------------|
--------------------------------|--------------------------|
--------------------------------|--------------------------|
--L--10--10--10--10--10--10--3--|--L--3--3--5--L--5--5--0--|
--L--10--10--10--10--10--10--3--|--L--3--3--5--L--5--5--0--|
--L--10--10--10--10--10--10--3--|--L--3--3--5--L--5--5--0--|


  E  E  E  E   E   E   E  E     E  E  E  E  E  E  E   E   
-----------------------------|---------------------------|
-----------------------------|---------------------------|
--------------10--10--10-----|---------------------------|
--L--0--0--0---x---x---x--8--|--L--8--8--8--8--8--8--10--|
--L--0--0--0---8---8---8--8--|--L--8--8--8--8--8--8--10--|
--L--0--0--0--------------8--|--L--8--8--8--8--8--8--10--|


  E   E   E   E   E   E   E   E      E   E  E  E   E   E   E  E   
---------------------------------|-------------------------------|
---------------------------------|-------------------------------|
---------------------------------|-------------------------------|
--L--10--10--10--10--10--10--10--|--10--10-----x--10--10--10--0--|
--L--10--10--10--10--10--10--10--|--10--10-----x--10--10--10--0--|
--L--10--10--10--10--10--10--10--|--10--10-----x--10--10--10--0--|


  E  E  E  E   E   E   E  E     E  E  E  E  E  E  E   E   
-----------------------------|---------------------------|
-----------------------------|---------------------------|
--------------10--10--10-----|---------------------------|
--L--0--0--0---x---x---x--8--|--L--8--8--8--8--8--8--10--|
--L--0--0--0---8---8---8--8--|--L--8--8--8--8--8--8--10--|
--L--0--0--0--------------8--|--L--8--8--8--8--8--8--10--|


  E   E   E   E   E   E   E  E     E  E  E  E  E  E  E  E   
--------------------------------|--------------------------|
--------------------------------|--------------------------|
--------------------------------|--------------------------|
--L--10--10--10--10--10--10--3--|--L--3--3--5--L--5--5--0--|
--L--10--10--10--10--10--10--3--|--L--3--3--5--L--5--5--0--|
--L--10--10--10--10--10--10--3--|--L--3--3--5--L--5--5--0--|


  E  E  E  E   E   E   E  E     E  E  E  E  E  E  E   E   
-----------------------------|---------------------------|
-----------------------------|---------------------------|
--------------10--10--10-----|---------------------------|
--L--0--0--0---x---x---x--8--|--L--8--8--8--8--8--8--10--|
--L--0--0--0---8---8---8--8--|--L--8--8--8--8--8--8--10--|
--L--0--0--0--------------8--|--L--8--8--8--8--8--8--10--|


  E   E   E   E   E   E   E   E      E   E   E   E   E   E   E  E   
---------------------------------|---------------------------------|
---------------------------------|------------------------------6--|
---------------------------------|------------------------------x--|
--L--10--10--10--10--10--10--10--|--10--10--10--10--10--10--10--3--|
--L--10--10--10--10--10--10--10--|--10--10--10--10--10--10--10-----|
--L--10--10--10--10--10--10--10--|--10--10--10--10--10--10--10-----|


  Q    Q    Q    E  E     Q    Q    Q    E  E     Q    Q    Q    E  E   
-----------------------|-----------------------|-----------------------|
--L----5---------x--6--|--L----5---------x--6--|--L----5---------------|
-------x----5----x--x--|-------x----5----x--x--|-------x----5----x--7--|
--L----2----x----x--3--|--L----2----x----x--3--|--L----2----x----x--x--|
------------3----------|------------3----------|------------3----x--5--|
-----------------------|-----------------------|-----------------------|


  E  E  E  E  E  E  E  E     Q    Q    Q    E  E     Q    Q    Q    E  E   
--------------------------|-----------------------|-----------------------|
-----------------------6--|--L----5---------x--6--|--L----5---------x-----|
--L--7--7--9--L--9--9--x--|-------x----5----x--x--|-------x----5----x--7--|
-----x--x--x-----x--x--3--|--L----2----x----x--3--|--L----2----x----x--x--|
--L--5--5--7--L--7--7-----|------------3----------|------------3-------5--|
--------------------------|-----------------------|-----------------------|


  E  E  E  E  E  E  E  E     E  E  E  E  E  E  E   E   
--------------------------|---------------------------|
--------------------------|---------------------------|
--L--7--7--7--7--7--7--9--|--L--9--9--9--9--9--9--10--|
-----x--x--x--x--x--x--x--|-----x--x--x--x--x--x---x--|
--L--5--5--5--5--5--5--7--|--L--7--7--7--7--7--7---8--|
--------------------------|---------------------------|


  E   E   E   E   E   E   E   E     E   E   E   E   E   E   E  E   
---------------------------------|--------------------------------|
---------------------------------|--------------------------------|
--L--10--10--10--10--10--10--12--|--L--12--12--12--12--12--12-----|
------x---x---x---x---x---x---x--|------x---x---x---x---x---x-----|
--L---8---8---8---8---8---8--10--|--L--10--10--10--10--10--10-----|
---------------------------------|--------------------------------|


  E  E   E  E  E   E  E  E     E  E   E  E  E   E  E   E   
----------------------------|-----------------------------|
----------------------------|-----------------------------|
----------------------------|-----------------------------|
-----7p--3-----5p--2--------|---------------5p--2---------|
-------------------------3--|-----3h--7------------3h--7--|
--0---------0---------0-----|------------0----------------|


  E  E   E  E  E   E  E  E     E  E   E  E  E   E  E   E   
----------------------------|-----------------------------|
----------------------------|-----------------------------|
----------------------------|-----------------------------|
-----7p--3-----5p--2--------|---------------5p--2---------|
-------------------------3--|-----3h--7------------3p--0--|
--0---------0---------0-----|------------0----------------|


  E  E   E  E  E   E  E  E     E  E   E  E  E   E  E   E   
----------------------------|-----------------------------|
----------------------------|-----------------------------|
----------------------------|-----------------------------|
-----7p--3-----5p--2--------|---------------5p--2---------|
-------------------------3--|-----3h--7------------3h--7--|
--0---------0---------0-----|------------0----------------|


  E  E   E  E  E   E  E  E     E  E  E  E  E  E  E  E    
----------------------------|--------------------------||
----------------------------|--------------------------||
----------------------------|--------------------------||
-----7p--3-----5p--2--------|-----0-----0-----0--0-----||
-------------------------3--|-----0-----0-----0--0-----||
--0---------0---------0-----|-----0-----0-----0--0-----||


***********************************************************************

Duration Legend
---------------
W - whole
H - half
Q - quarter
E - 8th
S - 16th
T - 32nd
X - 64th
. - note dotted
|-n-|  - n-tuplets


Tablature Legend
----------------
L - tied note
x - dead note
g - grace note
(n) - ghost note
> - accentuded note
NH - natural harmonic
AH - artificial harmonic
TH - tapped harmonic
SH - semi harmonic
PH - pitch harmonic
h - hammer on
p - pull off
b - bend
br - bendRelease
pb - preBend
pbr - preBendRelease
brb - bendReleaseBend
\n/ - tremolo bar dip
\n - tremolo bar dive
-/n - tremolo bar Release up
/n\ - tremolo bar inverted dip
/n - tremolo bar return
-\n - tremolo bar Release down
S - shift slide
s - legato slide
/ -  slide into from below or out of upwards
\ -  slide into from above or out of downwards
~ - vibrato
W - wide vibrato
tr - trill
TP - tremolo picking
T - tapping
S - slap
P - pop
< - fade in
^ - brush up
v - brush down
comments
print report bad tab
13 comments total. Showing first comments. show 1 bad comment
+2 reply
Thnks-4-Th-Mmrs wrote on July 24 2008, 04:05 am

Great Tab.

However, ETF Do Play Their Guitars In Drop C.

But Never Mind, Great Tab.

Rated = 4

=)

+2 reply
atreyunderworld wrote on July 29 2008, 02:55 pm

uhh yes.. etf does play most of their songs in drop C, i think you meant they don't play in drop D..

I want to post or [tab]
guest
You may want to rate the tab now too:
select rating
Please do not post tabs as comments. Select "correction" instead!