Oops, an error
Loading. Please wait.

Dying Is Your Latest Fashion Tab

8,022 views 9 this week
2 commentsread comments
1 2 3 4 5
excellent!
x 2
Autoscroll
+/-
esc
set tempo
stop
Contributor
Difficulty
Tuning
intermediate
C G C F A D
Hey! There's an official Ultimate Guitar app which is ideal
for learning songs when you're away from computer. Get the app
WARNING: You are trying to view
                                    content from Ultimate-Guitar.com
                                    in an unauthorized application,
                                    which is prohibited.

                                    Please use an official Ultimate
                                    Guitar Tabs application for iPhone,
                                    iPad or Android to access legitimate
                                    chords, guitar, bass, and drum tabs
                                    from Ultimate-Guitar.com database.

                                    Type "ultimate guitar tabs" in Apple
                                    App Store's or Android Market's
                                    search to find the application.
            ESCAPE THE FATE - DYING IS YOUR LATEST FASHION


Track Listing
1. The Webs We Weave
2. When I Go Out, I Want To Go Out On A Chariot Of Fire
3. Situations
4. The Guillotine
5. Reverse This Curse
6. Cellar Door
7. There's No Sympathy For The Dead
8. My Apocalypse
9. Friends And Alibis
10. Not Good Enough For Truth In Cliché
11. The Day I Left The Womb


PLEASE RATE AND LEAVE COMMENTS SO I CAN MAKE BETTER TABS IF I NEED TO!!!


1. The Webs We Weave

The lead breakdown guitar may be off, but the rythem guitar is good. Please Rate my tab =D. 
Thanks.

Intro.
D|--------------------------------------------------------| \
A|--------------------------------------------------------| |
F|-----1212121212111111111212------1616161616141414141616-| |
C|x2-2-x-x-x-x-x-x-x-x-x-x-x--x2-2-x-x-x-x-x-x-x-x-x-x-x--| |
G|x2-2-10101010109-9-9-9-1010-x2-2-1414141414121212121414-| |
C|x2-2------------------------x2-2------------------------| |
                                                             x2
D|----------------------------------------------------|     |
A|----------------------7h8p7-------------------------|     |
F|12-1212-12121211-1111------9-12-1212-1214X11-1111xxx|     |
C|x--x-x--x-x-x-x--x-x---------x--x-x--x-x-Xx--x-x-xxx|     |
G|10-1010-1010109--9-9---------10-1010-1010X9--9-9-xxx|     |
C|-------------------------------------------------xxx|     /

Verse:
D|-----------------------5555------------------------------------------|
A|----5555-7777-888-----------8888-777------5555-7777-888--------------|
F|---------------------------------------------------------------------|
C|2-2---------------x2-2---------------x5-5---------------x5-5xxx4-4xxx| x2
G|2-2---------------x2-2---------------x3-3---------------x5-5xxx4-4xxx|
C|2-2---------------x2-2---------------x------------------x5-5xxx4-4xxx|

Pre-Chorus:
D|------------------------------------------------------------------|
A|------------------------------------------------------------------|
F|9-99-999-999-99911-1111-111111-111111-111211-9-99-999-999-9998----|
C|x-xx-xxx-xxx-xxxx--x-x--x-x-x--x-x-x--x-x-x--x-xx-xxx-xxx-xxxx-5-4|
G|7-77-777-777-7779--9-9--9-9-9--9-9-9--9-10-9-7-77-777-777-7776-5-4|
C|---------------------------------------------------------------5-4|

Chorus:
D|--------------------------------------------------------| \
A|--------------------------------------------------------| |
F|-----1212121212111111111212------1616161616141414141616-| |
C|x2-2-x-x-x-x-x-x-x-x-x-x-x--x2-2-x-x-x-x-x-x-x-x-x-x-x--| |
G|x2-2-10101010109-9-9-9-1010-x2-2-1414141414121212121414-| |
C|x2-2------------------------x2-2------------------------| |
                                                             x2
D|----------------------------------------------------|     |
A|----------------------7h8p7-------------------------|     |
F|12-1212-12121211-1111------9-12-1212-1214X11-1111xxx|     |
C|x--x-x--x-x-x-x--x-x---------x--x-x--x-x-Xx--x-x-xxx|     |
G|10-1010-1010109--9-9---------10-1010-1010X9--9-9-xxx|     |
C|-------------------------------------------------xxx|     /

Crazy Tapping Part(trust me, it's a tapping jig):
D|-------------|
A|-------------|
F|-------------|
C|2-2------x2-2|
G|2-2------x2-2|
C|2-2------x2-2|

THEN DO:
Verse x2
Pre-Chorus
Chorus x2

Breakdown bridgey thing:
D|---------------------------------------------------------------|
A|---------------------------------------------------------------|
F|---------------------------------------------------------------|
C|555555555555555-777777777777777-999999999999999-999999999999999| x4
G|333333333333333-555555555555555-777777777777777-777777777777777|
C|---------------------------------------------------------------|

                        OR!!!!!!

(i don't think this is right, but it sounds close enough)
D|---------------------------------|-------------------------------|
A|0-8-0-12-0-8-0-10-0-8-0-12-0----0|0-8-0-12-0-8-0-10-0-8-10-0----0|
F|-----------------------------11--|---------------------------11--| x8
C|---------------------------------|-------------------------------| 
G|---------------------------------|-------------------------------|
C|---------------------------------|-------------------------------|

D|---------------------|----------------------------------------------------|
A|---------------------|----------------------7h8p7-------------------------|
F|---------------------|12-1212-12121211-1111------9-12-1212-1214X11-1111xxx|
C|2-2------x2-2-------0|x--x-x--x-x-x-x--x-x---------x--x-x--x-x-Xx--x-x-xxx|
G|2-2------x2-2-------0|10-1010-1010109--9-9---------10-1010-1010X9--9-9-xxx|
C|2-2------x2-2-------0|-------------------------------------------------xxx|

Final Chorus:
D|--------------------------------------------------------| 
A|--------------------------------------------------------| 
F|-----1212121212111111111212------1616161616141414141616-| 
C|x2-2-x-x-x-x-x-x-x-x-x-x-x--x2-2-x-x-x-x-x-x-x-x-x-x-x--| 
G|x2-2-10101010109-9-9-9-1010-x2-2-1414141414121212121414-|
C|x2-2------------------------x2-2------------------------| 
                                                            
D|----------------------------------------------------|     
A|----------------------7h8p7-------------------------|     
F|12-1212-12121211-1111------9-12-1212-1214X11-1111xxx|    
C|x--x-x--x-x-x-x--x-x---------x--x-x--x-x-Xx--x-x-xxx|     
G|10-1010-1010109--9-9---------10-1010-1010X9--9-9-xxx|    
C|-------------------------------------------------xxx|    

End:
D|--------|
A|--------|
F|--------|
C|2-2-0---|
G|2-2-0---|
C|2-2-0-2~|




2. When I Go Out, I Want To Go Out On A Chariot Of Fire

Great Song
                     PM                   PM PM PM PM PM PM  
     H.           E  S  S    H.           T  T  S  T  T  S   
D||-----------------------|---------------------------------|
A||-----------------------|---------------------------------|
F||-----------------------|---------------------------------|
C||--2------------L--2----|--2------------------------------|
G||--2------------L--2----|--2------------2--2--2--2--2--2--|
C||--2------------L--2----|--2------------2--2--2--2--2--2--|


                                                PM PM PM    
  S H.           E.     S S S S S S S S S S S S S  S  S  S  
---------------------|-------------------------------------|
---------------------|-------------------------------------|
---------------------|--9-9-9-9-9-9-9-9-9-9-9-9------------|
--2------------------|--x-x-x-x-x-x-x-x-x-x-x-x-x--x--x--2-|
--2------------------|--7-7-7-7-7-7-7-7-7-7-7-7-x--x--x--2-|
--2------------------|--------------------------x--x--x--2-|


     PM PM PM PM PM PM PM PM PM PM   PM PM    
  E  S  S  S  S  S  S  S  S  S  S  S S  S  S  
---------------------------------------------|
---------------------------------------------|
---------------------------------------------|
--L--------------------------------2-------2-|
--L--2--2--2--2--2--2--2--2--2--2--2-2--2--2-|
--L--2--2--2--2--2--2--2--2--2--2--2-2--2--2-|


     PM PM PM PM PM PM   PM PM   PM PM   PM  
  E  S  S  S  S  S  S  S S  S  S S  S  S S   
--------------------------------------------|
--------------------------------------------|
--------------------------------------------|
--L--------------------2-------2-------2----|
--L--2--2--2--2--2--2--2-2--2--2-2--2--2-2--|
--L--2--2--2--2--2--2--2-2--2--2-2--2--2-2--|


       PM PM PM PM PM PM PM PM PM PM    PM PM    
   E   S  S  S  S  S  S  S  S  S  S  S  S  S  S  
------------------------------------------------|
------------------------------------------------|
------------------------------------------------|
--10--------------------------------10-------10-|
--10--10-10-10-10-10-10-10-10-10-10-10-10-10-10-|
--10--10-10-10-10-10-10-10-10-10-10-10-10-10-10-|


      PM PM PM PM PM PM    PM PM    PM PM    PM 
  E   S  S  S  S  S  S  S  S  S  S  S  S  S  S  
-----------------------------------------------|
-----------------------------------------------|
-----------------------------------------------|
--L--------------------10-------10-------10----|
--L--10-10-10-10-10-10-10-10-10-10-10-10-10-10-|
--L--10-10-10-10-10-10-10-10-10-10-10-10-10-10-|


     PM PM PM PM PM PM PM PM PM PM   PM PM    
  E  S  S  S  S  S  S  S  S  S  S  S S  S  S  
---------------------------------------------|
---------------------------------------------|
---------------------------------------------|
--2--------------------------------2-------2-|
--2--2--2--2--2--2--2--2--2--2--2--2-2--2--2-|
--2--2--2--2--2--2--2--2--2--2--2--2-2--2--2-|


     PM PM PM PM PM PM   PM PM   PM PM   PM  
  E  S  S  S  S  S  S  S S  S  S S  S  S S   
--------------------------------------------|
--------------------------------------------|
--------------------------------------------|
--L--------------------2-------2-------2----|
--L--2--2--2--2--2--2--2-2--2--2-2--2--2-2--|
--L--2--2--2--2--2--2--2-2--2--2-2--2--2-2--|


       PM PM PM PM PM PM PM PM PM PM    PM PM    
   E   S  S  S  S  S  S  S  S  S  S  S  S  S  S  
------------------------------------------------|
------------------------------------------------|
------------------------------------------------|
--10--------------------------------10-------10-|
--10--10-10-10-10-10-10-10-10-10-10-10-10-10-10-|
--10--10-10-10-10-10-10-10-10-10-10-10-10-10-10-|


      PM PM PM PM PM PM                                   PM      
  E   S  S  S  S  S  S  S Q.     S     E.   S Q.     E.   S  S S  
-----------------------------------|-----------------------------|
-----------------------------------|-----------------------------|
-----------------------------------|-----------------------------|
--L--------------------10----------|--10---10---------------10---|
--L--10-10-10-10-10-10-10----------|--10---10------------10-10---|
--L--10-10-10-10-10-10-10----------|--10---10------------10-10---|


                                                   PM      
   E.   S Q.     E.   S   S  S    E.  S Q.     E.  S  S S  
-------------------------------|--------------------------|
-------------------------------|--------------------------|
---------------------12s-11s-9-|--------------------------|
--10---10-------------x---x--x-|--2---2---------------2---|
--10---10------------10s--9s-7-|--2---2------------2--2---|
--10---10----------------------|--2---2------------2--2---|


                                                          PM      
  E.  S Q    S  S  S  S  S  S  S S     E.   S Q.     E.   S  S S  
-----------------------------------|-----------------------------|
-----------------------------------|-----------------------------|
---------------12-16-16-16-16-14---|-----------------------------|
--0---0---------x--x--x--x--x--x---|--10---10---------------10---|
--0---0--------10-14-14-14-14-12---|--10---10------------10-10---|
--0---0----------------------------|--10---10------------10-10---|


                                                   PM      
   E.   S Q.     E.   S   S  S    E.  S Q.     E.  S  S S  
-------------------------------|--------------------------|
-------------------------------|--------------------------|
---------------------12s-11s-9-|--------------------------|
--10---10-------------x---x--x-|--2---2---------------2---|
--10---10------------10s--9s-7-|--2---2------------2--2---|
--10---10----------------------|--2---2------------2--2---|


  E.  S Q    S S S S S S S S    S S S S S S S S S S S S S S S S  
-----------------------------|----------------------------------|
-----------------------------|----------------------------------|
-----------------------------|--5-5-5-5-5-5-5-5-5-5-5-5-5-5-5-5-|
--0---0----------------------|--5-5-5-5-5-5-5-5-5-5-5-5-5-5-5-5-|
--0---0----------------------|--3-3-3-3-3-3-3-3-3-3-3-3-3-3-3-3-|
--0---0----------------------|----------------------------------|


  S S S S S S S S S S S S S S S S    S S S S S S S S S S S S S S S S  
----------------------------------|----------------------------------|
----------------------------------|----------------------------------|
--5-5-5-5-5-5-5-5-5-5-5-5-5-5-5-5-|--7-7-7-7-7-7-7-7-7-7-7-7-7-7-7-7-|
--5-5-5-5-5-5-5-5-5-5-5-5-5-5-5-5-|--7-7-7-7-7-7-7-7-7-7-7-7-7-7-7-7-|
--3-3-3-3-3-3-3-3-3-3-3-3-3-3-3-3-|--5-5-5-5-5-5-5-5-5-5-5-5-5-5-5-5-|
----------------------------------|----------------------------------|


                          PM PM PM                                      
  S S S S S S S S S S S S S  S  S  S    E  S S S S S S S S S S S S S S  
-------------------------------------|---------------------------------|
-------------------------------------|---------------------------------|
--7-7-7-7-7-7-7-7-7-7-7-7------------|---------------------------------|
--7-7-7-7-7-7-7-7-7-7-7-7----------5-|--L--5-5-5-5-5-5-5-5-5-5-5-5-5-5-|
--5-5-5-5-5-5-5-5-5-5-5-5-0--0--0--5-|--L--5-5-5-5-5-5-5-5-5-5-5-5-5-5-|
--------------------------0--0--0--5-|--L--5-5-5-5-5-5-5-5-5-5-5-5-5-5-|


  S S S S S S S S S S S S S S S S    S S S S S S S S S S S S S S S S  
----------------------------------|----------------------------------|
----------------------------------|----------------------------------|
----------------------------------|----------------------------------|
--5-5-5-5-5-5-5-5-5-5-5-5-5-5-5-5-|--2-2-2-2-2-2-2-2-2-2-2-2-2-2-2-2-|
--5-5-5-5-5-5-5-5-5-5-5-5-5-5-5-5-|--2-2-2-2-2-2-2-2-2-2-2-2-2-2-2-2-|
--5-5-5-5-5-5-5-5-5-5-5-5-5-5-5-5-|--2-2-2-2-2-2-2-2-2-2-2-2-2-2-2-2-|


  S S S S S S S S S S S S S S S S    S S S S S S S S S S S S S S S S  
----------------------------------|----------------------------------|
----------------------------------|----------------------------------|
----------------------------------|--5-5-5-5-5-5-5-5-5-5-5-5-5-5-5-5-|
--2-2-2-2-2-2-2-2-2-2-2-2-2-2-2-2-|--5-5-5-5-5-5-5-5-5-5-5-5-5-5-5-5-|
--2-2-2-2-2-2-2-2-2-2-2-2-2-2-2-2-|--3-3-3-3-3-3-3-3-3-3-3-3-3-3-3-3-|
--2-2-2-2-2-2-2-2-2-2-2-2-2-2-2-2-|----------------------------------|


  S S S S S S S S S S S S S S S S    S S S S S S S S S S S S S S S S  
----------------------------------|----------------------------------|
----------------------------------|----------------------------------|
--5-5-5-5-5-5-5-5-5-5-5-5-5-5-5-5-|--7-7-7-7-7-7-7-7-7-7-7-7-7-7-7-7-|
--5-5-5-5-5-5-5-5-5-5-5-5-5-5-5-5-|--7-7-7-7-7-7-7-7-7-7-7-7-7-7-7-7-|
--3-3-3-3-3-3-3-3-3-3-3-3-3-3-3-3-|--5-5-5-5-5-5-5-5-5-5-5-5-5-5-5-5-|
----------------------------------|----------------------------------|


                          PM PM PM PM                        PM      
  S S S S S S S S S S S S S  S  S  S      E.   S Q.     E.   S  S S  
--------------------------------------|-----------------------------|
--------------------------------------|-----------------------------|
--7-7-7-7-7-7-7-7-7-7-7-7-------------|-----------------------------|
--7-7-7-7-7-7-7-7-7-7-7-7-------------|--10---10---------------10---|
--5-5-5-5-5-5-5-5-5-5-5-5-0--0--0--0--|--10---10------------10-10---|
--------------------------0--0--0--0--|--10---10------------10-10---|


                                                   PM      
   E.   S Q.     E.   S   S  S    E.  S Q.     E.  S  S S  
-------------------------------|--------------------------|
-------------------------------|--------------------------|
---------------------12s-11s-9-|--------------------------|
--10---10-------------x---x--x-|--2---2---------------2---|
--10---10------------10s--9s-7-|--2---2------------2--2---|
--10---10----------------------|--2---2------------2--2---|


                                                          PM      
  E.  S Q    S  S  S  S  S  S  S S     E.   S Q.     E.   S  S S  
-----------------------------------|-----------------------------|
-----------------------------------|-----------------------------|
---------------12-16-16-16-16-14---|-----------------------------|
--0---0---------x--x--x--x--x--x---|--10---10---------------10---|
--0---0--------10-14-14-14-14-12---|--10---10------------10-10---|
--0---0----------------------------|--10---10------------10-10---|


                                                   PM      
   E.   S Q.     E.   S   S  S    E.  S Q.     E.  S  S S  
-------------------------------|--------------------------|
-------------------------------|--------------------------|
---------------------12s-11s-9-|--------------------------|
--10---10-------------x---x--x-|--2---2---------------2---|
--10---10------------10s--9s-7-|--2---2------------2--2---|
--10---10----------------------|--2---2------------2--2---|


  E.  S Q    S S S S S S S S    S S S S S S S S S S S S S S S S  
-----------------------------|----------------------------------|
-----------------------------|----------------------------------|
-----------------------------|--5-5-5-5-5-5-5-5-5-5-5-5-5-5-5-5-|
--0---0----------------------|--5-5-5-5-5-5-5-5-5-5-5-5-5-5-5-5-|
--0---0----------------------|--3-3-3-3-3-3-3-3-3-3-3-3-3-3-3-3-|
--0---0----------------------|----------------------------------|


  S S S S S S S S S S S S S S S S    S S S S S S S S S S S S S S S S  
----------------------------------|----------------------------------|
----------------------------------|----------------------------------|
--5-5-5-5-5-5-5-5-5-5-5-5-5-5-5-5-|--7-7-7-7-7-7-7-7-7-7-7-7-7-7-7-7-|
--5-5-5-5-5-5-5-5-5-5-5-5-5-5-5-5-|--7-7-7-7-7-7-7-7-7-7-7-7-7-7-7-7-|
--3-3-3-3-3-3-3-3-3-3-3-3-3-3-3-3-|--5-5-5-5-5-5-5-5-5-5-5-5-5-5-5-5-|
----------------------------------|----------------------------------|


  E  H.           E     E  S S S S S S S S S S S S S S  
---------------------|---------------------------------|
---------------------|---------------------------------|
--7------------------|---------------------------------|
--7------------------|--5--5-5-5-5-5-5-5-5-5-5-5-5-5-5-|
--5------------------|--5--5-5-5-5-5-5-5-5-5-5-5-5-5-5-|
---------------------|--5--5-5-5-5-5-5-5-5-5-5-5-5-5-5-|


  S S S S S S S S S S S S S S S S    S S S S S S S S S S S S S S S S  
----------------------------------|----------------------------------|
----------------------------------|----------------------------------|
----------------------------------|----------------------------------|
--5-5-5-5-5-5-5-5-5-5-5-5-5-5-5-5-|--2-2-2-2-2-2-2-2-2-2-2-2-2-2-2-2-|
--5-5-5-5-5-5-5-5-5-5-5-5-5-5-5-5-|--2-2-2-2-2-2-2-2-2-2-2-2-2-2-2-2-|
--5-5-5-5-5-5-5-5-5-5-5-5-5-5-5-5-|--2-2-2-2-2-2-2-2-2-2-2-2-2-2-2-2-|


  S S S S S S S S S S S S S S S S    S S S S S S S S S S S S S S S S  
----------------------------------|----------------------------------|
----------------------------------|----------------------------------|
----------------------------------|--5-5-5-5-5-5-5-5-5-5-5-5-5-5-5-5-|
--2-2-2-2-2-2-2-2-2-2-2-2-2-2-2-2-|--5-5-5-5-5-5-5-5-5-5-5-5-5-5-5-5-|
--2-2-2-2-2-2-2-2-2-2-2-2-2-2-2-2-|--3-3-3-3-3-3-3-3-3-3-3-3-3-3-3-3-|
--2-2-2-2-2-2-2-2-2-2-2-2-2-2-2-2-|----------------------------------|


  S S S S S S S S S S S S S S S S    S S S S S S S S S S S S S S S S  
----------------------------------|----------------------------------|
----------------------------------|----------------------------------|
--5-5-5-5-5-5-5-5-5-5-5-5-5-5-5-5-|--7-7-7-7-7-7-7-7-7-7-7-7-7-7-7-7-|
--5-5-5-5-5-5-5-5-5-5-5-5-5-5-5-5-|--7-7-7-7-7-7-7-7-7-7-7-7-7-7-7-7-|
--3-3-3-3-3-3-3-3-3-3-3-3-3-3-3-3-|--5-5-5-5-5-5-5-5-5-5-5-5-5-5-5-5-|
----------------------------------|----------------------------------|


                                             PM PM PM                         
  S S S S S S S S S S S S S S S S      E  E  S  S  S   E   S  E   S  S  S  S  
----------------------------------||-----------------------------------------
----------------------------------||-----------------------------------------
--7-7-7-7-7-7-7-7-7-7-7-7-7-7-7-7-||*----------------------------------------
--7-7-7-7-7-7-7-7-7-7-7-7-7-7-7-7-||*--9--9-----------10--10-10--10-10-10-10-
--5-5-5-5-5-5-5-5-5-5-5-5-5-5-5-5-||---9--9--9--9--9--10--10-10--10-10-10-10-
----------------------------------||---9--9--9--9--9--10--10-10--10-10-10-10-


  S S S S S S S S  S  S  S  S  S  S  S  S  
------------------------------------------|
------------------------------------------|
------------------11-11-11-11-11-11-11-11-|
--5-5-5-5-5-5-5-5--x--x--x--x--x--x--x--x-|
--5-5-5-5-5-5-5-5--9--9--9--9--9--9--9--9-|
--5-5-5-5-5-5-5-5-------------------------|


  S S S S S S S  S S  S  S  S  S  S  S  S  
------------------------------------------|
------------------------------------------|
------------------------------------------|
--9-9-9-9-9-9-9-10-L-10-10-10-10-10-10-10-|
--9-9-9-9-9-9-9-10-L-10-10-10-10-10-10-10-|
--9-9-9-9-9-9-9-10-L-10-10-10-10-10-10-10-|


  S S S S S S S S  S  S  S  S  S  S  S  S    
-------------------------------------------||
-------------------------------------------||
------------------11-11-11-11-11-11-11-11-*||
--5-5-5-5-5-5-5-5--x--x--x--x--x--x--x--x-*||
--5-5-5-5-5-5-5-5--9--9--9--9--9--9--9--9--||
--5-5-5-5-5-5-5-5--------------------------||


  im not quite sure about the lead here                      
  W                                        W                 
----------------------------------------|-------------------|
----------------------------------------|-------------------|
----------------------------------------|-------------------|
--9-------------------------------------|--L----------------|
--9-------------------------------------|--L----------------|
--9-------------------------------------|--L----------------|


  W                   W                   W                   W                 
-------------------|-------------------|-------------------|-----------------|
-------------------|-------------------|-------------------|-----------------|
-------------------|-------------------|-------------------|-----------------|
--5----------------|--L----------------|--9----------------|--L--------------|
--5----------------|--L----------------|--9----------------|--L--------------|
--5----------------|--L----------------|--9----------------|--L--------------|


  W                   W                 
-------------------|-------------------|
-------------------|-------------------|
-------------------|-------------------|
--5----------------|--L----------------|
--5----------------|--L----------------|
--5----------------|--L----------------|


  S  S  S  S  S  S  S  S S  S  S  S  S  S  S  S  
------------------------------------------------|
------------------------------------------------|
----12-12-12-12-12-12-12---11-11-11-11-11-11-11-|
----14-14-14-14-14-14-14---14-14-14-14-14-14-14-|
------------------------------------------------|
------------------------------------------------|


  S  S  S  S  S  S  S  S S  S  S  S  S  S  S  S  
------------------------------------------------|
------------------------------------------------|
----14-14-14-14-14-14-14---12-12-12-12-12-12-12-|
----14-14-14-14-14-14-14---14-14-14-14-14-14-14-|
------------------------------------------------|
------------------------------------------------|


                                                  NH    NH    NH             
  S  S  S  S  S  S  S  S S  S  S  S  S  S E       E.    E.    E  Q    Q      
---------------------------------------------|--<>5-------------------------|
---------------------------------------------|--------<>7-------------------|
----11-11-11-11-11-11-11---12-12-12-12-12----|--------------<>7--L----------|
-----9--9--9--9--9--9--9----9--9--9--9--9----|------------------------------|
---------------------------------------------|------------------------7\----|
---------------------------------------------|------------------------7\----|


    S  S  S  S  S  S  S  S S  S  S  S  S  S  S  S  
|-------------------------------------------------|
|-------------------------------------------------|
|*----12-12-12-12-12-12-12---11-11-11-11-11-11-11-|
|*----14-14-14-14-14-14-14---14-14-14-14-14-14-14-|
|-------------------------------------------------|
|-------------------------------------------------|


  S  S  S  S  S  S  S  S S  S  S  S  S  S  S  S  
------------------------------------------------|
------------------------------------------------|
----14-14-14-14-14-14-14---12-12-12-12-12-12-12-|
----14-14-14-14-14-14-14---14-14-14-14-14-14-14-|
------------------------------------------------|
------------------------------------------------|


  S  S  S  S  S  S  S  S S  S  S  S  S  S  S  S  
------------------------------------------------|
------------------------------------------------|
----11-11-11-11-11-11-11---12-12-12-12-12-12-12-|
-----9--9--9--9--9--9--9----9--9--9--9--9--9--9-|
------------------------------------------------|
------------------------------------------------|


  S S S S S S S S S  S  S  S  S  S  S  S    
------------------------------------------||
------------------------------------------||
----7-7-7-7-7-7-7---12-12-12-12-12-12-12-*||
----9-9-9-9-9-9-9----9--9--9--9--9--9--9-*||
------------------------------------------||
------------------------------------------||


  PM PM   PM     PM   PM PM   PM     PM    
  S  S  S S  S S S  S S  S  S S  S S S  S  
------------------------------------------|
------------------------------------------|
------------------------------------------|
--------5----5-4----5-------5----5-4----5-|
--2--2----2------2----2--2----2------2----|
------------------------------------------|


  PM PM   PM     PM   PM PM   PM            
                                 |-3-|      
  S  S  S S  S S S  S S  S  S S  S S S S S  
-------------------------------------------|
-------------------------------------------|
-------------------------------------------|
--------5----5-4----5-------5----4-5-4-2-0-|
--2--2----2------2----2--2----2------------|
-------------------------------------------|


  PM PM   PM           PM PM   PM               
             |-3-|                |--3--|       
  S  S  S S  S S S S S S  S  S S  S  S  S S  S  
-----------------------------------------------|
-----------------------------------------------|
-----------------------------------------------|
--------5----4-5-4-2-0-------5----4h-5p-4-2p-0-|
-----------------------------------------------|
--2--2----2------------2--2----2---------------|


  PM PM   PM              PM PM   PM               
             |--3--|                 |--3--|       
  S  S  S S  S  S  S S  S S  S  S S  S  S  S S  S  
--------------------------------------------------|
--------------------------------------------------|
--------------------------------------------------|
--------5----4h-5p-4-2p-0-------5----4h-5p-4-2p-0-|
--------------------------------------------------|
--2--2----2---------------2--2----2---------------|


  S  S  S  S  S  S  S  S S  S  S  S  S  S  S  S  
------------------------------------------------|
------------------------------------------------|
----12-12-12-12-12-12-12---11-11-11-11-11-11-11-|
----14-14-14-14-14-14-14---14-14-14-14-14-14-14-|
------------------------------------------------|
------------------------------------------------|


  S  S  S  S  S  S  S  S S  S  S  S  S  S  S  S  
------------------------------------------------|
------------------------------------------------|
----14-14-14-14-14-14-14---12-12-12-12-12-12-12-|
----14-14-14-14-14-14-14---14-14-14-14-14-14-14-|
------------------------------------------------|
------------------------------------------------|


  S S S S S S S S S S S S S S S S    S S S S S S S S S S S S S S S S  
----------------------------------|----------------------------------|
----------------------------------|----------------------------------|
----7-7-7-7-7-7-7---7-7-7-7-7-7-7-|----7-7-7-7-7-7-7---7-7-7-7-7-7-7-|
----7-7-7-7-7-7-7---7-7-7-7-7-7-7-|----7-7-7-7-7-7-7---7-7-7-7-7-7-7-|
----5-5-5-5-5-5-5---5-5-5-5-5-5-5-|----5-5-5-5-5-5-5---5-5-5-5-5-5-5-|
----------------------------------|----------------------------------|


  no clue what the clean part is                                          
  W                                 W                   W                 
---------------------------------|-------------------|-------------------|
---------------------------------|-------------------|-------------------|
---------------------------------|-------------------|-------------------|
--5------------------------------|--L----------------|--L----------------|
--5------------------------------|--L----------------|--L----------------|
--5------------------------------|--L----------------|--L----------------|


  W                                                                             
-------------------|-------------------|-------------------|-----------------
-------------------|-------------------|-------------------|-----------------
-------------------|-------------------|-------------------|-----------------
--L----------------|-------------------|-------------------|-----------------
--L----------------|-------------------|-------------------|-----------------
--L----------------|-------------------|-------------------|-----------------


               PM PM PM                                      
  H.           S  S  S  S    E  S S S S S S S S S S S S S S  
--------------------------|---------------------------------|
--------------------------|---------------------------------|
--------------------------|---------------------------------|
------------------------5-|--L--5-5-5-5-5-5-5-5-5-5-5-5-5-5-|
---------------x--x--x--5-|--L--5-5-5-5-5-5-5-5-5-5-5-5-5-5-|
---------------x--x--x--5-|--L--5-5-5-5-5-5-5-5-5-5-5-5-5-5-|


  S S S S S S S S S S S S S S S S    S S S S S S S S S S S S S S S S  
----------------------------------|----------------------------------|
----------------------------------|----------------------------------|
----------------------------------|----------------------------------|
--5-5-5-5-5-5-5-5-5-5-5-5-5-5-5-5-|--2-2-2-2-2-2-2-2-2-2-2-2-2-2-2-2-|
--5-5-5-5-5-5-5-5-5-5-5-5-5-5-5-5-|--2-2-2-2-2-2-2-2-2-2-2-2-2-2-2-2-|
--5-5-5-5-5-5-5-5-5-5-5-5-5-5-5-5-|--2-2-2-2-2-2-2-2-2-2-2-2-2-2-2-2-|


  S S S S S S S S S S S S S S S S    S S S S S S S S S S S S S S S S  
----------------------------------|----------------------------------|
----------------------------------|----------------------------------|
----------------------------------|--5-5-5-5-5-5-5-5-5-5-5-5-5-5-5-5-|
--2-2-2-2-2-2-2-2-2-2-2-2-2-2-2-2-|--5-5-5-5-5-5-5-5-5-5-5-5-5-5-5-5-|
--2-2-2-2-2-2-2-2-2-2-2-2-2-2-2-2-|--3-3-3-3-3-3-3-3-3-3-3-3-3-3-3-3-|
--2-2-2-2-2-2-2-2-2-2-2-2-2-2-2-2-|----------------------------------|


  S S S S S S S S S S S S S S S S    S S S S S S S S S S S S S S S S  
----------------------------------|----------------------------------|
----------------------------------|----------------------------------|
--5-5-5-5-5-5-5-5-5-5-5-5-5-5-5-5-|--7-7-7-7-7-7-7-7-7-7-7-7-7-7-7-7-|
--5-5-5-5-5-5-5-5-5-5-5-5-5-5-5-5-|--7-7-7-7-7-7-7-7-7-7-7-7-7-7-7-7-|
--3-3-3-3-3-3-3-3-3-3-3-3-3-3-3-3-|--5-5-5-5-5-5-5-5-5-5-5-5-5-5-5-5-|
----------------------------------|----------------------------------|


  S S S S S S S S S S S S S S S S    E  S S S S S S S S S S S S S S  
----------------------------------|---------------------------------|
----------------------------------|---------------------------------|
--7-7-7-7-7-7-7-7-7-7-7-7-7-7-7-7-|---------------------------------|
--7-7-7-7-7-7-7-7-7-7-7-7-7-7-7-7-|--5--5-5-5-5-5-5-5-5-5-5-5-5-5-5-|
--5-5-5-5-5-5-5-5-5-5-5-5-5-5-5-5-|--5--5-5-5-5-5-5-5-5-5-5-5-5-5-5-|
----------------------------------|--5--5-5-5-5-5-5-5-5-5-5-5-5-5-5-|


  S S S S S S S S S S S S S S S S    S S S S S S S S S S S S S S S S  
----------------------------------|----------------------------------|
----------------------------------|----------------------------------|
----------------------------------|----------------------------------|
--5-5-5-5-5-5-5-5-5-5-5-5-5-5-5-5-|--2-2-2-2-2-2-2-2-2-2-2-2-2-2-2-2-|
--5-5-5-5-5-5-5-5-5-5-5-5-5-5-5-5-|--2-2-2-2-2-2-2-2-2-2-2-2-2-2-2-2-|
--5-5-5-5-5-5-5-5-5-5-5-5-5-5-5-5-|--2-2-2-2-2-2-2-2-2-2-2-2-2-2-2-2-|


  S S S S S S S S S S S S S S S S    S S S S S S S S S S S S S S S S  
----------------------------------|----------------------------------|
----------------------------------|----------------------------------|
----------------------------------|--5-5-5-5-5-5-5-5-5-5-5-5-5-5-5-5-|
--2-2-2-2-2-2-2-2-2-2-2-2-2-2-2-2-|--5-5-5-5-5-5-5-5-5-5-5-5-5-5-5-5-|
--2-2-2-2-2-2-2-2-2-2-2-2-2-2-2-2-|--3-3-3-3-3-3-3-3-3-3-3-3-3-3-3-3-|
--2-2-2-2-2-2-2-2-2-2-2-2-2-2-2-2-|----------------------------------|


  S S S S S S S S S S S S S S S S    S S S S S S S S S S S S S S S S  
----------------------------------|----------------------------------|
----------------------------------|----------------------------------|
--5-5-5-5-5-5-5-5-5-5-5-5-5-5-5-5-|--7-7-7-7-7-7-7-7-7-7-7-7-7-7-7-7-|
--5-5-5-5-5-5-5-5-5-5-5-5-5-5-5-5-|--7-7-7-7-7-7-7-7-7-7-7-7-7-7-7-7-|
--3-3-3-3-3-3-3-3-3-3-3-3-3-3-3-3-|--5-5-5-5-5-5-5-5-5-5-5-5-5-5-5-5-|
----------------------------------|----------------------------------|


                          PM PM PM                                             
  S S S S S S S S S S S S S  S  S  S    W                   W                  
-------------------------------------|-------------------|-------------------
-------------------------------------|-------------------|-------------------
--7-7-7-7-7-7-7-7-7-7-7-7------------|-------------------|-------------------
--7-7-7-7-7-7-7-7-7-7-7-7-x--x--x--5-|--L----------------|--L----------------
--5-5-5-5-5-5-5-5-5-5-5-5-x--x--x--5-|--L----------------|--L----------------
--------------------------x--x--x--5-|--L----------------|--L----------------



3. Situations

Intro
Guitar 1:
|--------------------------------|
|--------------------------------|
|--------------------------------|
|--------------------------------|
|-1212--11--10-10~-88--77--10~~--|
|-1212--11--10-10~-88--77--10~~--|


Verse

Guitar 1:
|-----------------------------------------------------------------------|
|-----------------------------------------------------------------------|
|-----------------------------------------------------------------------|
|-7777777777777777-6666666666666666---------------------------66666666--|X2
|-5555555555555555-4444444444444444-8888888888888888-77777777-44444444--|
|-----------------------------------8888888888888888-77777777-----------|
  ................ ................ ................ ........ ........

Guitar 2:
|----------------------|
|----------------------|
|-77----99---1010----99|
|-xx----xx---x--x----xx|
|-55----77---8--8----77|
|----------------------|x4


Pre-Chorus
|--------------------------------------------|
|--------------------------------------------|
|--------------------------------------------|
|-5555-7777-8888-1010101010101010-1010-1111--|
|-5555-7777-8888-1010101010101010-1010-1111--|
|-5555-7777-8888-1010101010101010-1010-1111--|
                                      .   .
Chorus

Guitar 1:
|-----------------------------------------------------------------------|
|-----------------------------------------------------------------------|
|-----------------------------------------------------------------------|
|-7777777777777777-6666666666666666---------------------------66666666--|X2
|-5555555555555555-4444444444444444-8888888888888888-77777777-44444444--|
|-----------------------------------8888888888888888-77777777-----------|

Guitar 2:
|---------------------------------------------|
|---------------------------------------------|
|-7--12--10--6--10--9--12--14--12----14---10--|
|-x--x---x---x--x---x--x---x----x----x-----x--|X2 Strummed
|-5--10--8---4--8---7--10--12--10----12----8--|
|---------------------------------------------|

Verse
|-------|
|-------|
|-------|
|-------|
|-1212--|
|-1212--|

Guitar 1:
|-----------------------------------------------------------------------|
|-----------------------------------------------------------------------|
|-----------------------------------------------------------------------|
|-7777777777777777-6666666666666666---------------------------66666666--|X2
|-5555555555555555-4444444444444444-8888888888888888-77777777-44444444--|
|-----------------------------------8888888888888888-77777777-----------|
  ................ ................ ................ ........ ........

Guitar 2:
|----------------------|
|----------------------|
|-77----99---1010----99|
|-xx----xx---x--x----xx|
|-55----77---8--8----77|
|----------------------|x4

Pre-Chorus
|--------------------------------------------|
|--------------------------------------------|
|--------------------------------------------|
|-5555-7777-8888-1010101010101010-1010-1111--|
|-5555-7777-8888-1010101010101010-1010-1111--|
|-5555-7777-8888-1010101010101010-1010-1111--|

Chorus

Guitar 1:
|-----------------------------------------------------------------------|
|-----------------------------------------------------------------------|
|-----------------------------------------------------------------------|
|-7777777777777777-6666666666666666---------------------------66666666--|X2
|-5555555555555555-4444444444444444-8888888888888888-77777777-44444444--|
|-----------------------------------8888888888888888-77777777-----------|


Guitar 2:
|---------------------------------------------|
|---------------------------------------------|
|-7--12--10--6--10--9--12--14--12----14---10--|
|-x--x---x---x--x---x--x---x----x----x-----x--|X2 Strummed
|-5--10--8---4--8---7--10--12--10----12----8--|
|---------------------------------------------|

|-----------|
|-----------|
|-----------|
|-7~3~5~2~--|
|-----------|
|-----------|


|-----------------------------------|
|-----------------------------------|
|-12121212-5555555-1010101010101010-|
|-x-x-x-x--xxxxxxx-x-x-x-x-x-x-x-x--|
|-10101010-3333333-8-8-8-8-8-8-8-8--|
|-----------------------------------|


(Guitar 2)
|------------------------------------------------------------------------|
|------------------------------------------------------------------------|
|------------------------------------------------------------------------|
|-5555555555555555-7777777777777777-8888888888888888-101010101010101010--|
|-5555555555555555-7777777777777777-8888888888888888-101010101010101010--|
|-5555555555555555-7777777777777777-8888888888888888-101010101010101010--|

|------------------------------------|
|------------------------------------|
|------------------------------------|
|-5555555555555555-7777777777777777--|
|-5555555555555555-7777777777777777--|
|-5555555555555555-7777777777777777--|


Pre-Chorus
|----------------------------------------------------------|
|----------------------------------------------------------|
|----------------------------------------------------------|
|-7777777777777777-6666666666666666------------------9~~~--|
|-5555555555555555-4444444444444444-8888888888888888-x-----|
|-----------------------------------8888888888888888-7~~~--|

Chorus

Guitar 1:
|-----------------------------------------------------------------------|
|-----------------------------------------------------------------------|
|-----------------------------------------------------------------------|
|-7777777777777777-6666666666666666---------------------------66666666--|X2
|-5555555555555555-4444444444444444-8888888888888888-77777777-44444444--|
|-----------------------------------8888888888888888-77777777-----------|


Guitar 2:
|---------------------------------------------|
|---------------------------------------------|
|-7--12--10--6--10--9--12--14--12----14---10--|
|-x--x---x---x--x---x--x---x----x----x-----x--|X2 Strummed
|-5--10--8---4--8---7--10--12--10----12----8--|
|---------------------------------------------|

Okay, now, the sweeping solo is done in A flat major.

|---------15-18p15---------------------15-18p15--------------------|
|------15------------15---------------15-----------15--------------|
|----15------------------15---------15----------------15-----------|
|-17---------------------------17--------------------------17------|
|------------------------------------------------------------------|
|------------------------------------------------------------------|


|---------12-13p12---------------------12-13p12---------------------|
|------13------------13---------------13-----------13---------------|
|----14------------------13---------14----------------14------------|
|-15---------------------------15-------------------------15--------|
|-------------------------------------------------------------------|
|-------------------------------------------------------------------|

Outro
|----------------|
|----------------|
|----------------|
|-7~3~5~2~~~~~---|
|-7~3~5~2~~~~~---|
|-7~3~5~2~~~~~---|




4. The Guillotine

Intro: 

D|------------------------------------------|
A|------------------------------------------|
F|------------------------------------------|
C|-----4~-------------------4~--------------|
G|-----4~-------------------4~--------------|
C|-----4~-------------------4~--------------|

D|-----2--5-2------2--------2--5-2-----2----|
A|------------2-5------------------2-5---2--| 
F|------------------------------------------| 
C|------------------------------------------|
G|------------------------------------------|
C|------------------------------------------| 





D|------------------------------------------|
A|------------------------------------------|
F|------------------------------------------|
C|-----0~-------------------0~--------------|
G|-----0~-------------------0~--------------|
C|-----0~-------------------0~--------------|

D|-----2--5-2------2--------2--5-2-----2----|
A|------------2-5------------------2-5---2--| 
F|------------------------------------------| 
C|------------------------------------------|
G|------------------------------------------|
C|------------------------------------------| 





Verse: Play whole thing 4 times.

D|-----------------------------------|
A|-----------------------------------|
F|-----------------------------------|
C|-----------------------------------|
G|-----------------------------------|
C|--4-4-4-4-4-4-4-4-4-4-4-4-4-4-4-4--|

PM  . . . . . . . . . . . . . . . . 

D|-----------------------------------|
A|-----------------------------------| 
F|-----------------------------------| 
C|-----------------------------------|
G|----------4-----5-----7---5---4-0--|
C|--4-4-4-4---4-4---4-4---4---4------| 

PM: . . . .   . .   . .   .   . 





D|-----------------------------------|
A|-----------------------------------|
F|-----------------------------------|
C|-----------------------------------|
G|-----------------------------------|
C|--0-0-0-0-0-0-0-0-2-2-2-2-2-2-2-2--|

PM  . . . . . . . . . . . . . . . . 

D|-----------------------------------|
A|-----------------------------------| 
F|-----------------------------------| 
C|-----------------------------------|
G|----------5-4---7---7-9------------|
C|--0-0-0-0-----------------4-7-4-6--| 

PM: . . . .    





Pre-Chorus:

D|-------------------------------------------|
A|-------------------------------------------|
F|-------------------------------------------|
C|-------------------------------------------|
G|--000---222---222-222-444---777---222-222--|
C|--000---222---222-222-444---777---222-222--|

PM  ...   ...   ... ... ...   ...   ... ...

D|-------------------------------------------|
A|-------------------------------------------|
F|-------------------------------------------|
C|-------------------------------------------|
G|--000---222---222-222-444---777---222-222--|
C|--000---222---222-222-444---777---222-222--|

PM  ...   ...   ... ... ...   ...   ... ...


    


D|-------------------------------------|
A|-------------------------------------|
F|-------------------------------------|
C|-------------------------------------|
G|--000--------------------------------|
C|--000--------------------------------|

PM  ...   

D|-------------------------------------|
A|-------------------------------------|
F|-------------------------------------|
C|-----7-0-6-0-4-0-9h11p9-7-0-6-0-4-0--|
G|-------------------------------------|
C|-------------------------------------|





D|-----------------------------------|
A|-----------------------------------|
F|-----------------------------------|
C|-----------------------------------|
G|--222------------222------222------|
C|--222------------222------222------|

PM  ...            ...      ...  

D|-----------------------------------|
A|-----------------------------------|
F|-----------------------------------|
C|-----7-0-6-0-4-0-11-0-9-0-7-0-6-0--|
G|-----------------------------------|
C|-----------------------------------|





D|----------------------------------|
A|----------------------------------|
F|----------------------------------|
C|----------------------------------|
G|--444-----------------------------|
C|--444-----------------------------|

PM  ...                   

D|----------------------------------|
A|----------------------------------|
F|----------------------------------|
C|-----7-0-6-0-4-0-2-0-4-0-7-0-6-0--|
G|----------------------------------|
C|----------------------------------|





D|-----------------------------------|
A|-----------------------------------|
F|-----------------------------------|
C|-----------------------------------|
G|--777------------222------222------|
C|--777------------222------222------|

PM  ...            ...      ...  

D|-----------------------------------|
A|-----------------------------------|
F|-----------------18-------16-------|
C|-----7-0-6-0-4-0-x--------x--------|
G|-----------------16-------14-------|
C|-----------------------------------|





Chorus:

D|--------------------------|
A|--------------------------|
F|--------------------------|
C|--0--0--0--0--0--0--0--0--|
G|--0--0--0--0--0--0--0--0--|
C|--0--0--0--0--0--0--0--0--|  

D|--------------------------|
A|--------------------------|
F|--14-14-14-13-13-13-9-9---|
C|--x--x--x--x--x--x--x-x---|
G|--12-12-12-11-11-11-7-7---|
C|--------------------------|





D|--------------------------|
A|--------------------------|
F|--------------------------|
C|--2--2--2--2--2--2--2--2--|
G|--2--2--2--2--2--2--2--2--|
C|--2--2--2--2--2--2--2--2--|  

D|--------------------------|
A|--------------------------|
F|--14-14-14-13-13-13-9-9---|
C|--x--x--x--x--x--x--x-x---|
G|--12-12-12-11-11-11-7-7---|
C|--------------------------|





D|----------------------------|
A|----------------------------|
F|----------------------------|
C|--4-4-4-4-4-4-4-4-4-4-4-4---|
G|--4-4-4-4-4-4-4-4-4-4-4-4---|
C|--4-4-4-4-4-4-4-4-4-4-4-4---|  

D|----------------------------|
A|----------------------------|
F|--9-9-9-9-9-11-11-11-11-11--|
C|--x-x-x-x-x-x--x--x--x--x---|
G|--7-7-7-7-7-9--9--9--9--9---|
C|----------------------------|





D|--------------------------|
A|--------------------------|
F|--------------------------|
C|--0--0--0--0--0--0--0--0--|
G|--0--0--0--0--0--0--0--0--|
C|--0--0--0--0--0--0--0--0--|  

D|--------------------------|
A|--------------------------|
F|--14-14-14-13-13-13-9-9---|
C|--x--x--x--x--x--x--x-x---|
G|--12-12-12-11-11-11-7-7---|
C|--------------------------|





D|--------------------------|
A|--------------------------|
F|--------------------------|
C|--2--2--2--2--2--2--2--2--|
G|--2--2--2--2--2--2--2--2--|
C|--2--2--2--2--2--2--2--2--|  

D|--------------------------|
A|--------------------------|
F|--14-14-14-13-13-13-9-9---|
C|--x--x--x--x--x--x--x-x---|
G|--12-12-12-11-11-11-7-7---|
C|--------------------------|





D|----------------------------|
A|----------------------------|
F|----------------------------|
C|--4-4-4-4-4-4-4-4-4-4-4-4---|
G|--4-4-4-4-4-4-4-4-4-4-4-4---|
C|--4-4-4-4-4-4-4-4-4-4-4-4---|  

D|----------------------------|
A|----------------------------|
F|--9-9-9-9-9-11-11-11-11-11--|
C|--x-x-x-x-x-x--x--x--x--x---|
G|--7-7-7-7-7-9--9--9--9--9---|
C|----------------------------|





D|---------------------------------------|
A|---------------------------------------|
F|---------------------------------------|
C|--7-7-7-7-7-7-7-9-9-9-9-9-9-9-9--------|
G|--7-7-7-7-7-7-7-9-9-9-9-9-9-9-9-0-0-0--|
C|--7-7-7-7-7-7-7-9-9-9-9-9-9-9-9-0-0-0--|  

PM:                               . . .

D|---------------------------------------|
A|---------------------------------------|
F|--14-14-14-14-14-16-16-16-16-16--------|
C|--x--x--x--x--x--x--x--x--x--x---------|
G|--12-12-12-12-12-14-14-14-14-14-0-0-0--|
C|--------------------------------0-0-0--|

PM:                               . . .





D|----------------------------|
A|----------------------------|
F|----------------------------|
C|--2-2-2-2-2-0-0-0-0-0-0-0---|
G|--2-2-2-2-2-0-0-0-0-0-0-0---|
C|--2-2-2-2-2-0-0-0-0-0-0-0---|  

D|----------------------------|
A|----------------------------|
F|--9-9-9-9-9-11-11-11-11-11--|
C|--x-x-x-x-x-x--x--x--x--x---|
G|--7-7-7-7-7-9--9--9--9--9---|
C|----------------------------|





D|--------------------------|
A|--------------------------|
F|--------------------------|
C|--0--0--0--0--0--0--0--0--|
G|--0--0--0--0--0--0--0--0--|
C|--0--0--0--0--0--0--0--0--|  

D|--------------------------|
A|--------------------------|
F|--14-14-14-13-13-13-9-9---|
C|--x--x--x--x--x--x--x-x---|
G|--12-12-12-11-11-11-7-7---|
C|--------------------------|





D|--------------------------|
A|--------------------------|
F|--------------------------|
C|--2--2--2--2--2--2--2--2--|
G|--2--2--2--2--2--2--2--2--|
C|--2--2--2--2--2--2--2--2--|  

D|--------------------------|
A|--------------------------|
F|--14-14-14-13-13-13-9-9---|
C|--x--x--x--x--x--x--x-x---|
G|--12-12-12-11-11-11-7-7---|
C|--------------------------|

Repeat Verse, Pre-Chorus, and Chorus then:

D|------------------------------------------|
A|------------------------------------------|
F|------------------------------------------|
C|-----4~-------------------4~--------------|
G|-----4~-------------------4~--------------|
C|-----4~-------------------4~--------------|

D|-----2--5-2------2--------2--5-2-----2----|
A|------------2-5------------------2-5---2--| 
F|------------------------------------------| 
C|------------------------------------------|
G|------------------------------------------|
C|------------------------------------------| 





D|------------------------------------------|
A|------------------------------------------|
F|------------------------------------------|
C|-----0~-------------------0~--------------|
G|-----0~-------------------0~--------------|
C|-----0~-------------------0~--------------|

D|-----2--5-2------2--------2--5-2-----2----|
A|------------2-5------------------2-5---2--| 
F|------------------------------------------| 
C|------------------------------------------|
G|------------------------------------------|
C|------------------------------------------| 

(Repeat whole thing 3 times)

Solo:

D|-------------------------|
A|-------------------------|
F|-------------------------|
C|--7-7-7-7-7-7-7-7-7-7-7--|
G|--7-7-7-7-7-7-7-7-7-7-7--|
C|--7-7-7-7-7-7-7-7-7-7-7--|

D|--12---------------------|
A|--15b17--12-------15b17--| 
F|------------14-13--------| 
C|-------------------------|
G|-------------------------|
C|-------------------------| 





D|-------------------------|
A|-------------------------|
F|-------------------------|
C|--6-6-6-6-6-6-6-6-6-6-6--|
G|--6-6-6-6-6-6-6-6-6-6-6--|
C|--6-6-6-6-6-6-6-6-6-6-6--|

D|---------------12b14-12--|
A|-------------------------| 
F|-------------------------| 
C|-------------------------|
G|-------------------------|
C|-------------------------| 





D|-------------------------|
A|-------------------------|
F|-------------------------|
C|--4-4-4-4-4-4-4-4-4-4-4--|
G|--4-4-4-4-4-4-4-4-4-4-4--|
C|--4-4-4-4-4-4-4-4-4-4-4--|

D|--16--17--19--16--17-----|
A|---------------------17--| 
F|-------------------------| 
C|-------------------------|
G|-------------------------|
C|-------------------------| 





D|-------------------------|
A|-------------------------|
F|-------------------------|
C|--0-0-0-0-0-0-0-0-0-0-0--|
G|--0-0-0-0-0-0-0-0-0-0-0--|
C|--0-0-0-0-0-0-0-0-0-0-0--|

D|-------------------------|
A|-------------------------| 
F|--16--14-----------------| 
C|----------14-------------|
G|--------------14---------|
C|------------------14\----| 





D|-------------------------|
A|-------------------------|
F|-------------------------|
C|--7-7-7-7-7-7-7-7-7-7-7--|
G|--7-7-7-7-7-7-7-7-7-7-7--|
C|--7-7-7-7-7-7-7-7-7-7-7--|

D|-------------------------------------------------|
A|-------------------------------------------------| 
F|-----------5h7h8-----------7h9h10----------------| 
C|------5h7h8----------7h9h10-------------9h11h12--|
G|-5h7h8---------7h9h10------------9h11h12---------|
C|-------------------------------------------------| 





D|-------------------------|
A|-------------------------|
F|-------------------------|
C|--6-6-6-6-6-6-6-6-6-6-6--|
G|--6-6-6-6-6-6-6-6-6-6-6--|
C|--6-6-6-6-6-6-6-6-6-6-6--|

D|--------------------------------------------------------------------|
A|--------------------------------------------------------------------| 
F|--9h11h12----------------11h13h14----------------13h14h16-13h14h16--| 
C|-----------------11h13h14----------------13h15h16-------------------|
G|---------11h13h14----------------13h15h16---------------------------|
C|--------------------------------------------------------------------| 





D|-------------------------|
A|-------------------------|
F|-------------------------|
C|--4-4-4-4-4-4-4-4-4-4-4--|
G|--4-4-4-4-4-4-4-4-4-4-4--|
C|--4-4-4-4-4-4-4-4-4-4-4--|

D|-------------------------|
A|--12b14r12--10--10-------| 
F|-------------------------| 
C|-------------------------|
G|-------------------------|
C|-------------------------|





D|-------------------------|
A|-------------------------|
F|-------------------------|
C|--0-0-0-0-0-0-0-0-0-0-0--|
G|--0-0-0-0-0-0-0-0-0-0-0--|
C|--0-0-0-0-0-0-0-0-0-0-0--|

D|----------------17-----16-----|
A|--12b14r12--10--20b22--19b21--| 
F|------------------------------| 
C|------------------------------|
G|------------------------------|
C|------------------------------| 

Repeat Chorus and play a slowed down
Pre-Chorus until song fades out.




5. Reverse This Curse

Guitar 1- Intro

D ----------------------------------------------------------------|
A ----------------------------------------------------------------|
F ----------------------------------------------------------------|
C -7--7-7-7-7-7-7-7-7-7-7-7-7-7-7--6--6-6-6-6-6-6-6-6-6-6-6-6-6-6-|
G -5--5-5-5-5-5-5-5-5-5-5-5-5-5-5--4--4-4-4-4-4-4-4-4-4-4-4-4-4-4-|
C ----------------------------------------------------------------|
      . . . . . . . . . . . . . .     . . . . . . . . . . . . . .

D ----------------------------------------------------------------|
A ----------------------------------------------------------------|
F ----------------------------------------------------------------|
C -7--7-7-7-7-7-7-7-7-7-7-7-7-7-7--6--6-6-6-6-6-6-6-6-6-6-6-6-6-6-|
G -5--5-5-5-5-5-5-5-5-5-5-5-5-5-5--4--4-4-4-4-4-4-4-4-4-4-4-4-4-4-|
C ----------------------------------------------------------------|
      . . . . . . . . . . . . . .     . . . . . . . . . . . . . .

Guitar 2- Intro
 ----------------------------------------------------------------|
 ------------------------------------------15--------------------|
 ----------------------------------------------------------------|
 ----------------------------------------12--12-11-8-4-8---------|
 ----------------------------------------------------------------|
 ----------------------------------------------------------------|

Guitar 1- Verse           (10s not 1 and 0) (= play second time only
D --------------------------------------------------------------------|
A --------------------------------------------------------------------|
F --------------------------------------------------------------------|
C -7777777777777777-3333333333333333-10101010101010101010101010101010-|
G -7777777777777777-3333333333333333-10101010101010101010101010101010-|
C -7777777777777777-3333333333333333-10101010101010101010101010101010-|

D -------------------------------------------------------------------|
A -------------------------------------------------------------------|
F -------------------------------------------------------------------|
C 9999999-2222-5555-(7)----------------------------------------------|
G 9999999-2222-5555-(7)----------------------------------------------|
C 9999999-2222-5555-(7)----------------------------------------------|


Guitar 2- Verse ( another way to play 2 )
                                      x
                                      0
Eb ----------------------------------------------------------------|
Bb ----------------------------------------------------------------|
Gb -2222-------4444-555-------------------9999-10101010------------|
Db -xxxx(7777)-xxxx-xxx-----3333-5555-777-xxxx-x-x-x-x-------------|
Ab -0000(xxxx)-2222-333-----xxxx-xxxx-xxx-7777-8-8-8-8-------------|
Db -----(5555)--------------1111-3333-555--------------------------|

Guitar 2- Fill

Eb ------------------|
Bb ------------------|
Gb ------------------|
Db --9----10----12---|
Ab ---7-----7--------|
Db -9---10----11--12-|

Guitar 1+2- Verse2

D ----------------------------------------------------------------------|
A ----------------------------------------------------------------------|
F ----------------------------------------------------------------------|
C 7777777777777777-0000000000000000-22222222-5555-----------------------|
G 7777777777777777-0000000000000000-22222222-5555--55332200-------------|
C 7777777777777777-0000000000000000-22222222-5555----------5533~--------|
  ................ ................ ........ ....

Guitar 1- After Verse Thing

D ----------------------------------------------------------------------|
A ----------------------------------------------------------------------|
F -1212121212121212---12121212121212---14141414141414---17171717171717--|
C -x-x-x-x-x-x-x-x--0-x-x-x-x-x-x-x--0-x-x-x-x-x-x-x--0-x-x-x-x-x-x-x---|
G -1010101010101010-0-10101010101010-0-14141414141414-0-15151515151515--|
C ------------------0----------------0----------------0-----------------|
                    .                .                .
D -----------------------------------------------------------------------|
A -----------------------------------------------------------------------|
F -1212121212121212---12121212121212-------------------------------------|
C -x-x-x-x-x-x-x-x--0-x-x-x-x-x-x-x--22222222-3-0------------------------|
G -1010101010101010-0-10101010101010-22222222-3-0------------------------|
C ------------------0----------------22222222-3-0------------------------|
                                     ........   .
Guitar 1- Chorus
D -------------------------------------------------------------|
A -------------------------------------------------------------|
F -------------------------------------------------------------|
C -77777777-33333333-1010101010101010-9999-22-55---------------|
G -77777777-33333333-1010101010101010-9999-22-55---------------|
C -77777777-33333333-1010101010101010-9999-22-55---------------|

Guitar 2- Chorus
Eb -------------------------------------------------------------|
Bb -------------------------------------------------------------|
Gb ------------------5\7\9\10/55555577--------------------------|
Db ------------------x\x\x\x-/xxxxxxxx--------------------------|
Ab ------------------3\5\7\8-/33333355--------------------------|
Db -------------------------------------------------------------|

Eb -------------------------------------------------------------|
Bb -------------------------------------------------------------|
Gb ------------------14-9-7-55\14-9-7--5\7\9\10/55555577--------|
Db ------------------x--x-x-xx\x--x-x--x\x\x\x-/xxxxxxxx--------|
Ab ------------------12-7-5-33\12-7-5--3\5\7\8-/33333355--------|
Db -------------------------------------------------------------|

Guitar 1 or 2- After Chorus Fill Thing
Eb -------------------------------------------------------------|
Bb -------------------------------------------------------------|
Gb -5555555555555555--------------------------------------------|
Db -xxxxxxxxxxxxxxxx--------------------------------------------|
Ab -3333333333333333--------------------------------------------|
Db -------------------------------------------------------------|
    ................

Guitar 2-(first part of the)Breakdown or Bridge (first time is some weird phaser but clean)
                              (second time is distortion with phaser)
Eb --------------------------------------------------------------|
Bb --------------------------------------------------------------|
Gb --------------------------------------------------------------|
Db -77777777-1010101010101010-99999999-12121212-1010-99----------|
Ab -xxxxxxxx-x-x-x-x-x-x-x-x--xxxxxxxx-x-x-x-x--x-x--xx----------|
Db -55555555-8-8-8-8-8-8-8-8--77777777-10101010-8-8--77----------|

Guitar 1- (second part of the)Breakdown or Bridge
(I had a hard time hearing this one)
D ----------------------------------------------------------------|
A ----------------------------------------------------------------|
F ----------------------------------------------------------------|
C -33333333-55555555-77777777-000000-22---------------------------|
G -33333333-55555555-77777777-000000-22---------------------------|
C -33333333-55555555-77777777-000000-22---------------------------|

Guitar 2- (second part of the) Breakdown or Bridge()=dont play every first time, i dont 
how many times you play it.
Eb -----------------------------------------------------------------|
Bb -----------------------------------------------------------------|
Gb -55555555-77777777-99999999-(77777777)5555-7777------------------|
Db -xxxxxxxx-xxxxxxxx-xxxxxxxx-(xxxxxxxx)xxxx-xxxx
Ab -33333333-55555555-77777777-(55555555)3333-5555------------------|
Db -----------------------------------------------------------------|

Theres a third guitar in here somewhere that I cant hear too well.

Guitar 1- Modified Chorus()=dont play until second time
D ------------------------------------------------------------------------|
A ------------------------------------------------------------------------|
F ------------------------------------------------------------------------|
C 77---33---(77/)1010101010101010-9999-22-55------------------------------|
G 77---33---(77/)1010101010101010-9999-22-55------------------------------|
C 77---33---(77/)1010101010101010-9999-22-55------------------------------|

Guitar 2- Modified Chorus(same thing as normal)
Eb -------------------------------------------------------------|
Bb -------------------------------------------------------------|
Gb ------------------5\7\9\10/55555577--------------------------|
Db ------------------x\x\x\x-/xxxxxxxx--------------------------|
Ab ------------------3\5\7\8-/33333355--------------------------|
Db -------------------------------------------------------------|

Eb -------------------------------------------------------------|
Bb -------------------------------------------------------------|
Gb ------------------14-9-7-55\14-9-7--5\7\9\10/55555577--------|
Db ------------------x--x-x-xx\x--x-x--x\x\x\x-/xxxxxxxx--------|
Ab ------------------12-7-5-33\12-7-5--3\5\7\8-/33333355--------|
Db -------------------------------------------------------------|

Guitar 1- Chorus
D -------------------------------------------------------------|
A -------------------------------------------------------------|
F -------------------------------------------------------------|
C -77777777-33333333-1010101010101010-9999-22-55---------------|
G -77777777-33333333-1010101010101010-9999-22-55---------------|
C -77777777-33333333-1010101010101010-9999-22-55---------------|

Guitar 2- Chorus
Eb -------------------------------------------------------------|
Bb -------------------------------------------------------------|
Gb ------------------5\7\9\10/55555577--------------------------|
Db ------------------x\x\x\x-/xxxxxxxx--------------------------|
Ab ------------------3\5\7\8-/33333355--------------------------|
Db -------------------------------------------------------------|

Eb -------------------------------------------------------------|
Bb -------------------------------------------------------------|
Gb ------------------14-9-7-55\14-9-7--5\7\9\10/55555577--------|
Db ------------------x--x-x-xx\x--x-x--x\x\x\x-/xxxxxxxx--------|
Ab ------------------12-7-5-33\12-7-5--3\5\7\8-/33333355--------|
Db -------------------------------------------------------------|

Guitar 1- Outro (light distortion) ()=play second time only instead of the riff before 
do you know what I mean?
D ----------------------------------------------------------------|
A ----------------------------------------------------------------|
F ----------------------------------------------------------------|
C -7--7-7-7-3--3-3-3-5--5-5-5-6(10--10-10-10-7)-2-55-(7~)---------|
G -7--7-7-7-3--3-3-3-5--5-5-5-6(10--10-10-10-7)-2-55-(7~)---------|
C -7--7-7-7-3--3-3-3-5--5-5-5-6(10--10-10-10-7)-2-55-(7~)---------|
                                                . ..



6. Cellar Door

Verse 
(No guitar 2 throughout verses)
Guitar 1 - Clean
e-----------------|  |-------------------|  
B-----6---6---6---|  |----5h6------6p5---|  
G--------------5--|  |---------5-------5-|  
D--7----5---5---5-|  |--5--------5-------|  
A-5---------------|x2|-3-----------------|x2
E-----------------|  |-------------------|  

(If that's^ wrong, part 1 is based on D minor 
and part 2 is based on C major)

Repeat verse

Pre-chorus
Guitar 1
e----------------------------------------|
B----------------------------------------|
G----------------------------------------|
D-33333333-222222222-333333333-555555555-|
A-11111111-000000000-111111111-333333333-|
E----------------------------------------|

Guitar 2
e-------13-13--12-12--15-15-|  
B-15-15---------------------|  
G---------------------------|  
D---------------------------|  
A---------------------------|x3
E---------------------------|  
(continued)
e-------13-13--12-12-15-15-15-15-15-15-15-15b17-|
B-15-15-----------------------------------------|
G-----------------------------------------------|
D-----------------------------------------------|
A-----------------------------------------------|
E-----------------------------------------------|

Chorus
Guitar 1
e-----------------------------------|
B-----------------------------------|
G-----------------------------------|
D-7777777777777777-3333333333333333-|
A-5555555555555555-1111111111111111-|
E-----------------------------------|
(continued)
e------------------------------------|  |----|
B------------------------------------|  |----|
G------------------------------------|  |----|
D-2222222222222222-55555555-77777777-|  |-7~-|
A-0000000000000000-33333333-44444444-|x2|-5~-|
E------------------------------------|  |----|

Guitar 2
e-----------------------------------|  |-----|
B-15(x8)-13(x8)-------13(x4)-14(x4)-|  |-15~-|
G---------------14(x8)--------------|  |-----|
D-----------------------------------|  |-----|
A-----------------------------------|x2|-----|
E-----------------------------------|  |-----|

^^^Repeat all of the above^^^

Bridge
Guitar 1
e-------------------|  |----------------------------|
B-------------------|  |----------------------------|
G-------------------|  |----------------------------|
D-55555555-77777777-|  |-55555555-22222222-55555555-|
A-55555555-55555555-|x4|-55555555-00000000-33333333-|
E-33333333----------|  |-33333333-------------------|

Guitar 2
e-13-13-12-12-----12-12-12-15-15-15-15-15-|
B-------------13~-------------------------|
G-----------------------------------------|
D-----------------------------------------|
A-----------------------------------------|x5
E-----------------------------------------|

Play chorus x2
Second time through the chorus guitar 2 changes to
e----------------|  |----------|--------------|
B----------------|  |----------|--------------|
G----------12-14-|  |-12-------|--------------|
D-12-14-15-------|  |----15-14-|-14b15r14-12~-|
A----------------|x3|----------|--------------|
E----------------|  |----------|--------------|
          (tremelo picking)     (^this part x4)




7. There's No Sympathy for The Dead

 PM PM PM PM PM                         PM PM PM PM PM  
     T  T  S  S  S     E.  E  S S S S S S S T  T  S  S  S   
D||-----------------|--------------------------------------|
A||-----------------|--------------------------------------|
F||-----------------|--------------------------------------|
C||-----------------|--0---3--3-2--------------------------|
G||--0--0--0--0--0--|--0------------3---3-5-0--0--0--0--0--|
C||--0--0--0--0--0--|--0--------------------0--0--0--0--0--|


                       PM PM PM PM PM                         PM PM PM PM PM  
  E.  E  S S S S S S S T  T  S  S  S     E.  E  S S S S S S S T  T  S  S  S   
--------------------------------------|--------------------------------------|
--------------------------------------|--------------------------------------|
--------------------------------------|--------------------------------------|
--0---3--3-2--------------------------|--0---3--3-2--------------------------|
--0------------3---3-5-0--0--0--0--0--|--0------------3---3-5-0--0--0--0--0--|
--0--------------------0--0--0--0--0--|--0--------------------0--0--0--0--0--|


                                        PM                     
  E.  E  S S S S S S S S S S S    E  E  S  S S E.  E  S S S S  
-------------------------------|------------------------------|
-------------------------------|------------------------------|
-------------------------------|------------------------------|
--0---3--3-2-------------3-2---|--0--0-----0---0---0--0-0-0-0-|
--0------------3---3-5-------3-|--0--0--0--0---0---0--0-0-0-0-|
--0----------------------------|--0--0--0--0---0---0--0-0-0-0-|


        PM                             PM                     
  E  E  S  S S E.  E  S S S S    E  E  S  S S E.  E  S S S S  
------------------------------|------------------------------|
------------------------------|------------------------------|
--3--3-----3---5---5--5-5-5-5-|------------------------------|
--3--3--3--3---5---5--5-5-5-5-|--0--0-----0---0---0--0-0-0-0-|
--1--1--1--1---3---3--3-3-3-3-|--0--0--0--0---0---0--0-0-0-0-|
------------------------------|--0--0--0--0---0---0--0-0-0-0-|


        PM                             PM                     
  E  E  S  S S E.  E  S S S S    E  E  S  S S E.  E  S S S S  
------------------------------|------------------------------|
------------------------------|------------------------------|
--3--3-----3---5---5--5-5-5-5-|------------------------------|
--3--3--3--3---5---5--5-5-5-5-|--0--0-----0---0---0--0-0-0-0-|
--1--1--1--1---3---3--3-3-3-3-|--0--0--0--0---0---0--0-0-0-0-|
------------------------------|--0--0--0--0---0---0--0-0-0-0-|


        PM                             PM                     
  E  E  S  S S E.  E  S S S S    E  E  S  S S E.  E  S S S S  
------------------------------|------------------------------|
------------------------------|------------------------------|
--3--3-----3---5---5--5-5-5-5-|------------------------------|
--3--3--3--3---5---5--5-5-5-5-|--0--0-----0---0---0--0-0-0-0-|
--1--1--1--1---3---3--3-3-3-3-|--0--0--0--0---0---0--0-0-0-0-|
------------------------------|--0--0--0--0---0---0--0-0-0-0-|


        PM     PM PM PM PM    PM PM     
  E  E  S  S S T  T  S  S  E  S  S  E   
---------------------------------------|
---------------------------------------|
--3--3-----3---------------------------|
--3--3--3--3---------------5--------3--|
--1--1--1--1---0--0--0--0--5--0--0--3--|
---------------0--0--0--0--5--0--0--3--|


     PM PM PM PM PM PM PM PM PM PM PM        
  E  S  S  S  S  S  S  S  S  S  S  S  S S S  
--------------------------------------------|
--------------------------------------------|
--------------------------------------------|
--0-----------------------------------0---3-|
--0--0--0--0--0--0--0--0--0--0--0--0--0---3-|
--0--0--0--0--0--0--0--0--0--0--0--0--0---3-|


     PM PM PM PM PM PM PM PM PM PM PM        
  E  S  S  S  S  S  S  S  S  S  S  S  S S S  
--------------------------------------------|
--------------------------------------------|
--------------------------------------------|
--L-----------------------------------3---8-|
--L--3--3--3--3--3--3--3--3--3--3--3--3---8-|
--L--3--3--3--3--3--3--3--3--3--3--3--3---8-|


     PM PM PM PM PM PM PM PM PM PM PM        
  E  S  S  S  S  S  S  S  S  S  S  S  S S S  
--------------------------------------------|
--------------------------------------------|
--------------------------------------------|
--L-----------------------------------8---5-|
--L--8--8--8--8--8--8--8--8--8--8--8--8---5-|
--L--8--8--8--8--8--8--8--8--8--8--8--8---5-|


     PM PM PM PM PM      PM PM PM PM PM    
  E  S  S  S  S  S  E  S S  S  S  S  S  S  
------------------------------------------|
------------------------------------------|
------------------------------------------|
--L-----------------7--L----------------0-|
--L--5--5--5--5--5--7--L-7--7--7--7--7--0-|
--L--5--5--5--5--5--7--L-7--7--7--7--7--0-|


     PM PM PM PM PM PM PM PM PM PM PM        
  E  S  S  S  S  S  S  S  S  S  S  S  S S S  
--------------------------------------------|
--------------------------------------------|
--------------------------------------------|
--L-----------------------------------0---3-|
--L--0--0--0--0--0--0--0--0--0--0--0--0---3-|
--L--0--0--0--0--0--0--0--0--0--0--0--0---3-|


     PM PM PM PM PM PM PM PM PM PM PM        
  E  S  S  S  S  S  S  S  S  S  S  S  S S S  
--------------------------------------------|
--------------------------------------------|
--------------------------------------------|
--L-----------------------------------3---8-|
--L--3--3--3--3--3--3--3--3--3--3--3--3---8-|
--L--3--3--3--3--3--3--3--3--3--3--3--3---8-|


     PM PM PM PM PM PM PM PM PM PM PM        
  E  S  S  S  S  S  S  S  S  S  S  S  S S S  
--------------------------------------------|
--------------------------------------------|
--------------------------------------------|
--L-----------------------------------8---5-|
--L--8--8--8--8--8--8--8--8--8--8--8--8---5-|
--L--8--8--8--8--8--8--8--8--8--8--8--8---5-|


     PM PM PM PM PM      PM PM PM PM PM                        
  E  S  S  S  S  S  E  S S  S  S  S  S  S    W                 
------------------------------------------|-------------------|
------------------------------------------|-------------------|
------------------------------------------|-------------------|
--L-----------------7--L----------------8-|--L----------------|
--L--5--5--5--5--5--7--L-7--7--7--7--7--8-|--L----------------|
--L--5--5--5--5--5--7--L-7--7--7--7--7--8-|--L----------------|


  H.           S  S  S  S  
--------------------------|
--------------------------|
--------------------------|
--L------------8-10-10-10-|
--L------------8-10-10-10-|
--L------------8-10-10-10-|


  PM PM PM PM PM PM      PM PM PM PM PM PM PM PM PM PM  
  T  T  S  S  S  S  Q    T  T  S  S  T  T  S  T  T  S   
-------------------------------------------------------|
-------------------------------------------------------|
-------------------------------------------------------|
-------------------------------------------------------|
--0--0--0--0--0--0-------0--0--0--0--0--0--0--0--0--0--|
--0--0--0--0--0--0-------0--0--0--0--0--0--0--0--0--0--|


  PM PM PM PM PM PM      PM PM PM PM PM PM PM PM PM PM                      
  T  T  S  S  S  S  Q    T  T  S  S  T  T  S  T  T  S     W                 
-------------------------------------------------------|-------------------|
-------------------------------------------------------|-------------------|
-------------------------------------------------------|--3----------------|
-------------------------------------------------------|--3----------------|
--0--0--0--0--0--0-------0--0--0--0--0--0--0--0--0--0--|--1----------------|
--0--0--0--0--0--0-------0--0--0--0--0--0--0--0--0--0--|-------------------|


                          PM PM PM PM PM PM      PM PM PM PM PM PM PM PM PM PM  
  H.           S S S S    T  T  S  S  S  S  Q    T  T  S  S  T  T  S  T  T  S   
-----------------------|-------------------------------------------------------|
-----------------------|-------------------------------------------------------|
--L------------3-5-5-5-|-------------------------------------------------------|
--L------------3-5-5-5-|-------------------------------------------------------|
--L------------1-3-3-3-|--0--0--0--0--0--0-------0--0--0--0--0--0--0--0--0--0--|
-----------------------|--0--0--0--0--0--0-------0--0--0--0--0--0--0--0--0--0--|


  PM PM PM PM PM PM      PM PM PM PM PM PM PM PM PM PM  
  T  T  S  S  S  S  Q    T  T  S  S  T  T  S  T  T  S   
-------------------------------------------------------|
-------------------------------------------------------|
-------------------------------------------------------|
-------------------------------------------------------|
--0--0--0--0--0--0-------0--0--0--0--0--0--0--0--0--0--|
--0--0--0--0--0--0-------0--0--0--0--0--0--0--0--0--0--|


  S S S S S S S S S S S S S S S S    S S S S S S S S S S S S S S S S  
----------------------------------|----------------------------------|
----------------------------------|----------------------------------|
--2-2-2-2-2-2-2-2-2-2-2-2-2-2-2-2-|--3-3-3-3-3-3-3-3-3-3-3-3-3-5-5-5-|
--2-2-2-2-2-2-2-2-2-2-2-2-2-2-2-2-|--3-3-3-3-3-3-3-3-3-3-3-3-3-5-5-5-|
--0-0-0-0-0-0-0-0-0-0-0-0-0-0-0-0-|--1-1-1-1-1-1-1-1-1-1-1-1-1-3-3-3-|
----------------------------------|----------------------------------|


  S S S S S S S S S S S S S S S S    S S S S S S S S S S S S S S S   S  
----------------------------------|------------------------------------|
----------------------------------|------------------------------------|
--2-2-2-2-2-2-2-2-2-2-2-2-2-2-2-2-|--3-3-3-3-3-3-3-3----------------17-|
--2-2-2-2-2-2-2-2-2-2-2-2-2-2-2-2-|--3-3-3-3-3-3-3-3-7-5-----5-------x-|
--0-0-0-0-0-0-0-0-0-0-0-0-0-0-0-0-|--1-1-1-1-1-1-1-1-----8-7---8-7~-15-|
----------------------------------|------------------------------------|


  S  S  S  S  S  S S  E   S  S  S  S  S  S  S  
----------------------------------------------|
----------------------------------------------|
--L-17-17-17--x-14---15--15-15-15-15-15-15-15-|
-----x--x--x--x--x----x---x--x--x--x--x--x--x-|
--L-15-15-15--x-12---13--13-13-13-13-13-13-13-|
----------------------------------------------|


   S  S  S  S  S  S S S S S S S S S S  S  
-----------------------------------------|
-----------------------------------------|
--10-10-10-10-10-12---9-L-9-9-9-9-9-9-17-|
---x--x--x--x--x--x---x---x-x-x-x-x-x--x-|
---8--8--8--8--8-10---7-L-7-7-7-7-7-7-15-|
-----------------------------------------|


   E   S  S  S  S S  E   S  S  S  S  S  S  S  
---------------------------------------------|
---------------------------------------------|
---L--17-17--x-14---15--15-15-15-15-15-15-15-|
-------x--x--x--x----x---x--x--x--x--x--x--x-|
---L--15-15--x-12---13--13-13-13-13-13-13-13-|
---------------------------------------------|


   E   S  S  S  S S  S S  S  S  S  S  S  S  S  
----------------------------------------------|
----------------------------------------------|
--14--14-14-14-15---12-L-12-12-12-12-12-12-17-|
---x---x--x--x--x----x----x--x--x--x--x--x--x-|
--12--12-12-12-13---10-L-10-10-10-10-10-10-15-|
----------------------------------------------|


   E   S  S  S  S S  E   S  S  S  S  S  S  S  
---------------------------------------------|
---------------------------------------------|
---L--17-17--x-14---15--15-15-15-15-15-15-15-|
-------x--x--x--x----x---x--x--x--x--x--x--x-|
---L--15-15--x-12---13--13-13-13-13-13-13-13-|
---------------------------------------------|


   S  S  S  S  S  S S S S S S S S S S  S  
-----------------------------------------|
-----------------------------------------|
--10-10-10-10-10-12---9-L-9-9-9-9-9-9-17-|
---x--x--x--x--x--x---x---x-x-x-x-x-x--x-|
---8--8--8--8--8-10---7-L-7-7-7-7-7-7-15-|
-----------------------------------------|


   E   S  S  S  S S  E   S  S  S  S  S  S  S  
---------------------------------------------|
---------------------------------------------|
---L--17-17--x-14---15--15-15-15-15-15-15-15-|
-------x--x--x--x----x---x--x--x--x--x--x--x-|
---L--15-15--x-12---13--13-13-13-13-13-13-13-|
---------------------------------------------|


   E   S  S  S  S S  S S  S  S  S  S  S  S  S  
----------------------------------------------|
----------------------------------------------|
--14--14-14-14-15---12-L-12-12-12-12-12-12-12-|
---x---x--x--x--x----x----x--x--x--x--x--x--x-|
--12--12-12-12-13---10-L-10-10-10-10-10-10-10-|
----------------------------------------------|


   S  S S S  S  S S S  S  S S S  S  S S S  
------------------------------------------|
------------------------------------------|
--10-10-9-9-10-10-9-9-10-10-9-9-10-10-9-9-|
---x--x-x-x--x--x-x-x--x--x-x-x--x--x-x-x-|
---8--8-7-7--8--8-7-7--8--8-7-7--8--8-7-7-|
------------------------------------------|


   S  S  S  S  S  S  S  S  S  S  S  S  S  S  S  S  
--------------------------------------------------|
--------------------------------------------------|
--12-12-10-10-12-12-10-10-12-12-10-10-12-12-10-10-|
---x--x--x--x--x--x--x--x--x--x--x--x--x--x--x--x-|
--10-10--8--8-10-10--8--8-10-10--8--8-10-10--8--8-|
--------------------------------------------------|


        PM                             PM                     
  E  E  S  S S E.  E  S S S S    E  E  S  S S E.  E  S S S S  
------------------------------|------------------------------|
------------------------------|------------------------------|
------------------------------|--3--3-----3---5---5--5-5-5-5-|
--0--0-----0---0---0--0-0-0-0-|--3--3--3--3---5---5--5-5-5-5-|
--0--0--0--0---0---0--0-0-0-0-|--1--1--1--1---3---3--3-3-3-3-|
--0--0--0--0---0---0--0-0-0-0-|------------------------------|


        PM                             PM     PM PM PM PM    PM PM     
  E  E  S  S S E.  E  S S S S    E  E  S  S S T  T  S  S  E  S  S  E   
------------------------------|---------------------------------------|
------------------------------|---------------------------------------|
------------------------------|--3--3-----3---------------------------|
--0--0-----0---0---0--0-0-0-0-|--3--3--3--3---------------5--------3--|
--0--0--0--0---0---0--0-0-0-0-|--1--1--1--1---0--0--0--0--5--0--0--3--|
--0--0--0--0---0---0--0-0-0-0-|---------------0--0--0--0--5--0--0--3--|


  W                   W                   W                   W                 
-------------------|-------------------|-------------------|-------------------|
-------------------|-------------------|-------------------|-------------------|
-------------------|-------------------|-------------------|-------------------|
-------------------|-------------------|-------------------|-------------------|
-------------------|-------------------|-------------------|-------------------|
-------------------|-------------------|-------------------|-------------------|


     PM PM PM PM PM PM PM PM PM PM PM        
  E  S  S  S  S  S  S  S  S  S  S  S  S S S  
--------------------------------------------|
--------------------------------------------|
--------------------------------------------|
--0-----------------------------------0---3-|
--0--0--0--0--0--0--0--0--0--0--0--0--0---3-|
--0--0--0--0--0--0--0--0--0--0--0--0--0---3-|


     PM PM PM PM PM PM PM PM PM PM PM        
  E  S  S  S  S  S  S  S  S  S  S  S  S S S  
--------------------------------------------|
--------------------------------------------|
--------------------------------------------|
--L-----------------------------------3---8-|
--L--3--3--3--3--3--3--3--3--3--3--3--3---8-|
--L--3--3--3--3--3--3--3--3--3--3--3--3---8-|


     PM PM PM PM PM PM PM PM PM PM PM        
  E  S  S  S  S  S  S  S  S  S  S  S  S S S  
--------------------------------------------|
--------------------------------------------|
--------------------------------------------|
--L-----------------------------------8---5-|
--L--8--8--8--8--8--8--8--8--8--8--8--8---5-|
--L--8--8--8--8--8--8--8--8--8--8--8--8---5-|


     PM PM PM PM PM      PM PM PM PM PM                        
  E  S  S  S  S  S  E  S S  S  S  S  S  S    W                 
------------------------------------------|-------------------|
------------------------------------------|-------------------|
------------------------------------------|-------------------|
--L-----------------7--L----------------8-|--L----------------|
--L--5--5--5--5--5--7--L-7--7--7--7--7--8-|--L----------------|
--L--5--5--5--5--5--7--L-7--7--7--7--7--8-|--L----------------|


  H.           S  S  S  S  
--------------------------|
--------------------------|
--------------------------|
--L------------8-10-10-10-|
--L------------8-10-10-10-|
--L------------8-10-10-10-|


  PM PM PM PM PM PM      PM PM PM PM PM PM PM PM PM PM  
  T  T  S  S  S  S  Q    T  T  S  S  T  T  S  T  T  S   
-------------------------------------------------------|
-------------------------------------------------------|
-------------------------------------------------------|
-------------------------------------------------------|
--0--0--0--0--0--0-------0--0--0--0--0--0--0--0--0--0--|
--0--0--0--0--0--0-------0--0--0--0--0--0--0--0--0--0--|


  PM PM PM PM PM PM      PM PM PM PM PM PM PM PM PM PM                      
  T  T  S  S  S  S  Q    T  T  S  S  T  T  S  T  T  S     W                 
-------------------------------------------------------|-------------------|
-------------------------------------------------------|-------------------|
-------------------------------------------------------|--3----------------|
-------------------------------------------------------|--3----------------|
--0--0--0--0--0--0-------0--0--0--0--0--0--0--0--0--0--|--1----------------|
--0--0--0--0--0--0-------0--0--0--0--0--0--0--0--0--0--|-------------------|


                          PM PM PM PM PM PM      PM PM PM PM PM PM PM PM PM PM  
  H.           S S S S    T  T  S  S  S  S  Q    T  T  S  S  T  T  S  T  T  S   
-----------------------|-------------------------------------------------------|
-----------------------|-------------------------------------------------------|
--L------------3-5-5-5-|-------------------------------------------------------|
--L------------3-5-5-5-|-------------------------------------------------------|
--L------------1-3-3-3-|--0--0--0--0--0--0-------0--0--0--0--0--0--0--0--0--0--|
-----------------------|--0--0--0--0--0--0-------0--0--0--0--0--0--0--0--0--0--|


  PM PM PM PM PM PM      PM PM PM PM PM PM PM PM PM PM  
  T  T  S  S  S  S  Q    T  T  S  S  T  T  S  T  T  S   
-------------------------------------------------------|
-------------------------------------------------------|
-------------------------------------------------------|
-------------------------------------------------------|
--0--0--0--0--0--0-------0--0--0--0--0--0--0--0--0--0--|
--0--0--0--0--0--0-------0--0--0--0--0--0--0--0--0--0--|


  S S S S S S S S S S S S S S S S    S S S S S S S S S S S S S S S S  
----------------------------------|----------------------------------|
----------------------------------|----------------------------------|
--2-2-2-2-2-2-2-2-2-2-2-2-2-2-2-2-|--3-3-3-3-3-3-3-3-3-3-3-3-3-5-5-5-|
--2-2-2-2-2-2-2-2-2-2-2-2-2-2-2-2-|--3-3-3-3-3-3-3-3-3-3-3-3-3-5-5-5-|
--0-0-0-0-0-0-0-0-0-0-0-0-0-0-0-0-|--1-1-1-1-1-1-1-1-1-1-1-1-1-3-3-3-|
----------------------------------|----------------------------------|


  S S S S S S S S S S S S S S S S    S S S S S S S S Q    E.   S  
----------------------------------|------------------------------|
----------------------------------|------------------------------|
--2-2-2-2-2-2-2-2-2-2-2-2-2-2-2-2-|--3------------------------17-|
--2-2-2-2-2-2-2-2-2-2-2-2-2-2-2-2-|--3-------------------------x-|
--0-0-0-0-0-0-0-0-0-0-0-0-0-0-0-0-|--1------------------------15-|
----------------------------------|------------------------------|


  S  S  S  S  S  S S  E   S  S  S  S  S  S  S  
----------------------------------------------|
----------------------------------------------|
--L-17-17-17--x-14---15--15-15-15-15-15-15-15-|
-----x--x--x--x--x----x---x--x--x--x--x--x--x-|
--L-15-15-15--x-12---13--13-13-13-13-13-13-13-|
----------------------------------------------|


   S  S  S  S  S  S S S S S S S S S S  S  
-----------------------------------------|
-----------------------------------------|
--10-10-10-10-10-12---9-L-9-9-9-9-9-9-17-|
---x--x--x--x--x--x---x---x-x-x-x-x-x--x-|
---8--8--8--8--8-10---7-L-7-7-7-7-7-7-15-|
-----------------------------------------|


   E   S  S  S  S S  E   S  S  S  S  S  S  S  
---------------------------------------------|
---------------------------------------------|
---L--17-17--x-14---15--15-15-15-15-15-15-15-|
-------x--x--x--x----x---x--x--x--x--x--x--x-|
---L--15-15--x-12---13--13-13-13-13-13-13-13-|
---------------------------------------------|


   E   S  S  S  S S  S S  S  S  S  S  S  S  S  
----------------------------------------------|
----------------------------------------------|
--14--14-14-14-15---12-L-12-12-12-12-12-12-17-|
---x---x--x--x--x----x----x--x--x--x--x--x--x-|
--12--12-12-12-13---10-L-10-10-10-10-10-10-15-|
----------------------------------------------|


   E   S  S  S  S S  E   S  S  S  S  S  S  S  
---------------------------------------------|
---------------------------------------------|
---L--17-17--x-14---15--15-15-15-15-15-15-15-|
-------x--x--x--x----x---x--x--x--x--x--x--x-|
---L--15-15--x-12---13--13-13-13-13-13-13-13-|
---------------------------------------------|


   S  S  S  S  S  S S S S S S S S S S  S  
-----------------------------------------|
-----------------------------------------|
--10-10-10-10-10-12---9-L-9-9-9-9-9-9-17-|
---x--x--x--x--x--x---x---x-x-x-x-x-x--x-|
---8--8--8--8--8-10---7-L-7-7-7-7-7-7-15-|
-----------------------------------------|


   E   S  S  S  S S  E   S  S  S  S  S  S  S  
---------------------------------------------|
---------------------------------------------|
---L--17-17--x-14---15--15-15-15-15-15-15-15-|
-------x--x--x--x----x---x--x--x--x--x--x--x-|
---L--15-15--x-12---13--13-13-13-13-13-13-13-|
---------------------------------------------|


   E   S  S  S  S S  S S  S  S  S  S  S  S  S  
----------------------------------------------|
----------------------------------------------|
--14--14-14-14-15---12-L-12-12-12-12-12-12-12-|
---x---x--x--x--x----x----x--x--x--x--x--x--x-|
--12--12-12-12-13---10-L-10-10-10-10-10-10-10-|
----------------------------------------------|


   S  S  S  S  S  S  S  S  S  S  S  S  S  S  S  S  
--------------------------------------------------|
--------------------------------------------------|
--10-10-10-10-12-12-12-12-14-14-14-14-15-15-15-15-|
---x--x--x--x--x--x--x--x--x--x--x--x--x--x--x--x-|
---8--8--8--8-10-10-10-10-12-12-12-12-13-13-13-13-|
--------------------------------------------------|


   S  S  S  S  S  S  S  S  S  S  S  S  E  E   
---------------------------------------------|
---------------------------------------------|
--17-17-17-17-19-19-19-19-22-22-22-22-21-----|
---x--x--x--x--x--x--x--x--x--x--x--x--x-----|
--15-15-15-15-17-17-17-17-20-20-20-20-19-----|
---------------------------------------------|


   E    E   S S S E  S  S S T   T  T  S  S.  
--------------------------------------------|
--10---10--------------10---8h-10p-8--------|
--12b---L--10-9----------------------10p-9--|
------------------8--8----8-----------------|
--------------------------------------------|
--------------------------------------------|


   S   S  E   T   T  T  S   E.    T   T   T   T  T   T   T  T  S  S. 
---------------------------------12h-13p-12p-10---------------------|
------------------------------------------------13p-12p-10----------|
---------10~--9h-10p-9-------------------------------------12-10-12-|
--10h-12---------------12p-10~--------------------------------------|
--------------------------------------------------------------------|
--------------------------------------------------------------------|


   E   S  S  T   T   T  S  E   S  S  S  T   T   T  S   S  S  
------------15h-17p-15-----------20----17h-18p-17-----------|
--10--10-10------------17-18--18----18------------20p-18-18-|
------------------------------------------------------------|
------------------------------------------------------------|
------------------------------------------------------------|
------------------------------------------------------------|


   S  T   T   S  T   T   S  T  T  S  Q      Q      T   T   
---------------------------17-18-20-20b----20~----17h-18h-|
---L-18h-19p-18-18h-20p-18--------------------------------|
----------------------------------------------------------|
----------------------------------------------------------|
----------------------------------------------------------|
----------------------------------------------------------|


   T  T   T   T  T   T   T  T   T  T   T   T   T  T   T   T  T  T   T  T   T  T 
--17---------------------------------------------22p-20p-18----20p-18--------18-
-----20p-18p-17------------17h-18-18h-20p-18p-17------------22--------22p-20----
----------------17s-15s-17------------------------------------------------------
--------------------------------------------------------------------------------
--------------------------------------------------------------------------------
--------------------------------------------------------------------------------


   T  T  T  T  S  S  S  Q.       Q     S     H          H          
-----------------------------------------|------------------------|
--18-17----------------15-------15-----L-|--15---------17---------|
--------19-17-15-17-15-17b------17~----L-|--17b--------19b--------|
-----------------------------------------|------------------------|
-----------------------------------------|------------------------|
-----------------------------------------|------------------------|


   H          H          
-------------22---------|
--18---------24b--------|
--20b-------------------|
------------------------|
------------------------|
------------------------|


   S  S  S  S  T   T   S   S  E   S  S  S  T   T   S  S   S  
------------------------------------15----13h-15p-13--------|
--15-15-17-15-17h-18p-17p-15-------------------------17h-18-|
-----------------------------17--17----17-------------------|
------------------------------------------------------------|
------------------------------------------------------------|
------------------------------------------------------------|


   S  S  S  S  T   T   S  S  E   S  S  S  T   T   S  S  S  
--------17----15h-17p-15-----------17---------------------|
-------------------------18-17-----------18h-20p-18----17-|
--15-15----15-------------------15----15------------17----|
----------------------------------------------------------|
----------------------------------------------------------|
----------------------------------------------------------|


   E   S  S  T   T   S   S  E   S  S  S  T   T   S  S   S  
----------------------------------15----------------------|
--15--15-15-17h-18p-17p-15--------------18h-20p-18-17h-18-|
---------------------------17--17----17-------------------|
----------------------------------------------------------|
----------------------------------------------------------|
----------------------------------------------------------|


   S  S  S  S  T   T   S  S  E   S  S  S  T   T   S  S  S  
--------17----15h-17p-15-----------17----15h-17p-15-------|
-------------------------18-17----------------------18-17-|
--15-15----15-------------------15----15------------------|
----------------------------------------------------------|
----------------------------------------------------------|
----------------------------------------------------------|


   T  T  T  T  T  T  T  T  T  T  T  T  T  T  T  T   T   S  T   T   S  S   S  S  
-----------------------------------------------17h-18p-17-------------------20-2
--18-18-18-18-18-18-18-18-20-20-20-20-20-20-20------------20p-18p-17------------
---------------------------------------------------------------------19p-17-----
--------------------------------------------------------------------------------
--------------------------------------------------------------------------------
--------------------------------------------------------------------------------


  PM PM PM PM PM PM PM PM PM PM PM PM PM PM PM PM  
  S  S  S  S  S  S  S  S  S  S  S  S  S  S  S  S   
--L--L--L--L--L--L--------------------------------|
--------------------------------------------------|
--7--7--7--7--7--7--7--7--7--7--7--7--7--7--7--7--|
--------------------------------------------------|
--------------------------------------------------|
--------------------------------------------------|


  PM PM PM PM PM PM PM PM PM PM PM PM PM PM PM PM  
  S  S  S  S  S  S  S  S  S  S  S  S  S  S  S  S   
--------------------------------------------------|
--------------------------------------------------|
--5--5--5--5--5--5--5--5--5--5--5--5--5--5--5--5--|
--------------------------------------------------|
--------------------------------------------------|
--------------------------------------------------|


  PM PM PM PM PM PM PM PM PM PM PM PM PM PM PM PM  
  S  S  S  S  S  S  S  S  S  S  S  S  S  S  S  S   
--------------------------------------------------|
--------------------------------------------------|
--9--9--9--9--9--9--9--9--9--9--9--9--9--9--9--9--|
--------------------------------------------------|
--------------------------------------------------|
--------------------------------------------------|


   PM PM PM PM PM PM PM PM PM PM PM PM PM PM PM    
   S  S  S  S  S  S  S  S  S  S  S  S  S  S  S  S  
--------------------------------------------------|
--------------------------------------------------|
--10-10-10-10-10-10-10-10-10-10-10-10-10-10-10-10-|
--------------------------------------------------|
--------------------------------------------------|
--------------------------------------------------|


   PM PM PM PM PM PM PM PM PM PM PM PM PM PM PM PM 
   S  S  S  S  S  S  S  S  S  S  S  S  S  S  S  S  
--------------------------------------------------|
--------------------------------------------------|
--------------------------------------------------|
--------------------------------------------------|
--------------------------------------------------|
--12-12-12-12-12-12-12-12-12-12-12-12-12-12-12-12-|


   PM PM PM PM PM PM PM PM PM PM PM PM PM PM PM PM 
   S  S  S  S  S  S  S  S  S  S  S  S  S  S  S  S  
--------------------------------------------------|
--------------------------------------------------|
--------------------------------------------------|
--------------------------------------------------|
--------------------------------------------------|
--10-10-10-10-10-10-10-10-10-10-10-10-10-10-10-10-|


  PM PM PM PM PM PM PM PM PM PM PM PM PM PM PM PM  
  S  S  S  S  S  S  S  S  S  S  S  S  S  S  S  S   
--------------------------------------------------|
--------------------------------------------------|
--------------------------------------------------|
--------------------------------------------------|
--------------------------------------------------|
--3--3--3--3--3--3--3--3--3--3--3--3--3--3--3--3--|


  PM PM PM PM PM PM PM PM  PM PM PM PM PM PM PM PM 
  S  S  S  S  S  S  S  S   S  S  S  S  S  S  S  S  
--------------------------------------------------|
--------------------------------------------------|
--------------------------------------------------|
--------------------------------------------------|
--------------------------------------------------|
--8--8--8--8--8--8--8--8--10-10-10-10-10-10-10-10-|


   PM PM PM PM PM PM PM PM PM PM PM PM PM PM PM PM 
   S  S  S  S  S  S  S  S  S  S  S  S  S  S  S  S  
--------------------------------------------------|
--------------------------------------------------|
--------------------------------------------------|
--------------------------------------------------|
--------------------------------------------------|
--12-12-12-12-12-12-12-12-12-12-12-12-12-12-12-12-|


   PM PM PM PM PM PM PM PM PM PM PM PM PM PM PM PM 
   S  S  S  S  S  S  S  S  S  S  S  S  S  S  S  S  
--------------------------------------------------|
--------------------------------------------------|
--------------------------------------------------|
--------------------------------------------------|
--------------------------------------------------|
--10-10-10-10-10-10-10-10-10-10-10-10-10-10-10-10-|


  PM PM PM PM PM PM PM PM PM PM PM PM          
  S  S  S  S  S  S  S  S  S  S  S  S  S S S S  
----------------------------------------------|
----------------------------------------------|
----------------------------------------------|
----------------------------------------------|
----------------------------------------------|
--3--3--3--3--3--3--3--3--3--3--3--3--3-3-3-3-|


                              PM PM PM PM PM PM  
  S S S S S S S S  S  S  S  S T  T  S  T  T  S   
------------------------------------------------|
------------------------------------------------|
------------------------------------------------|
------------------------------------------------|
------------------------------------------------|
--8-8-8-8-8-8-8-8-10-10-10-10-0--0--0--0--0--0--|


   S  S  S  S  S  S  S  S  S  S  S  S  S  S  S  S  
--------------------------------------------------|
--------------------------------------------------|
--19-19-19-19-19-19-19-19-19-19-19-19-19-19-19-19-|
---x--x--x--x--x--x--x--x--x--x--x--x--x--x--x--x-|
--17-17-17-17-17-17-17-17-17-17-17-17-17-17-17-17-|
--------------------------------------------------|


   S  S  S  S  S  S  S  S  S  S  S  S  S  S  S  S  
--------------------------------------------------|
--------------------------------------------------|
--17-17-17-17-17-17-17-17-17-17-17-17-17-17-17-17-|
---x--x--x--x--x--x--x--x--x--x--x--x--x--x--x--x-|
--15-15-15-15-15-15-15-15-15-15-15-15-15-15-15-15-|
--------------------------------------------------|


   S  S  S  S  S  S  S  S  S  S  S  S  S  S  S  S  
--------------------------------------------------|
--------------------------------------------------|
--22-22-22-22-22-22-22-22-22-22-22-22-22-22-22-22-|
---x--x--x--x--x--x--x--x--x--x--x--x--x--x--x--x-|
--20-20-20-20-20-20-20-20-20-20-20-20-20-20-20-20-|
--------------------------------------------------|


                                      PM PM PM PM PM PM  
   S  S  S  S  S  S  S  S  S  S  S  S T  T  S  T  T  S   
--------------------------------------------------------|
--------------------------------------------------------|
--15-15-15-15-15-15-15-15-17-17-17-17-------------------|
---x--x--x--x--x--x--x--x--x--x--x--x-------------------|
--13-13-13-13-13-13-13-13-15-15-15-15-------------------|
--------------------------------------0--0--0--0--0--0--|


   S  S  S  S  S  S  S  S  S  S  S  S  S  S  S  S  
--------------------------------------------------|
--------------------------------------------------|
--19-19-19-19-19-19-19-19-19-19-19-19-19-19-19-19-|
---x--x--x--x--x--x--x--x--x--x--x--x--x--x--x--x-|
--17-17-17-17-17-17-17-17-17-17-17-17-17-17-17-17-|
--------------------------------------------------|


   S  S  S  S  S  S  S  S  S  S  S  S  S  S  S  S  
--------------------------------------------------|
--------------------------------------------------|
--17-17-17-17-17-17-17-17-17-17-17-17-17-17-17-17-|
---x--x--x--x--x--x--x--x--x--x--x--x--x--x--x--x-|
--15-15-15-15-15-15-15-15-15-15-15-15-15-15-15-15-|
--------------------------------------------------|


   S  S  S  S  S  S  S  S  S  S  S  S  S  S  S  S  
--------------------------------------------------|
--------------------------------------------------|
--22-22-22-22-22-22-22-22-22-22-22-22-22-22-22-22-|
---x--x--x--x--x--x--x--x--x--x--x--x--x--x--x--x-|
--20-20-20-20-20-20-20-20-20-20-20-20-20-20-20-20-|
--------------------------------------------------|


                                      PM PM PM PM PM PM  
   S  S  S  S  S  S  S  S  S  S  S  S T  T  S  T  T  S   
--------------------------------------------------------|
--------------------------------------------------------|
--15-15-15-15-15-15-15-15-17-17-17-17-------------------|
---x--x--x--x--x--x--x--x--x--x--x--x-------------------|
--13-13-13-13-13-13-13-13-15-15-15-15-------------------|
--------------------------------------0--0--0--0--0--0--|


   S  S  S  S  S  S  S  S  S  S  S  S  S  S  S  S  
--------------------------------------------------|
--------------------------------------------------|
--19-19-19-19-19-19-19-19-19-19-19-19-19-19-19-19-|
---x--x--x--x--x--x--x--x--x--x--x--x--x--x--x--x-|
--17-17-17-17-17-17-17-17-17-17-17-17-17-17-17-17-|
--------------------------------------------------|


   S  S  S  S  S  S  S  S  S  S  S  S  S  S  S  S  
--------------------------------------------------|
--------------------------------------------------|
--17-17-17-17-17-17-17-17-17-17-17-17-17-17-17-17-|
---x--x--x--x--x--x--x--x--x--x--x--x--x--x--x--x-|
--15-15-15-15-15-15-15-15-15-15-15-15-15-15-15-15-|
--------------------------------------------------|


   S  S  S  S  S  S  S  S  S  S  S  S  S  S  S  S  
--------------------------------------------------|
--------------------------------------------------|
--10-10-10-10-10-10-10-10-10-10-10-10-10-10-10-10-|
---x--x--x--x--x--x--x--x--x--x--x--x--x--x--x--x-|
---8--8--8--8--8--8--8--8--8--8--8--8--8--8--8--8-|
--------------------------------------------------|


                                      PM PM PM PM PM PM  
   S  S  S  S  S  S  S  S  S  S  S  S T  T  S  T  T  S   
--------------------------------------------------------|
--------------------------------------------------------|
--15-15-15-15-15-15-15-15-17-17-17-17-------------------|
---x--x--x--x--x--x--x--x--x--x--x--x-------------------|
--13-13-13-13-13-13-13-13-15-15-15-15-------------------|
--------------------------------------0--0--0--0--0--0--|


  S S S S S S S S S S S S S S S S    S S S S S S S S S S S S S S S S  
----------------------------------|----------------------------------|
----------------------------------|----------------------------------|
--7-7-7-7-7-7-7-7-7-7-7-7-7-7-7-7-|--5-5-5-5-5-5-5-5-5-5-5-5-5-5-5-5-|
--7-7-7-7-7-7-7-7-7-7-7-7-7-7-7-7-|--5-5-5-5-5-5-5-5-5-5-5-5-5-5-5-5-|
--5-5-5-5-5-5-5-5-5-5-5-5-5-5-5-5-|--3-3-3-3-3-3-3-3-3-3-3-3-3-3-3-3-|
----------------------------------|----------------------------------|


  S S S S S S S S S S S S S S S S  
----------------------------------|
----------------------------------|
----------------------------------|
--3-3-3-3-3-3-3-3-3-3-3-3-3-3-3-3-|
--3-3-3-3-3-3-3-3-3-3-3-3-3-3-3-3-|
--3-3-3-3-3-3-3-3-3-3-3-3-3-3-3-3-|


                              PM PM PM PM PM PM  
  S S S S S S S S  S  S  S  S T  T  S  T  T  S   
------------------------------------------------|
------------------------------------------------|
--3-3-3-3-3-3-3-3-17-17-17-17-------------------|
--3-3-3-3-3-3-3-3--x--x--x--x-------------------|
--1-1-1-1-1-1-1-1-15-15-15-15-------------------|
------------------------------0--0--0--0--0--0--|


  S S S S S S S S S S S S S S S S    S S S S S S S S S S S S S S S S  
----------------------------------|----------------------------------|
----------------------------------|----------------------------------|
--7-7-7-7-7-7-7-7-7-7-7-7-7-7-7-7-|--5-5-5-5-5-5-5-5-5-5-5-5-5-5-5-5-|
--7-7-7-7-7-7-7-7-7-7-7-7-7-7-7-7-|--5-5-5-5-5-5-5-5-5-5-5-5-5-5-5-5-|
--5-5-5-5-5-5-5-5-5-5-5-5-5-5-5-5-|--3-3-3-3-3-3-3-3-3-3-3-3-3-3-3-3-|
----------------------------------|----------------------------------|


                                                             PM PM PM PM PM PM  
  S S S S S S S S S S S S S S S S    S S S S S S S S S S S S T  T  S  T  T  S   
----------------------------------|--------------------------------------------|
----------------------------------|--------------------------------------------|
----------------------------------|--3-3-3-3-3-3-3-3-5-5-5-5-------------------|
--3-3-3-3-3-3-3-3-3-3-3-3-3-3-3-3-|--3-3-3-3-3-3-3-3-5-5-5-5-------------------|
--3-3-3-3-3-3-3-3-3-3-3-3-3-3-3-3-|--1-1-1-1-1-1-1-1-3-3-3-3-------------------|
--3-3-3-3-3-3-3-3-3-3-3-3-3-3-3-3-|--------------------------0--0--0--0--0--0--|


  W                   W                   W                 
-------------------|-------------------|-------------------|
-------------------|-------------------|-------------------|
-------------------|-------------------|-------------------|
--0----------------|--L----------------|--L----------------|
--0----------------|--L----------------|--L----------------|
--0----------------|--L----------------|--L----------------|


  W                  
-------------------||
-------------------||
-------------------||
--L----------------||
--L----------------||
--L----------------||




8. My Apocalypse

Intro
|-------------------------------------------------|
|--------8--8--8--8------8--9--9------------------|
|--------9--9--9--9------9--8--8------------------|
|--------7--7--7--7------7--7--7------------------|
|--0-----0--0--0--0---0--0--0--0------------------|
|-------------------------------------------------|
---------8--8--8--8-------8--9--9-----------------|
|--------9--9--9--9-------9--8--8-----------------|
|--------10-10-10-10------10-10-10----------------|
|--8-----8--8--8--8---8---8--8--8-----------------|
|-------------------------------------------------|

|-------------------------------/-/------------|
|--------8--8--8--8---8/10/8----8-//-----------|
|--------9--9--9--9----------9--9-///----------|
|--------7--7--7--7------------10-///-X's 9----|
|--0-----0--0--0--0-0-----------8-//-----------|
|-------------------------------/-/------------|


Guitar 1 chorus
|-------------------------------------------------------------------|
|-------------------------------------------------------------------|
|-2-2-2-2-2-2-2-2-2-2-2-2-2-2-2-2-------------------5-5-5-5-5-5-5-5-|
|-2-2-2-2-2-2-2-2-2-2-2-2-2-2-2-2--3-3-3-3-3-3-3-3--5-5-5-5-5-5-5-5-|
|-0-0-0-0-0-0-0-0-0-0-0-0-0-0-0-0--3-3-3-3-3-3-3-3--3-3-3-3-3-3-3-3-|
|----------------------------------3-3-3-3-3-3-3-3------------------|

Guitar 2 chorus
|-15-0------15-0------15-0------15-0---------------------15--0------------------------------|
|------13-0------13-0------13-0------13-0--10--0--13--0---------13-0--13-15-13-12-12-13-12--|
|-------------------------------------------------------------------------------------------|
|-------------------------------------------------------------------------------------------|
|-------------------------------------------------------------------------------------------|
|-------------------------------------------------------------------------------------------|


Guitar 1
|-------------------------------------------------------------------|
|-------------------------------------------------------------------|
|-2-2-2-2-2-2-2-2-2-2-2-2-2-2-2-2-------------------5-5-5-5-5-5-5-5-|
|-2-2-2-2-2-2-2-2-2-2-2-2-2-2-2-2--3-3-3-3-3-3-3-3--5-5-5-5-5-5-5-5-|
|-0-0-0-0-0-0-0-0-0-0-0-0-0-0-0-0--3-3-3-3-3-3-3-3--3-3-3-3-3-3-3-3-|
|----------------------------------3-3-3-3-3-3-3-3------------------|

Guitar 2
|-----15-0------15-0------15-0------15-0---------------15--0--------------------12--|
|13-0------13-0------13-0------13-0------10--0--13--0---------13-0--12-13-12-13-----|
|-----------------------------------------------------------------------------------|
|-----------------------------------------------------------------------------------|
|-----------------------------------------------------------------------------------|
|-----------------------------------------------------------------------------------|
Guitar 1
|-------------------------------------------------------------------|
|-------------------------------------------------------------------|
|-2-2-2-2-2-2-2-2-2-2-2-2-2-2-2-2-------------------5-5-5-5-5-5-5-5-|
|-2-2-2-2-2-2-2-2-2-2-2-2-2-2-2-2--3-3-3-3-3-3-3-3--5-5-5-5-5-5-5-5-|
|-0-0-0-0-0-0-0-0-0-0-0-0-0-0-0-0--3-3-3-3-3-3-3-3--3-3-3-3-3-3-3-3-|
|----------------------------------3-3-3-3-3-3-3-3------------------|

Guitar 2
|-15-0------15-0------15-0------15-0---------------------15--0------------------------------|
|------13-0------13-0------13-0------13-0--10--0--13--0---------13-0--13-15-13-12-12-13-12--|
|-------------------------------------------------------------------------------------------|
|-------------------------------------------------------------------------------------------|
|-------------------------------------------------------------------------------------------|
|-------------------------------------------------------------------------------------------|


Guitar 1
|-------------------------------------------------------------------|
|-------------------------------------------------------------------|
|-2-2-2-2-2-2-2-2-2-2-2-2-2-2-2-2-------------------5-5-5-5-5-5-5-5-|
|-2-2-2-2-2-2-2-2-2-2-2-2-2-2-2-2--3-3-3-3-3-3-3-3--5-5-5-5-5-5-5-5-|
|-0-0-0-0-0-0-0-0-0-0-0-0-0-0-0-0--3-3-3-3-3-3-3-3--3-3-3-3-3-3-3-3-|
|----------------------------------3-3-3-3-3-3-3-3------------------|

Guitar 2
|-----15-0------15-0------15-0------15-0---------------15--0--------------------12-------|
let-ring 13-0------13-0------13-0------13-0------10--0--13--0---------13-0--12-13-12-13--|
|----------------------------------------------------------------------------------------|
|----------------------------------------------------------------------------------------|
|----------------------------------------------------------------------------------------|
|----------------------------------------------------------------------------------------|

Repeat Intro

Verse 1:
|----15--15--15--15--15--15--12--12--15--15--15--15--15--15--12--12----|
|------13--13--13--13--13--13--13--13--13--13--13--13--13--13--13--13--|
|----------------------------------------------------------------------|
|----------------------------------------------------------------------|
|----------------------------------------------------------------------|
|----------------------------------------------------------------------|

verse 2:

|---------------------------------------------------------------------------------|
|--------8--------8--------9------------------------------------------------------|
|--------9--------9--------8---9---9----------------------------------------------|
|--2-2---7--2-2---7--2-2---7---10-10----3-----------------------------------------|
|--0-0-0----0-0-0----0-0-0-----8--8--8--3-----------------------------------------|
|---------------------------------------3-----------------------------------------|

|---------------------------------------------------------------------------------|
|--------8--------8--------9------------------------------------------------------|
|--------9--------9--------8---9---9----------------------------------------------|
|--2-2---7--2-2---7--2-2---7---10-10----3-----------------------------------==----|
|--0-0-0----0-0-0----0-0-0-----8--8--8--3----------------------------------=------|
|---------------------------------------3----------------------------------=------|

Repeat Chorus for Guitar 1 and 2


|-------------------------------------------------------------------------------------|
|-------------------------------------------------------------------------------------|
|-------------------------------------------------------------------------------------|
|-2-2-2-2-2-2-2-2-2---------5-5-5-5-----------------------------------------====------|
|-0-0-0-0-0-0-0-0-0-5-5-5-5-3-3-3-3---------------------------------------------------|
|-------------------3-3-3-3-----------------------------------------------------------|

Repeat verse 2

Repeat Chorus

solo:

part 1 (slow)
|-t12p5h7h8-t12p5h7h8-t13p5h7h8-t13p5h7h8-t10p5h7h8-t10p5h7h8-|
|-------------------------------------------------------------|
|-------------------------------------------------------------|
|-------------------------------------------------------------|
|-------------------------------------------------------------|
|-------------------------------------------------------------|

|-t15p5h7h8-t17p5h7h8-|
|---------------------|
|---------------------|
|---------------------|
|---------------------|
|---------------------|

part 2 (moderate)
|-t12p5h7h8-t12p5h7h8-t12p5h7h8-t12p5h7h8-t13p5h7h8-t13p5h7h8-|
|-------------------------------------------------------------|
|-------------------------------------------------------------|
|-------------------------------------------------------------|
|-------------------------------------------------------------|
|-------------------------------------------------------------|

|-t13p5h7h8-t13p5h7h8-t10p5h7h8-t10p5h7h8-t10p5h7h8-t10p5h7h8-|
|-------------------------------------------------------------|
|-------------------------------------------------------------|
|-------------------------------------------------------------|
|-------------------------------------------------------------|
|-------------------------------------------------------------|

|-t15p5h7h8-t15p5h7h8-t17p5h7h8-t17~-|
|------------------------------------|
|------------------------------------|
|------------------------------------|
|------------------------------------|
|------------------------------------|

part 3 (fast)
|-t12p5h7h8-x8-t13p5h7h8-x8-t10p5h7h8-x8-t15p5h7h8-x8-t17p5h7h8-x8-|
|------------------------------------------------------------------|
|------------------------------------------------------------------|
|------------------------------------------------------------------|
|------------------------------------------------------------------|
|------------------------------------------------------------------|

|-t12p5h7h8-t13p5h7h8-t12p5h7h8-t15p5h7h8-|
|-----------------------------------------|
|-----------------------------------------|
|-----------------------------------------|
|-----------------------------------------|
|-----------------------------------------|
                                                     x2
|-t12p5h7h8-t17p5h7h8-t12p5h7h8-t17p5h7h8-|
|-----------------------------------------|
|-----------------------------------------|
|-----------------------------------------|
|-----------------------------------------|
|-----------------------------------------|
(last time through, tap on the last 17 and let ring)

part 4 (moderate-fast)

|8585-7555-7555-75-5050-|
|-----------------------|
|-----------------------|   x4
|-----------------------|
|-----------------------|
|-----------------------|

|-13p0-12p0-8p0-7p0-8p0-7p0-5p0-7p0-|
|-----------------------------------|
|-----------------------------------|
|-----------------------------------|   x3
|-----------------------------------|
|-----------------------------------|

|-800-700-500-70-5050-|
|---------------------|
|---------------------|
|---------------------|
|---------------------|
|---------------------|




9. Friends And Alibis

     E   E   S  S  S  E   S  E   S  S  S  S  
D||------------------------------------------|
A||--20--20--20-20-20-19--19-19--19-19-19-19-|
F||---x---x---x--x--x--x---x--x---x--x--x--x-|
C||--17--17--17-17-17-16--16-16--16-16-16-16-|
G||------------------------------------------|
C||------------------------------------------|


   E   E   S  S  S  E   S  E   S  S  S  S  
------------------------------------------|
--17--17--17-17-17-15--15-15--15-15-15-15-|
---x---x---x--x--x--x---x--x---x--x--x--x-|
--14--14--14-14-14-12--12-12--12-12-12-12-|
------------------------------------------|
------------------------------------------|


   E   E   S  S  S  E   S  E   S  S  S  S     E   E   S  S  S  E  Q.     S  
------------------------------------------|--------------------------------|
--20--20--20-20-20-19--19-19--19-19-19-19-|--17--17--17-17-17-15-----------|
---x---x---x--x--x--x---x--x---x--x--x--x-|---x---x---x--x--x--x-----------|
--17--17--17-17-17-16--16-16--16-16-16-16-|--14--14--14-14-14-12-----------|
------------------------------------------|--------------------------------|
------------------------------------------|--------------------------------|


    E  S S S S S E  S S S S S S S    E  S S S S S E  S S S S S S S  
|---------------------------------|--------------------------------|
|---------------------------------|--------------------------------|
|*--9--9-9-9-9-9-9--9-9-9-9-9-9-9-|--4--4-4-4-4-4-4--4-4-4-4-4-4-4-|
|*--9--9-9-9-9-9-9--9-9-9-9-9-9-9-|--4--4-4-4-4-4-4--4-4-4-4-4-4-4-|
|---7--7-7-7-7-7-7--7-7-7-7-7-7-7-|--2--2-2-2-2-2-2--2-2-2-2-2-2-2-|
|---------------------------------|--------------------------------|


  E  S S S S S E  S S S S S S S    E  S S S S S E  S S S S S S S    
--------------------------------|---------------------------------||
--------------------------------|---------------------------------||
--5--5-5-5-5-5-5--5-5-5-5-5-5-5-|--7--7-7-7-7-7-7--7-7-7-7-7-7-7-*||
--5--5-5-5-5-5-5--5-5-5-5-5-5-5-|--7--7-7-7-7-7-7--7-7-7-7-7-7-7-*||
--3--3-3-3-3-3-3--3-3-3-3-3-3-3-|--5--5-5-5-5-5-5--5-5-5-5-5-5-5--||
--------------------------------|---------------------------------||


   E  E  S S S E  S E  S S S S    E  E  S S S E  S E  S S S S    
-------------------------------|-------------------------------||
-------------------------------|-------------------------------||
*--4--4--4-4-4-5--5-5--5-5-5-5-|--9--9--9-9-9-7--7-7--7-7-7-7-*||
*--4--4--4-4-4-5--5-5--5-5-5-5-|--9--9--9-9-9-7--7-7--7-7-7-7-*||
---2--2--2-2-2-3--3-3--3-3-3-3-|--7--7--7-7-7-5--5-5--5-5-5-5--||
-------------------------------|-------------------------------||


  E  E  S S S E  S E  S S S S      E.  E.  E  E.  E.  E   
------------------------------||-------------------------|
------------------------------||-------------------------|
--9--9--9-9-9-7--7-7--7-7-7-7-||*------------------------|
--9--9--9-9-9-7--7-7--7-7-7-7-||*--5---5---5--5---5---5--|
--7--7--7-7-7-5--5-5--5-5-5-5-||---5---5---5--5---5---5--|
------------------------------||---5---5---5--5---5---5--|


  E.  E.  E  E.  E.  E     E.  E.  E  E.  E.  E     E.  E.  E  E.  E.  E     
------------------------|------------------------|-------------------------||
------------------------|------------------------|-------------------------||
--4---4---4--4---4---4--|--5---5---5--5---5---5--|--7---7---7--8---8---8--*||
--4---4---4--4---4---4--|--5---5---5--5---5---5--|--7---7---7--8---8---8--*||
--2---2---2--2---2---2--|--3---3---3--3---3---3--|--5---5---5--6---6---6---||
------------------------|------------------------|-------------------------||


   E  S S S S S E  S S S S S S S    E  S S S S S E  S S S S S S S  
---------------------------------|--------------------------------|
---------------------------------|--------------------------------|
*--9--9-9-9-9-9-9--9-9-9-9-9-9-9-|--4--4-4-4-4-4-4--4-4-4-4-4-4-4-|
*--9--9-9-9-9-9-9--9-9-9-9-9-9-9-|--4--4-4-4-4-4-4--4-4-4-4-4-4-4-|
---7--7-7-7-7-7-7--7-7-7-7-7-7-7-|--2--2-2-2-2-2-2--2-2-2-2-2-2-2-|
---------------------------------|--------------------------------|


  E  S S S S S E  S S S S S S S    E  S S S S S E  S S S S S S S    
--------------------------------|---------------------------------||
--------------------------------|---------------------------------||
--5--5-5-5-5-5-5--5-5-5-5-5-5-5-|--7--7-7-7-7-7-7--7-7-7-7-7-7-7-*||
--5--5-5-5-5-5-5--5-5-5-5-5-5-5-|--7--7-7-7-7-7-7--7-7-7-7-7-7-7-*||
--3--3-3-3-3-3-3--3-3-3-3-3-3-3-|--5--5-5-5-5-5-5--5-5-5-5-5-5-5--||
--------------------------------|---------------------------------||


  S S S S S S S S S S S S S S S S    S S S E  S S E  S S S S S S S  
----------------------------------|--------------------------------|
----------------------------------|--------------------------------|
--9---9---9---9---9---9---9-9-9-4-|--L-4-4-4--4-4-4--4-4-4-4-4-4-4-|
--9---9---9---9---9---9---9-9-9-4-|--L-4-4-4--4-4-4--4-4-4-4-4-4-4-|
--7---7---7---7---7---7---7-7-7-2-|--L-2-2-2--2-2-2--2-2-2-2-2-2-2-|
----------------------------------|--------------------------------|


  S S S S S S S S S S S S S S S S    S S S E  S S E  S S S S S S S  
----------------------------------|--------------------------------|
----------------------------------|--------------------------------|
--5---5---5---5---5---5---5-5-5-7-|--L-7-7-7--7-7-7--7-7-7-7-7-7-7-|
--5---5---5---5---5---5---5-5-5-7-|--L-7-7-7--7-7-7--7-7-7-7-7-7-7-|
--3---3---3---3---3---3---3-3-3-5-|--L-5-5-5--5-5-5--5-5-5-5-5-5-5-|
----------------------------------|--------------------------------|


    E  E  S S S E  S E  S S S S    E  E  S S S E  S E  S S S S    
|-------------------------------|-------------------------------||
|-------------------------------|-------------------------------||
|*--4--4--4-4-4-5--5-5--5-5-5-5-|--9--9--9-9-9-7--7-7--7-7-7-7-*||
|*--4--4--4-4-4-5--5-5--5-5-5-5-|--9--9--9-9-9-7--7-7--7-7-7-7-*||
|---2--2--2-2-2-3--3-3--3-3-3-3-|--7--7--7-7-7-5--5-5--5-5-5-5--||
|-------------------------------|-------------------------------||


  E  E  S S S E  S E  S S S S      E.  E.  E  E.  E.  E   
------------------------------||-------------------------|
------------------------------||-------------------------|
--9--9--9-9-9-7--7-7--7-7-7-7-||*------------------------|
--9--9--9-9-9-7--7-7--7-7-7-7-||*--5---5---5--5---5---5--|
--7--7--7-7-7-5--5-5--5-5-5-5-||---5---5---5--5---5---5--|
------------------------------||---5---5---5--5---5---5--|


  E.  E.  E  E.  E.  E     E.  E.  E  E.  E.  E     E.  E.  E  E.  E.  E     
------------------------|------------------------|-------------------------||
------------------------|------------------------|-------------------------||
--4---4---4--4---4---4--|--5---5---5--5---5---5--|--7---7---7--8---8---8--*||
--4---4---4--4---4---4--|--5---5---5--5---5---5--|--7---7---7--8---8---8--*||
--2---2---2--2---2---2--|--3---3---3--3---3---3--|--5---5---5--6---6---6---||
------------------------|------------------------|-------------------------||


  W                   E  H.           E     W                 
-------------------|---------------------|-------------------|
-------------------|---------------------|-------------------|
-------------------|---------------------|-------------------|
--2----------------|--2------------------|--2----------------|
--2----------------|--2------------------|--2----------------|
--2----------------|--2------------------|--2----------------|


     PM PM PM PM PM PM PM PM PM PM PM PM PM PM                             
  E  S  S  S  S  S  S  S  S  S  S  S  S  S  S       E.  E.  E  E.  E.  E   
-----------------------------------------------||-------------------------|
-----------------------------------------------||-------------------------|
-----------------------------------------------||*------------------------|
--2--------------------------------------------||*--2---2---2--2---2---2--|
--2--2--2--2--2--2--2--2--2--2--2--2--2--2--2--||---2---2---2--2---2---2--|
--2--2--2--2--2--2--2--2--2--2--2--2--2--2--2--||---2---2---2--2---2---2--|


  E.  E.  E  E.  E.  E     E.  E.  E  E.  E.  E     E.  E.  E  E.  E.  E     
------------------------|------------------------|-------------------------||
------------------------|------------------------|-------------------------||
------------------------|------------------------|--5---5---5--8---8---8--*||
--0---0---0--0---0---0--|--5---5---5--5---5---5--|--5---5---5--8---8---8--*||
--0---0---0--0---0---0--|--5---5---5--5---5---5--|--3---3---3--6---6---6---||
--0---0---0--0---0---0--|--5---5---5--5---5---5--|-------------------------||


  E.  E.  E  E.  E.  E     E.  E.  E  E.  E.  E     E.  E.  E  E.  E.  E   
------------------------|------------------------|------------------------|
------------------------|------------------------|------------------------|
--5---5---5--8---8---8--|------------------------|------------------------|
--5---5---5--8---8---8--|--2---2---2--2---2---2--|--0---0---0--0---0---0--|
--3---3---3--6---6---6--|--2---2---2--2---2---2--|--0---0---0--0---0---0--|
------------------------|--2---2---2--2---2---2--|--0---0---0--0---0---0--|


  E.  E.  E  E.  E.  E     E.  E.  E  E.  E.  E     E.  E.  E  E.  E.  E   
------------------------|------------------------|------------------------|
------------------------|------------------------|------------------------|
------------------------|--5---5---5--8---8---8--|------------------------|
--5---5---5--5---5---5--|--5---5---5--8---8---8--|--2---2---2--2---2---2--|
--5---5---5--5---5---5--|--3---3---3--6---6---6--|--2---2---2--2---2---2--|
--5---5---5--5---5---5--|------------------------|--2---2---2--2---2---2--|


  E.  E.  E  E.  E.  E     E.  E.  E  E.  E.  E     E.  E.  E  E.  E.  E   
------------------------|------------------------|------------------------|
------------------------|------------------------|------------------------|
------------------------|------------------------|--5---5---5--8---8---8--|
--0---0---0--0---0---0--|--5---5---5--5---5---5--|--5---5---5--8---8---8--|
--0---0---0--0---0---0--|--5---5---5--5---5---5--|--3---3---3--6---6---6--|
--0---0---0--0---0---0--|--5---5---5--5---5---5--|------------------------|


  E.  E.  E   E.  E.  E     E  S S E  E  E.  E.  E   
-------------------------|--------------------------|
------8------------------|---------------8---7------|
-------------------------|-----------------------7--|
-------------------------|--------------------------|
--5-------5--10---9---5--|--L--5-5-5--5-------------|
-------------------------|--------------------------|


  E.  E.  E  E.      E.   E     E.    E.  E   E   S  S  S  S  E   
-----------------------------|-----------------------------------|
-----------------12g13---10--|-----------------------------------|
----------5------------------|-----------------------------------|
------5----------------------|---------------12--12-12-12-11-11--|
--7----------7---------------|--7S---10---9---x---x--x--x--x--x--|
-----------------------------|---------------12--12-12-12-11-11--|


  E.  E.  E   E.  E.  E     E  S S E  E  E.  E.  E   
-------------------------|--------------------------|
------8------------------|---------------8---7------|
-------------------------|-----------------------7--|
-------------------------|--------------------------|
--5-------5--10---9---5--|--L--5-5-5--5-------------|
-------------------------|--------------------------|


  E.  E.  E  E.   E    E.     Q    Q    Q    Q         E.  E.  E  E.  E.  E   
---------------------------|----------------------||-------------------------
-----------------12S--13---|----------------------||-------------------------
----------5----------------|--4----4----5----5----||*------------------------
------5--------------------|--4----4----5----5----||*--5---5---5--5---5---5--
--7----------7-------------|--2----2----3----3----||---5---5---5--5---5---5--
---------------------------|----------------------||---5---5---5--5---5---5--


  E.  E.  E  E.  E.  E     E.  E.  E  E.  E.  E     E.  E.  E  E.  E.  E   3x
------------------------|------------------------|-------------------------||
------------------------|------------------------|-------------------------||
--4---4---4--4---4---4--|--5---5---5--5---5---5--|--7---7---7--8---8---8--*||
--4---4---4--4---4---4--|--5---5---5--5---5---5--|--7---7---7--8---8---8--*||
--2---2---2--2---2---2--|--3---3---3--3---3---3--|--5---5---5--6---6---6---||
------------------------|------------------------|-------------------------||


  E.  E.  E  E.  E.  E     E.  E.  E  E.  E.  E     E.  E.  E  E.  E.  E   
------------------------|------------------------|------------------------|
------------------------|------------------------|------------------------|
------------------------|--4---4---4--4---4---4--|--5---5---5--5---5---5--|
--5---5---5--5---5---5--|--4---4---4--4---4---4--|--5---5---5--5---5---5--|
--5---5---5--5---5---5--|--2---2---2--2---2---2--|--3---3---3--3---3---3--|
--5---5---5--5---5---5--|------------------------|------------------------|


  E.  E.  E  E.  E.  S S    E.  E.  S S E.  E.  S S    W                 
-------------------------|--------------------------|-------------------|
-------------------------|--------------------------|-------------------|
--7---7---7--8---8---8---|--8---8---8---8---8---8---|-------------------|
--7---7---7--8---8---8---|--8---8---8---8---8---8---|--5----------------|
--5---5---5--6---6---6---|--6---6---6---6---6---6---|--5----------------|
-------------------------|--------------------------|--5----------------|


  W                   W                   W                  
-------------------|-------------------|-------------------||
-------------------|-------------------|-------------------||
-------------------|-------------------|-------------------||
--L----------------|--L----------------|--L----------------||
--L----------------|--L----------------|--L----------------||
--L----------------|--L----------------|--L----------------||





10. Not Good Enough For truth In Cliché

INTRO 1 (GUITAR 1)
-----------------------------------------------------------------|
-----------------------------------------------------------------|
-----4---2-----------4---0-----------0---0-----------0---0-------|
---0---0---0---0---0---0---0---0---0---0---0---0---0---0---0---0-|
-3-----------3---5-----------5---2-----------2---3-----------3---|
-----------------------------------------------------------------|
 X X X X X X X X X X X X X X X X X X X X X X X X X X X X X X X X

-------------------------------------------------------------------|
-------------------------------------------------------------------|
-----4---2-----------4---0-----------0---0-----------0---0----0R---|
---0---0---0---0---0---0---0---0---0---0---0---0---0---0---0--0R---|
-3-----------3---5-----------5---2-----------2---3------------3R---|
-------------------------------------------------------------------|
 X X X X X X X X X X X X X X X X X X X X X X X X X X X X X X
(Guitar 2 Gives feedback for INTRO 1)


INTRO 2 (GUITAR 1)
-----------------------------------------|
-----------------------------------------|
-----------------------------------------|
-55-555-5/77-777-7\55-555-555555555------|X2
-33-333-3/55-555-5\22-222-223322332------|
-----------------------------------------|

INTRO 2 (GUITAR 2)
---------------------------------------------------------|
---------------------------------------------------------|
-99-999-9/11-11-11-11-11--11\77-777-77/12-12-11-11-12-12-|
-xx-xxx-x/-x--x--x--x--x---x\xx-xxx-xx/-x--x--x--x--x--x-|X2
-77-777-7/-9--9--9--9--9---9\55-555-55/10-10--9--9-10-10-|
---------------------------------------------------------|

VERSE (GUITAR 1)
-----------------------------------------------------------------|
-----------------------------------------------------------------|
-----4---2-----------4---0-----------0---0-----------0---0-------|
---0---0---0---0---0---0---0---0---0---0---0---0---0---0---0---0-| x2
-3-----------3---5-----------5---2-----------2---3-----------3---|
-----------------------------------------------------------------|
 X X X X X X X X X X X X X X X X X X X X X X X X X X X X X X X X

(GUITAR 1 CONTINUED)
-----------------------------------------------------------------|
-----------------------------------------------------------------|
-----4---2-----------4---0-----------0---0-----------0---0-------|
---0---0---0---0---0---0---0---0---0---0---0---0---0---0---0---0-|x2
-3-----------3---5-----------5---2-----------2---3-----------3---|
-----------------------------------------------------------------|
 X X   X   X X X X X   X   X X X X X   X   X X X X X   X   X X X
*only thing different about guitar 1s verse parts is that on line 2
everything on the 3rd string/ F string is not palm muted*


VERSE (GUITAR 2)
---------------------------------------------------------------------|
-8---8---8---8---10---10---10---10---7---7---7---7---8---8---8---8---|
---7---7---7---7----7----7----7----7---7---7---7---7---7---7---7---7-|
---------------------------------------------------------------------|X4
---------------------------------------------------------------------|
---------------------------------------------------------------------|

CHORUS 1&2 (BOTH GUITARS)
-------------------------------------------------------------|
-------------------------------------------------------------|
---------4R--5R----------------------------------------------|
-5R--0R--4R--5R--5555555--5555555555555555-0000000000000000--|
-5R--0R--2R--3R--3333333--5555555555555555-0000000000000000--|
-5R--0R-------------------5555555555555555-0000000000000000--|

(BOTH GUITARS CONTINUED)
-------------------------------------|
-------------------------------------|
-------------------------------------|
-4444444444444444-5555555555555555---|x1
-2222222222222222-3333333333333333---|
-------------------------------------|

BRIDGE (GUITAR 1)
------------------------------------------------------------|
------------------------------------------------------------|
------------------------------------------------------------|
-55-555-5/77-777-7\55-555-555555555-55-555-5/77-777-9-7-5-0-|x1
-33-333-3/55-555-5\22-222-223322332-33-333-3/55-555-9-7-5-0-|
----------------------------------------------------9-7-5-0-|

Intro 2 (Guitar 2)
---------------------------------------------------------|
---------------------------------------------------------|
-99-999-9/11-11-11-11-11--11\77-777-77/12-12-11-11-12-12-|
-xx-xxx-x/-x--x--x--x--x---x\xx-xxx-xx/-x--x--x--x--x--x-|
-77-777-7/-9--9--9--9--9---9\55-555-55/10-10--9--9-10-10-|
---------------------------------------------------------|

(Guitar 2 continued)
-------------------------------------|
-------------------------------------|
-99-999-9/11-11-11-11-11-11-------7--|
-xx-xxx-x/-x--x--x--x--x--x-9-7-5-x--|X1
-77-777-7/-9--9--9--9--9--9-9-7-5-5--|
----------------------------9-7-5-0--|


REPEAT VERSE AGAIN

REPEAT CHORUS 1&2 AGAIN

REPEAT INTRO 2 AGAIN


INTERLUDE 1 (Both Guitars)
-------------------------------------------------------------------|
-----------------------------------------------------------------x-|
-----------------------------------------------------------------x-|
-5-5-5-5-5-5-5-5-2-2-2-2-2-2-2-2-4-4-4-4-4-4-4-4-4-4-4-4-4-4-4-4-x-|X4
-5-5-5-5-5-5-5-5-0-0-0-0-0-0-0-0-2-2-2-2-2-2-2-2-2-2-2-2-2-2-2-2-x-|
-5-5-5-5-5-5-5-5---------------------------------------------------|

INTERLUDE 2 (GUITAR 1)
-----------------------------------------------------------------|
-----------------------------------------------------------------|
-----4---2-----------4---0-----------0---0-----------0---0-------|
---0---0---0---0---0---0---0---0---0---0---0---0---0---0---0---0-|
-3-----------3---5-----------5---2-----------2---3-----------3---|
-----------------------------------------------------------------|
 X X X X X X X X X X X X X X X X X X X X X X X X X X X X X X X X

-------------------------------------------------------------------|
-------------------------------------------------------------------|
-----4---2-----------4---0-----------0---0-----------0---0----0R---|
---0---0---0---0---0---0---0---0---0---0---0---0---0---0---0--0R---|
-3-----------3---5-----------5---2-----------2---3------------3R---|
-------------------------------------------------------------------|
 X X X X X X X X X X X X X X X X X X X X X X X X X X X X X X


INTERLUDE 2 (GUITAR 2)
---------------------------------------------------------|
---------------------------------------------------------|
-99-999-9/11-11-11-11-11--11\77-777-77/12-12-11-11-12-12-|
-xx-xxx-x/-x--x--x--x--x---x\xx-xxx-xx/-x--x--x--x--x--x-|X2
-77-777-7/-9--9--9--9--9---9\55-555-55/10-10--9--9-10-10-|
---------------------------------------------------------|

LAST CHORUS (GUITAR 1)
-----------------------------------------|
-----------------------------------------|
-----------------------------------------|
-55-555-5/77-777-7\55-555-555555555------|X6
-33-333-3/55-555-5\22-222-223322332------|
-----------------------------------------|

LAST CHORUS (GUITAR 2)
---------------------------------------------------------|
---------------------------------------------------------|
-99-999-9/11-11-11-11-11--11\77-777-77/12-12-11-11-12-12-|
-xx-xxx-x/-x--x--x--x--x---x\xx-xxx-xx/-x--x--x--x--x--x-|X6
-77-777-7/-9--9--9--9--9---9\55-555-55/10-10--9--9-10-10-|
---------------------------------------------------------|

(GUITAR 3)(COMES IN WHEN GUITARS 1 AND 2 ARE PLAYING THE CHORUS THE 3RD TIME)
---------------------------------------------------------------------|
-8---8---8---8---10---10---10---10---7---7---7---7---8---8---8---8---|
---7---7---7---7----7----7----7----7---7---7---7---7---7---7---7---7-|
---------------------------------------------------------------------|X4
---------------------------------------------------------------------|
---------------------------------------------------------------------|

OUTRO (GUITAR 1)
----------|
----------|
----------|
-9-7-5-0R-|
-9-7-5-0R-|
-9-7-5-0R-|

(GUITAR 2)
----------|
----------|
-------7--|
-9-7-5-xR-|
-9-7-5-5R-|
-9-7-5-0R-|





11. the Day I Left The The Womb

                  ~~~INTRO~~~ (0:00)
                                  (Play Twice!!)

                   d|-12----12----10----10----7----7----8----8----------|
                   A|----10----10----10----10---10---10---10---10-------|
       Guitar 1    F|---------------------------------------------------|
                   C|---------------------------------------------------|
                   G|---------------------------------------------------|
                   D|---------------------------------------------------|

                   d|-0---------------------------------3---------------|
                   A|-1---------------------------------1---------------|
       Guitar 2    F|-2---------------------------------2---------------|
(Listen To Song    C|-2---------------------------------2---------------|
  for Strumming    G|-0---------------------------------0---------------|
       Pattern)    D|-0---------------------------------0---------------|

                     (0:07)
                   d|-12----12----10----10----15----15----12----10-------|
                   A|----10----10----10----10----10----10----10----10----|
       Guitar 1    F|----------------------------------------------------|
                   C|----------------------------------------------------|
                   G|----------------------------------------------------|
                   D|----------------------------------------------------|

                   d|-0-----------------------------------3--------------|
                   A|-1-----------------------------------1--------------|
       Guitar 2    F|-0-----------------------------------0--------------|
                   C|-2-----------------------------------2--------------|
                   G|-3-----------------------------------3--------------|
                   D|-0-----------------------------------0--------------|


                                 ~~~VERSE 1~~~ (0:21)

                   d|----------------------------------------------------|
                   A|----------------------------------------------------|
       Guitar 1    F|----------------------------------------------------|
                   C|----------------------------------------------------|
                   G|----------------------------------------------------|
                   D|----------------------------------------------------|

                   d|-0-----------------------------------3--------------|
                   A|-1-----------------------------------1--------------|
       Guitar 2    F|-2-----------------------------------2--------------|
                   C|-2-----------------------------------2--------------|
                   G|-0-----------------------------------0--------------|
                   D|-0-----------------------------------0--------------|

                     (0:26)
                   d|----------------------------------------------------|
                   A|----------------------------------------------------|
       Guitar 1    F|----------------------------------------------------|
                   C|----------------------------------------------------|
                   G|----------------------------------------------------|
                   D|----------------------------------------------------|

                   d|-0--------------------------------------------------|
                   A|-1--------------------------------------------------|
       Guitar 2    F|-0--------------------------------------------------|
                   C|-2--------------------------------------------------|
                   G|-3--------------------------------------------------|
                   D|-0--------------------------------------------------|


                     (0:30)
                   d|----------------------------------------------------|
                   A|----------------------------------------------------|
       Guitar 1    F|----------------------------------------------------|
                   C|----------------------------------------------------|
                   G|----------------------------------------------------|
                   D|----------------------------------------------------|

                   d|-0-----------------------------------3--------------|
                   A|-1-----------------------------------1--------------|
       Guitar 2    F|-2-----------------------------------2--------------|
                   C|-2-----------------------------------2--------------|
                   G|-0-----------------------------------0--------------|
                   D|-0-----------------------------------0--------------|

                     (0:35)
                   d|----------------------------------------------------|
                   A|----------------------------------------------------|
       Guitar 1    F|----------------------------------------------------|
                   C|----------------------------------------------------|
                   G|----------------------------------------------------|
                   D|----------------------------------------------------|

                   d|-0-----------------------------------3--------------|
                   A|-1-----------------------------------1--------------|
       Guitar 2    F|-0-----------------------------------0--------------|
                   C|-2-----------------------------------2--------------|
                   G|-3-----------------------------------3--------------|
                   D|-0-----------------------------------0--------------|

                              Play INTRO one more time!!

                                 ~~~Verse 2~~~ (0:49)

                   d|----------------------------------------------------|
                   A|----------------------------------------------------|
       Guitar 1    F|----------------------------------------------------|
                   C|----------------------------------------------------|
                   G|----------------------------------------------------|
                   D|----------------------------------------------------|

                   d|-0-----------------------------------3--------------|
                   A|-1-----------------------------------1--------------|
       Guitar 2    F|-2-----------------------------------2--------------|
                   C|-2-----------------------------------2--------------|
                   G|-0-----------------------------------0--------------|
                   D|-0-----------------------------------0--------------|

                     (0:54)
                   d|----------------------------------------------------|
                   A|----------------------------------------------------|
       Guitar 1    F|----------------------------------------------------|
                   C|----------------------------------------------------|
                   G|----------------------------------------------------|
                   D|----------------------------------------------------|

                   d|-0--------------------------------------------------|
                   A|-1--------------------------------------------------|
       Guitar 2    F|-0--------------------------------------------------|
                   C|-2--------------------------------------------------|
                   G|-3--------------------------------------------------|
                   D|-0--------------------------------------------------|


                     (0:59)
                   d|----------------------------------------------------|
                   A|----------------------------------------------------|
       Guitar 1    F|----------------------------------------------------|
                   C|----------------------------------------------------|
                   G|----------------------------------------------------|
                   D|----------------------------------------------------|

                   d|-0-----------------------------------3--------------|
                   A|-1-----------------------------------1--------------|
       Guitar 2    F|-2-----------------------------------2--------------|
                   C|-2-----------------------------------2--------------|
                   G|-0-----------------------------------0--------------|
                   D|-0-----------------------------------0--------------|


                     (1:03)
                   d|----------------------------------------------------|
                   A|----------------------------------------------------|
       Guitar 1    F|----------------------------------------------------|
                   C|----------------------------------------------------|
                   G|----------------------------------------------------|
                   D|----------------------------------------------------|

                   d|-0-----------------------------------3--------------|
                   A|-1-----------------------------------3--------------|
       Guitar 2    F|-0-----------------------------------0--------------|
                   C|-2-----------------------------------0--------------|
                   G|-3-----------------------------------2--------------|
                   D|-0-----------------------------------3--------------|


                               ~~~Chorus~~~ (1:08)

                   d|-0---------------------------0----------------------|
                   A|-1---------------------------1----------------------|
    Guitar 1       F|-2---------------------------0----------------------|
      & Guitar 2   C|-2---------------------------2----------------------|
                   G|-0---------------------------3----------------------|
                   D|-0---------------------------0----------------------|


                    (1:17)
                   d|-1---------------------------3----------------------|
                   A|-1---------------------------3----------------------|
    Guitar 1       F|-2---------------------------0----------------------|
      & Guitar 2   C|-2---------------------------0----------------------|
                   G|-3---------------------------2----------------------|
                   D|-1---------------------------3----------------------|


                                    ~~~Bridge~~~ (1:27)

                   d|--0----0----0----0----0----0----0----0----0----0-----|
                   A|---1----1----1----1----1----1----1----1----1----1----|
       Guitar 1    F|----2----2----2----2---------2----2----2----2--------|
                   C|-----------------------------------------------------|
                   G|-----------------------------------------------------|
                   D|-----------------------------------------------------|

                   D|-0----------------------0-------------------------------|
                   A|-1----------------------1-------------------------------|
       Guitar 2    F|-2----------------------2-------------------------------|
 (One strum each   C|-2----------------------2-------------------------------|
  cept' the last   G|-0----------------------0-------------------------------|
  C, which builds  D|-0----------------------0-------------------------------|
       up.)

                     (1:32)
                   d|---0----0----0----0----0----0----0----0----0---------|
                   A|----1----1----1----1----1----1----1----1----1--------|
       Guitar 1    F|-----2----2----2----2---------2----2----2----2-------|
                   C|-----------------------------------------------------|
                   G|-----------------------------------------------------|
                   D|-----------------------------------------------------|

                   d|-0----------------------0----------------------------|
                   A|-1----------------------1----------------------------|
       Guitar 2    F|-0----------------------0----------------------------|
                   C|-2----------------------2----------------------------|
                   G|-3----------------------3----------------------------|
                   D|-0----------------------0----------------------------|

                                  ~~~Verse 3~~~
                                 Same as Verse 2!!


                                 ~~~Last Chorus~~~

                     (1:58)
                   d|-15----15----12----10----15----15----12----10--------|
                   A|----10----10----10----10----10----10----10----10-----|
       Guitar 1    F|-----------------------------------------------------|
                   C|-----------------------------------------------------|
                   G|-----------------------------------------------------|
                   D|-----------------------------------------------------|

                   d|-0---------------------------------------------------|
                   A|-1---------------------------------------------------|
       Guitar 2    F|-2---------------------------------------------------|
                   C|-2---------------------------------------------------|
                   G|-0---------------------------------------------------|
                   D|-0---------------------------------------------------|

                     (2:03)
                   d|-12----12----10----10----15----15----12----10--------|
                   A|----10----10----10----10----10----10----10----10-----|
       Guitar 1    F|-----------------------------------------------------|
                   C|-----------------------------------------------------|
                   G|-----------------------------------------------------|
                   D|-----------------------------------------------------|

                   d|-0---------------------------------------------------|
                   A|-1---------------------------------------------------|
       Guitar 2    F|-0---------------------------------------------------|
                   C|-2---------------------------------------------------|
                   G|-3---------------------------------------------------|
                   D|-0---------------------------------------------------|


                    (2:07)
                   d|-12----12----10----10----15----15----12----10--------|
                   A|----10----10----10----10----10----10----10----10-----|
       Guitar 1    F|-----------------------------------------------------|
                   C|-----------------------------------------------------|
                   G|-----------------------------------------------------|
                   D|-----------------------------------------------------|

                   d|-1---------------------------------------------------|
                   A|-1---------------------------------------------------|
       Guitar 2    F|-2---------------------------------------------------|
                   C|-2---------------------------------------------------|
                   G|-3---------------------------------------------------|
                   D|-1---------------------------------------------------|


                    (2:12)
                   d|-12----12----10----10----15----15----12----10----10--|
                   A|----10----10----10----10----10----10----10----10-----|
       Guitar 1    F|-----------------------------------------------------|
                   C|-----------------------------------------------------|
                   G|-----------------------------------------------------|
                   D|-----------------------------------------------------|

                   d|-3---------------------------------------------------|
                   A|-3---------------------------------------------------|
       Guitar 2    F|-0---------------------------------------------------|
                   C|-0---------------------------------------------------|
                   G|-2---------------------------------------------------|
                   D|-3---------------------------------------------------|


                                     (2:16)
                                    d|--0--
                                    A|--1--
                    And Finish On   F|--2--
                                    C|--2--
                                    G|--0--
                                    D|--0--
comments
We did not receive enough feedback on this tab! Please rate:
print report bad tab
1 2 3 4 5
2 comments total.
0 reply
Alteo255 wrote on August 13 2010, 10:15 pm

For "Not Good Enough for Truth in Cliche", is that the version of the song released on "Dying Is Your Latest Fashion" or the earlier released version? The chorus kinda sounds confusing.

0 reply
Alex_Boro wrote on August 15 2010, 12:23 am

No, Its the "Dying Is Your Latest Fashion" one.
Im Very sure.

I want to post or [tab]
guest
You may want to rate the tab now too:
select rating
Please do not post tabs as comments. Select "correction" instead!