Oops, an error
Loading. Please wait.

Forget About Me Tab

ver1
ver1

Whole song

Interactive

More versions @911Tabs.com
2,448 views 21 this week
no commentswrite comment
1 2 3 4 5
accurate
x 1
Autoscroll
+/-
esc
set tempo
stop
Contributor
Difficulty
Tuning
intermediate
C G C F A D
WARNING: You are trying to view
                                    content from Ultimate-Guitar.com
                                    in an unauthorized application,
                                    which is prohibited.

                                    Please use an official Ultimate
                                    Guitar Tabs application for iPhone,
                                    iPad or Android to access legitimate
                                    chords, guitar, bass, and drum tabs
                                    from Ultimate-Guitar.com database.

                                    Type "ultimate guitar tabs" in Apple
                                    App Store's or Android Market's
                                    search to find the application.
----------------------------------------------------------------------------
                         Forget About Me
                          Escape the Fate
----------------------------------------------------------------------------

Forget About Me is my second favorite song off “Ungrateful”. It is just so powerful and 
fun in every aspect. The Breakdown is one of my favorites by ETF, and the solo, though 
short, is a blast. Enjoy!

Username: dkm817 (same on X box live)
Youtube Cover: http://www.youtube.com/watch?v=32FDBZpS4UQ
Email: guitardrums@rockfan.com

Guitar 1 Rhythmic (C G C F A D)
Guitar 2 Lead     (C G C F A D)

NOTE: This was exported off of guitar pro.


Guitar 1


     S S S E  S S E  S S S S S S S    S S S E  S S E  S S S S S S S
D||--------------------------------|--------------------------------|
A||--------------------------------|--------------------------------|
F||--5-7---------------3---3-5-5-5-|--5-7---------------3---3-------|
C||--5-7---7------8--0-3-0-3-5-5-5-|--5-7---7------8--0-3-0-3-5-5-5-|
G||--3-5------5------0-1-0-1-3-3-3-|--3-5------5------0-1-0-1-5-5-5-|
C||------0------0----0---0---------|------0------0----0---0---5-5-5-|


  S S S E  S S E  S S S S S S S    S S S S S S S S  S  S S  S S  S S  S
--------------------------------|---------------------------------------|
--------------------------------|---------------------------------------|
--5-7---------------3---3-5-5-5-|---------------------------------------|
--5-7---7------8--0-3-0-3-5-5-5-|--7-7-7-7-7-7-7-7-10-10-7-10-7-11-7-12-|
--3-5------5------0-1-0-1-3-3-3-|--7-7-7-7-7-7-7-7-10-10-7-10-7-11-7-12-|
------0------0----0---0---------|--7-7-7-7-7-7-7-7-10-10-7-10-7-11-7-12-|


                                  PM PM PM PM PM PM PM PM PM PM PM PM PM PM
  E   H        E   S E   S    S S S  S  S  S  S  S  S  S  S  S  S  S  S  S
---------------------------|------------------------------------------------|
---------------------------|------------------------------------------------|
---------------------------|------------------------------------------------|
--L\--------------12-L\--3-|--L-3-3--3--3--3--3--3--3--3--3--3--3--3--3--3--|
--L\--------------12-L\--3-|--L-3-3--3--3--3--3--3--3--3--3--3--3--3--3--3--|
--L\--------------12-L\--3-|--L-3-3--3--3--3--3--3--3--3--3--3--3--3--3--3--|


  PM PM PM PM PM PM PM PM PM PM PM PM PM PM PM PM
  S  S  S  S  S  S  S  S  S  S  S  S  S  S  S  S
--------------------------------------------------|
--------------------------------------------------|
--------------------------------------------------|
--8--8--8--8--8--8--8--8--8--8--8--8--8--8--8--8--|
--8--8--8--8--8--8--8--8--8--8--8--8--8--8--8--8--|
--8--8--8--8--8--8--8--8--8--8--8--8--8--8--8--8--|


  PM PM PM PM PM PM PM PM PM PM PM PM PM PM
  S  S  S  S  S  S  S  S  S  S  S  S  S  S   E
-------------------------------------------------|
-------------------------------------------------|
-------------------------------------------------|
--7--7--7--7--7--7--7--7--7--7--7--7--7--7--12\--|
--7--7--7--7--7--7--7--7--7--7--7--7--7--7--12\--|
--7--7--7--7--7--7--7--7--7--7--7--7--7--7--12\--|


  PM PM PM PM PM PM PM PM PM PM PM PM PM PM PM PM
  S  S  S  S  S  S  S  S  S  S  S  S  S  S  S  S
--------------------------------------------------|
--------------------------------------------------|
--7--7--7--7--7--7--7--7--7--7--7--7--7--7--7--7--|
--7--7--7--7--7--7--7--7--7--7--7--7--7--7--7--7--|
--5--5--5--5--5--5--5--5--5--5--5--5--5--5--5--5--|
--------------------------------------------------|


  PM PM PM PM PM PM PM PM PM PM PM PM PM PM PM PM
  S  S  S  S  S  S  S  S  S  S  S  S  S  S  S  S
--------------------------------------------------|
--------------------------------------------------|
--------------------------------------------------|
--3--3--3--3--3--3--3--3--3--3--3--3--3--3--3--3--|
--3--3--3--3--3--3--3--3--3--3--3--3--3--3--3--3--|
--3--3--3--3--3--3--3--3--3--3--3--3--3--3--3--3--|


  PM PM PM PM PM PM PM PM PM PM PM PM PM PM PM PM
  S  S  S  S  S  S  S  S  S  S  S  S  S  S  S  S
--------------------------------------------------|
--------------------------------------------------|
--------------------------------------------------|
--8--8--8--8--8--8--8--8--8--8--8--8--8--8--8--8--|
--8--8--8--8--8--8--8--8--8--8--8--8--8--8--8--8--|
--8--8--8--8--8--8--8--8--8--8--8--8--8--8--8--8--|


  PM PM PM PM PM PM PM PM PM PM PM PM PM PM
  S  S  S  S  S  S  S  S  S  S  S  S  S  S   E
-------------------------------------------------|
-------------------------------------------------|
-------------------------------------------------|
--7--7--7--7--7--7--7--7--7--7--7--7--7--7--12\--|
--7--7--7--7--7--7--7--7--7--7--7--7--7--7--12\--|
--7--7--7--7--7--7--7--7--7--7--7--7--7--7--12\--|


  S S S S S S S S S S S S S S S S    S S S S S S S S S S S S S S S S
----------------------------------|----------------------------------|
----------------------------------|----------------------------------|
----------------------------x-x-x-|----------------------------------|
--7-7---7-7---7-7---7-7---7-x-x-x-|--7-7---7-7---7-7-----------------|
--7-7---7-7---7-7---7-7---7-x-x-x-|--7-7---7-7---7-7-----------------|
--7-7---7-7---7-7---7-7---7-------|--7-7---7-7---7-7-----------------|


  S S S S S S S S S S S S S S S S    S S S S S S S S S S S S S S S S
----------------------------------|----------------------------------|
----------------------------------|----------------------------------|
----------------------------------|----------------------------------|
--0-0-0-0-0-0-0-0-0-0-0-0-0-0-0-0-|--3-3-3-3-3-3-3-3-3-3-3-3-3-3-3-3-|
--0-0-0-0-0-0-0-0-0-0-0-0-0-0-0-0-|--3-3-3-3-3-3-3-3-3-3-3-3-3-3-3-3-|
--0-0-0-0-0-0-0-0-0-0-0-0-0-0-0-0-|--3-3-3-3-3-3-3-3-3-3-3-3-3-3-3-3-|


  S S S S S S S S S S S S S S S S    S S S S S S S S S S S S S S S S
----------------------------------|----------------------------------|
----------------------------------|----------------------------------|
----------------------------------|----------------------------------|
--8-8-8-8-8-8-8-8-8-8-8-8-8-8-8-8-|--7-7-7-7-7-7-7-7-7-7-7-7-7-7-7-7-|
--8-8-8-8-8-8-8-8-8-8-8-8-8-8-8-8-|--7-7-7-7-7-7-7-7-7-7-7-7-7-7-7-7-|
--8-8-8-8-8-8-8-8-8-8-8-8-8-8-8-8-|--7-7-7-7-7-7-7-7-7-7-7-7-7-7-7-7-|


  S S S S S S S S S S S S S S S S    S S S S S S S S S S S S S S S S
----------------------------------|----------------------------------|
----------------------------------|----------------------------------|
----------------------------------|----------------------------------|
--0-0-0-0-0-0-0-0-0-0-0-0-0-0-0-0-|--3-3-3-3-3-3-3-3-3-3-3-3-3-3-3-3-|
--0-0-0-0-0-0-0-0-0-0-0-0-0-0-0-0-|--3-3-3-3-3-3-3-3-3-3-3-3-3-3-3-3-|
--0-0-0-0-0-0-0-0-0-0-0-0-0-0-0-0-|--3-3-3-3-3-3-3-3-3-3-3-3-3-3-3-3-|


  S S S S S S S S S S S S S S S S    S S S S S S S S Q     E  E
----------------------------------|------------------------------|
----------------------------------|------------------------------|
----------------------------------|------------------------------|
--8-8-8-8-8-8-8-8-8-8-8-8-8-8-8-8-|--7-7-7-7-7-7-7-7-7\----------|
--8-8-8-8-8-8-8-8-8-8-8-8-8-8-8-8-|--7-7-7-7-7-7-7-7-7\----------|
--8-8-8-8-8-8-8-8-8-8-8-8-8-8-8-8-|--7-7-7-7-7-7-7-7-7\----------|


  S S S E  S S E  S S S S S S S    S S S E  S S E  S S S S S S S
--------------------------------|--------------------------------|
--------------------------------|--------------------------------|
--5-7---------------3---3-5-5-5-|--5-7---------------3---3-------|
--5-7---7------8--0-3-0-3-5-5-5-|--5-7---7------8--0-3-0-3-5-5-5-|
--3-5------5------0-1-0-1-3-3-3-|--3-5------5------0-1-0-1-5-5-5-|
------0------0----0---0---------|------0------0----0---0---5-5-5-|


  S S S E  S S E  S S S S S S S    S S S S S S S S  S  S S  S S  S S  S
--------------------------------|---------------------------------------|
--------------------------------|---------------------------------------|
--5-7---------------3---3-5-5-5-|---------------------------------------|
--5-7---7------8--0-3-0-3-5-5-5-|--7-7-7-7-7-7-7-7-10-10-7-10-7-11-7-12-|
--3-5------5------0-1-0-1-3-3-3-|--7-7-7-7-7-7-7-7-10-10-7-10-7-11-7-12-|
------0------0----0---0---------|--7-7-7-7-7-7-7-7-10-10-7-10-7-11-7-12-|


  E   H        Q    E     W                   W
-----------------------|-------------------|-------------------|
-----------------------|-------------------|-------------------|
-----------------------|-------------------|-------------------|
--L\--0--------L----L--|--3----------------|--8----------------|
--L\-------------------|-------------------|-------------------|
--L\-------------------|-------------------|-------------------|


                           PM PM PM PM PM PM PM PM PM PM PM PM PM PM PM PM
  H        Q    E   E      S  S  S  S  S  S  S  S  S  S  S  S  S  S  S  S
------------------------|--------------------------------------------------|
------------------------|--------------------------------------------------|
------------------------|--7--7--7--7--7--7--7--7--7--7--7--7--7--7--7--7--|
--7--------L----L--12\--|--7--7--7--7--7--7--7--7--7--7--7--7--7--7--7--7--|
-------------------12\--|--5--5--5--5--5--5--5--5--5--5--5--5--5--5--5--5--|
-------------------12\--|--------------------------------------------------|


  PM PM PM PM PM PM PM PM PM PM PM PM PM PM PM PM
  S  S  S  S  S  S  S  S  S  S  S  S  S  S  S  S
--------------------------------------------------|
--------------------------------------------------|
--------------------------------------------------|
--3--3--3--3--3--3--3--3--3--3--3--3--3--3--3--3--|
--3--3--3--3--3--3--3--3--3--3--3--3--3--3--3--3--|
--3--3--3--3--3--3--3--3--3--3--3--3--3--3--3--3--|


  PM PM PM PM PM PM PM PM PM PM PM PM PM PM PM PM
  S  S  S  S  S  S  S  S  S  S  S  S  S  S  S  S
--------------------------------------------------|
--------------------------------------------------|
--------------------------------------------------|
--8--8--8--8--8--8--8--8--8--8--8--8--8--8--8--8--|
--8--8--8--8--8--8--8--8--8--8--8--8--8--8--8--8--|
--8--8--8--8--8--8--8--8--8--8--8--8--8--8--8--8--|


  PM PM PM PM PM PM PM PM PM PM PM PM PM PM
  S  S  S  S  S  S  S  S  S  S  S  S  S  S   E
-------------------------------------------------|
-------------------------------------------------|
-------------------------------------------------|
--7--7--7--7--7--7--7--7--7--7--7--7--7--7--12\--|
--7--7--7--7--7--7--7--7--7--7--7--7--7--7--12\--|
--7--7--7--7--7--7--7--7--7--7--7--7--7--7--12\--|


  S S S S S S S S S S S S S S S S    S S S S S S S S S S S S S S S S
----------------------------------|----------------------------------|
----------------------------------|----------------------------------|
----------------------------x-x-x-|----------------------------------|
--7-7---7-7---7-7---7-7---7-x-x-x-|--0-0-0-0-0-0-0-0-0-0-0-0-0-0-0-0-|
--7-7---7-7---7-7---7-7---7-x-x-x-|--0-0-0-0-0-0-0-0-0-0-0-0-0-0-0-0-|
--7-7---7-7---7-7---7-7---7-------|--0-0-0-0-0-0-0-0-0-0-0-0-0-0-0-0-|


  S S S S S S S S S S S S S S S S    S S S S S S S S S S S S S S S S
----------------------------------|----------------------------------|
----------------------------------|----------------------------------|
----------------------------------|----------------------------------|
--3-3-3-3-3-3-3-3-3-3-3-3-3-3-3-3-|--8-8-8-8-8-8-8-8-8-8-8-8-8-8-8-8-|
--3-3-3-3-3-3-3-3-3-3-3-3-3-3-3-3-|--8-8-8-8-8-8-8-8-8-8-8-8-8-8-8-8-|
--3-3-3-3-3-3-3-3-3-3-3-3-3-3-3-3-|--8-8-8-8-8-8-8-8-8-8-8-8-8-8-8-8-|


  S S S S S S S S S S S S S S S S    S S S S S S S S S S S S S S S S
----------------------------------|----------------------------------|
----------------------------------|----------------------------------|
----------------------------------|----------------------------------|
--7-7-7-7-7-7-7-7-7-7-7-7-7-7-7-7-|--0-0-0-0-0-0-0-0-0-0-0-0-0-0-0-0-|
--7-7-7-7-7-7-7-7-7-7-7-7-7-7-7-7-|--0-0-0-0-0-0-0-0-0-0-0-0-0-0-0-0-|
--7-7-7-7-7-7-7-7-7-7-7-7-7-7-7-7-|--0-0-0-0-0-0-0-0-0-0-0-0-0-0-0-0-|


  S S S S S S S S S S S S S S S S    S S S S S S S S S S S S S S S S
----------------------------------|----------------------------------|
----------------------------------|----------------------------------|
----------------------------------|----------------------------------|
--3-3-3-3-3-3-3-3-3-3-3-3-3-3-3-3-|--8-8-8-8-8-8-8-8-8-8-8-8-8-8-8-8-|
--3-3-3-3-3-3-3-3-3-3-3-3-3-3-3-3-|--8-8-8-8-8-8-8-8-8-8-8-8-8-8-8-8-|
--3-3-3-3-3-3-3-3-3-3-3-3-3-3-3-3-|--8-8-8-8-8-8-8-8-8-8-8-8-8-8-8-8-|


  S S S S S S S S Q     E  E     W                   W
------------------------------|-------------------|--0----------------|
------------------------------|-------------------|--3----------------|
------------------------------|-------------------|-------------------|
--7-7-7-7-7-7-7-7-7\----------|--0----------------|--L----------------|
--7-7-7-7-7-7-7-7-7\----------|--0----------------|--L----------------|
--7-7-7-7-7-7-7-7-7\----------|--0----------------|--L----------------|


  W                   H        H
-------------------|--------------------|
-------------------|--------------------|
-------------------|--------------------|
--0----------------|--L-----------------|
--0----------------|--L-----------------|
--0----------------|--L-----------------|


  PM      PM PM PM       PM PM PM   PM   PM
  S  E  S T  T  S  S S S S  S  S  S S  S S
--------------------------------------------|
--------------------------------------------|
--------------------------------------------|
--0--0--L-0--0--0--------0--0--0----0----0--|
--0--0--L-0--0--0--------0--0--0----0----0--|
--0--0--L-0--0--0--------0--0--0----0----0--|


    PM PM PM PM PM PM PM
  S S  T  T  S  T  T  S  S S S S S S S S S S
---------------------------------------------|
---------------------------------------------|
---------------------------------------------|
----0--0--0--0--0--0--0----------------------|
----0--0--0--0--0--0--0----------------------|
----0--0--0--0--0--0--0------0-0---------0---|


  PM      PM PM PM       PM PM PM   PM   PM
  S  E  S T  T  S  S S S S  S  S  S S  S S
--------------------------------------------|
--------------------------------------------|
--------------------------------------------|
--0--0--L-0--0--0--------0--0--0----0----0--|
--0--0--L-0--0--0--------0--0--0----0----0--|
--0--0--L-0--0--0--------0--0--0----0----0--|


    PM PM PM PM PM PM PM             PM PM
  S S  T  T  S  T  T  S  S S S S S S S  S  S S
-----------------------------------------------|
-----------------------------------------------|
-----------------------------------------------|
----0--0--0--0--0--0--0--------------0--0------|
----0--0--0--0--0--0--0--------------0--0------|
----0--0--0--0--0--0--0--------------0--0------|


  PM      PM PM PM       PM PM PM   PM   PM
  S  E  S T  T  S  S S S S  S  S  S S  S S
--------------------------------------------|
--------------------------------------------|
--------------------------------------------|
--0--0--L-0--0--0--------0--0--0----0----0--|
--0--0--L-0--0--0--------0--0--0----0----0--|
--0--0--L-0--0--0--------0--0--0----0----0--|


    PM PM PM PM PM PM PM
  S S  T  T  S  T  T  S  S S S S S S S S S S
---------------------------------------------|
---------------------------------------------|
---------------------------------------------|
----0--0--0--0--0--0--0----------------------|
----0--0--0--0--0--0--0----------------------|
----0--0--0--0--0--0--0------------0-0-------|


  PM      PM PM PM       PM PM PM   PM   PM
  S  E  S T  T  S  S S S S  S  S  S S  S S
--------------------------------------------|
--------------------------------------------|
--------------------------------------------|
--0--0--L-0--0--0--------0--0--0----0----0--|
--0--0--L-0--0--0--------0--0--0----0----0--|
--0--0--L-0--0--0--------0--0--0----0----0--|


    PM PM PM PM PM PM PM             PM PM
  S S  T  T  S  T  T  S  S S S S S S S  S  S S
-----------------------------------------------|
-----------------------------------------------|
-----------------------------------------------|
----0--0--0--0--0--0--0--------------0--0------|
----0--0--0--0--0--0--0--------------0--0------|
----0--0--0--0--0--0--0--------------0--0------|


  S S S S S S S S S S S S S S S S    S S S S S S S S S S S S S S S S
----------------------------------|----------------------------------|
--3-3-3-3-3-3-3-3-5-5-5-5-5-5-5-5-|--6-6-6-6-6-6-6-6-5-5-5-5-5-5-5-5-|
--2-2-2-2-2-2-2-2-4-4-4-4-4-4-4-4-|--5-5-5-5-5-5-5-5-4-4-4-4-4-4-4-4-|
--0-0-0-0-0-0-0-0-2-2-2-2-2-2-2-2-|--3-3-3-3-3-3-3-3-2-2-2-2-2-2-2-2-|
--0-0-0-0-0-0-0-0-2-2-2-2-2-2-2-2-|--3-3-3-3-3-3-3-3-2-2-2-2-2-2-2-2-|
--0-0-0-0-0-0-0-0-2-2-2-2-2-2-2-2-|--3-3-3-3-3-3-3-3-2-2-2-2-2-2-2-2-|


  S S S S S S S S S S S S S S S S    S S S S S S S S S S S S S S S S
----------------------------------|----------------------------------|
--3-3-3-3-3-3-3-3-5-5-5-5-5-5-5-5-|--6-6-6-6-6-6-6-6-8-8-8-8-8-8-8-8-|
--2-2-2-2-2-2-2-2-4-4-4-4-4-4-4-4-|--5-5-5-5-5-5-5-5-7-7-7-7-7-7-7-7-|
--0-0-0-0-0-0-0-0-2-2-2-2-2-2-2-2-|--3-3-3-3-3-3-3-3-5-5-5-5-5-5-5-5-|
--0-0-0-0-0-0-0-0-2-2-2-2-2-2-2-2-|--3-3-3-3-3-3-3-3-5-5-5-5-5-5-5-5-|
--0-0-0-0-0-0-0-0-2-2-2-2-2-2-2-2-|--3-3-3-3-3-3-3-3-5-5-5-5-5-5-5-5-|


  S S S S S S S S S S S S S S S S    S S S S S S S S S S S S S S S S
----------------------------------|----------------------------------|
----------------------------------|----------------------------------|
----------------------------------|----------------------------------|
--0-0-0-0-0-0-0-0-0-0-0-0-0-0-0-0-|--3-3-3-3-3-3-3-3-3-3-3-3-3-3-3-3-|
--0-0-0-0-0-0-0-0-0-0-0-0-0-0-0-0-|--3-3-3-3-3-3-3-3-3-3-3-3-3-3-3-3-|
--0-0-0-0-0-0-0-0-0-0-0-0-0-0-0-0-|--3-3-3-3-3-3-3-3-3-3-3-3-3-3-3-3-|


  S S S S S S S S S S S S S S S S    S S S S S S S S S S S S S S S S
----------------------------------|----------------------------------|
----------------------------------|----------------------------------|
----------------------------------|----------------------------------|
--8-8-8-8-8-8-8-8-8-8-8-8-8-8-8-8-|--7-7-7-7-7-7-7-7-7-7-7-7-7-7-7-7-|
--8-8-8-8-8-8-8-8-8-8-8-8-8-8-8-8-|--7-7-7-7-7-7-7-7-7-7-7-7-7-7-7-7-|
--8-8-8-8-8-8-8-8-8-8-8-8-8-8-8-8-|--7-7-7-7-7-7-7-7-7-7-7-7-7-7-7-7-|


  S S S S S S S S S S S S S S S S    S S S S S S S S S S S S S S S S
----------------------------------|----------------------------------|
----------------------------------|----------------------------------|
----------------------------------|----------------------------------|
--0-0-0-0-0-0-0-0-0-0-0-0-0-0-0-0-|--3-3-3-3-3-3-3-3-3-3-3-3-3-3-3-3-|
--0-0-0-0-0-0-0-0-0-0-0-0-0-0-0-0-|--3-3-3-3-3-3-3-3-3-3-3-3-3-3-3-3-|
--0-0-0-0-0-0-0-0-0-0-0-0-0-0-0-0-|--3-3-3-3-3-3-3-3-3-3-3-3-3-3-3-3-|


  S S S S S S S S S S S S S S S S    S S S S S S S S Q     E  E
----------------------------------|------------------------------|
----------------------------------|------------------------------|
----------------------------------|------------------------------|
--8-8-8-8-8-8-8-8-8-8-8-8-8-8-8-8-|--7-7-7-7-7-7-7-7-7\----------|
--8-8-8-8-8-8-8-8-8-8-8-8-8-8-8-8-|--7-7-7-7-7-7-7-7-7\----------|
--8-8-8-8-8-8-8-8-8-8-8-8-8-8-8-8-|--7-7-7-7-7-7-7-7-7\----------|


  PM      PM PM PM       PM PM PM   PM   PM
  S  E  S T  T  S  S S S S  S  S  S S  S S
--------------------------------------------|
--------------------------------------------|
--------------------------------------------|
--0--0--L-0--0--0--------0--0--0----0----0--|
--0--0--L-0--0--0--------0--0--0----0----0--|
--0--0--L-0--0--0--------0--0--0----0----0--|


    PM PM PM PM PM PM PM
  S S  T  T  S  T  T  S  S S S S S S S S S S
---------------------------------------------|
---------------------------------------------|
---------------------------------------------|
----0--0--0--0--0--0--0----------------------|
----0--0--0--0--0--0--0----------------------|
----0--0--0--0--0--0--0------------0-0-------|


  PM      PM PM PM       PM PM PM   PM   PM
  S  E  S T  T  S  S S S S  S  S  S S  S S
--------------------------------------------|
--------------------------------------------|
--------------------------------------------|
--0--0--L-0--0--0--------0--0--0----0----0--|
--0--0--L-0--0--0--------0--0--0----0----0--|
--0--0--L-0--0--0--------0--0--0----0----0--|


    PM PM PM PM PM PM PM             PM PM
  S S  T  T  S  T  T  S  S S S S S S S  S  S S
-----------------------------------------------|
-----------------------------------------------|
-----------------------------------------------|
----0--0--0--0--0--0--0--------------0--0------|
----0--0--0--0--0--0--0--------------0--0------|
----0--0--0--0--0--0--0--------------0--0------|


  PM      PM PM PM
  S  E  S T  T  S  H        E
-------------------------------||
-------------------------------||
-------------------------------||
--0--0--L-0--0--0--------------||
--0--0--L-0--0--0--------------||
--0--0--L-0--0--0--------------||


Guitar 2

     S S S  E  S S  E  S S S S S S S    S S S  E  S S  E  S S S S S S S
D||----------------------------------|----------------------------------|
A||--------10------11----------------|--------10------11----------------|
F||--5-7-------7---------3---3-5-5-5-|--5-7-------7---------3---3-------|
C||--5-7-0-------0-----0-3-0-3-5-5-5-|--5-7-0-------0-----0-3-0-3-5-5-5-|
G||--3-5---------------0-1-0-1-3-3-3-|--3-5---------------0-1-0-1-5-5-5-|
C||--------------------0---0---------|--------------------0---0---5-5-5-|


  S S S  E  S S  E  S S S S S S S    S S S S S S S S  S  S S  S S  S S  S
----------------------------------|---------------------------------------|
--------10------11----------------|---------------------------------------|
--5-7-------7---------3---3-5-5-5-|---------------------------------------|
--5-7-0-------0-----0-3-0-3-5-5-5-|--7-7-7-7-7-7-7-7-10-10-7-10-7-11-7-12-|
--3-5---------------0-1-0-1-3-3-3-|--7-7-7-7-7-7-7-7-10-10-7-10-7-11-7-12-|
--------------------0---0---------|--7-7-7-7-7-7-7-7-10-10-7-10-7-11-7-12-|


                                  PM PM PM PM PM PM PM PM PM PM PM PM PM PM
  E   H        E   S E   S    S S S  S  S  S  S  S  S  S  S  S  S  S  S  S
---------------------------|------------------------------------------------|
---------------------------|------------------------------------------------|
---------------------------|------------------------------------------------|
--L\--------------12-L\--3-|--L-3-3--3--3--3--3--3--3--3--3--3--3--3--3--3--|
--L\--------------12-L\--3-|--L-3-3--3--3--3--3--3--3--3--3--3--3--3--3--3--|
--L\--------------12-L\--3-|--L-3-3--3--3--3--3--3--3--3--3--3--3--3--3--3--|


  PM PM PM PM PM PM PM PM PM PM PM PM PM PM PM PM
  S  S  S  S  S  S  S  S  S  S  S  S  S  S  S  S
--------------------------------------------------|
--------------------------------------------------|
--------------------------------------------------|
--8--8--8--8--8--8--8--8--8--8--8--8--8--8--8--8--|
--8--8--8--8--8--8--8--8--8--8--8--8--8--8--8--8--|
--8--8--8--8--8--8--8--8--8--8--8--8--8--8--8--8--|


  PM PM PM PM PM PM PM PM PM PM PM PM PM PM
  S  S  S  S  S  S  S  S  S  S  S  S  S  S   E
-------------------------------------------------|
-------------------------------------------------|
-------------------------------------------------|
--7--7--7--7--7--7--7--7--7--7--7--7--7--7--12\--|
--7--7--7--7--7--7--7--7--7--7--7--7--7--7--12\--|
--7--7--7--7--7--7--7--7--7--7--7--7--7--7--12\--|


  PM PM PM PM PM PM PM PM PM PM PM PM PM PM PM PM
  S  S  S  S  S  S  S  S  S  S  S  S  S  S  S  S
--------------------------------------------------|
--------------------------------------------------|
--7--7--7--7--7--7--7--7--7--7--7--7--7--7--7--7--|
--7--7--7--7--7--7--7--7--7--7--7--7--7--7--7--7--|
--5--5--5--5--5--5--5--5--5--5--5--5--5--5--5--5--|
--------------------------------------------------|


  PM PM PM PM PM PM PM PM PM PM PM PM PM PM PM PM
  S  S  S  S  S  S  S  S  S  S  S  S  S  S  S  S
--------------------------------------------------|
--------------------------------------------------|
--------------------------------------------------|
--3--3--3--3--3--3--3--3--3--3--3--3--3--3--3--3--|
--3--3--3--3--3--3--3--3--3--3--3--3--3--3--3--3--|
--3--3--3--3--3--3--3--3--3--3--3--3--3--3--3--3--|


  PM PM PM PM PM PM PM PM PM PM PM PM PM PM PM PM
  S  S  S  S  S  S  S  S  S  S  S  S  S  S  S  S
--------------------------------------------------|
--------------------------------------------------|
--------------------------------------------------|
--8--8--8--8--8--8--8--8--8--8--8--8--8--8--8--8--|
--8--8--8--8--8--8--8--8--8--8--8--8--8--8--8--8--|
--8--8--8--8--8--8--8--8--8--8--8--8--8--8--8--8--|


  PM PM PM PM PM PM PM PM PM PM PM PM PM PM
  S  S  S  S  S  S  S  S  S  S  S  S  S  S   E
-------------------------------------------------|-----|-----|
-------------------------------------------------|-----|-----|
-------------------------------------------------|-----|-----|
--7--7--7--7--7--7--7--7--7--7--7--7--7--7--12\--|-----|-----|
--7--7--7--7--7--7--7--7--7--7--7--7--7--7--12\--|-----|-----|
--7--7--7--7--7--7--7--7--7--7--7--7--7--7--12\--|-----|-----|


   S  S  S  S  S  S  S  S  S  S  S  S  S  S  S  S
--------------------------------------------------|
--15-15-15-15-15-15-15-15-15-15-15-15-15-15-15-15-|
---x--x--x--x--x--x--x--x--x--x--x--x--x--x--x--x-|
--12-12-12-12-12-12-12-12-12-12-12-12-12-12-12-12-|
--------------------------------------------------|
--------------------------------------------------|


   S  S  S  S  S  S  S  S  S  S  S  S  S  S  S  S
--------------------------------------------------|
--17-17-17-17-17-17-17-17-17-17-17-17-17-17-17-17-|
---x--x--x--x--x--x--x--x--x--x--x--x--x--x--x--x-|
--14-14-14-14-14-14-14-14-14-14-14-14-14-14-14-14-|
--------------------------------------------------|
--------------------------------------------------|


   S  S  S  S  S  S  S  S  S  S  S  S  S  S  S  S
--------------------------------------------------|
--18-18-18-18-18-18-18-18-20-20-20-20-20-20-20-20-|
---x--x--x--x--x--x--x--x--x--x--x--x--x--x--x--x-|
--15-15-15-15-15-15-15-15-17-17-17-17-17-17-17-17-|
--------------------------------------------------|
--------------------------------------------------|


   S  S  S  S  S  S  S  S  S  S  S  S  S  S  S  S
--------------------------------------------------|
--17-17-17-17-17-17-17-17-18-18-18-18-18-18-18-18-|
---x--x--x--x--x--x--x--x--x--x--x--x--x--x--x--x-|
--14-14-14-14-14-14-14-14-15-15-15-15-15-15-15-15-|
--------------------------------------------------|
--------------------------------------------------|


   S  S  S  S  S  S  S  S  S  S  S  S  S  S  S  S
--------------------------------------------------|
--15-15-15-15-15-15-15-15-15-15-15-15-15-15-15-15-|
---x--x--x--x--x--x--x--x--x--x--x--x--x--x--x--x-|
--12-12-12-12-12-12-12-12-12-12-12-12-12-12-12-12-|
--------------------------------------------------|
--------------------------------------------------|


   S  S  S  S  S  S  S  S  S  S  S  S  S  S  S  S
--------------------------------------------------|
--17-17-17-17-17-17-17-17-17-17-17-17-17-17-17-17-|
---x--x--x--x--x--x--x--x--x--x--x--x--x--x--x--x-|
--14-14-14-14-14-14-14-14-14-14-14-14-14-14-14-14-|
--------------------------------------------------|
--------------------------------------------------|


   S  S  S  S  S  S  S  S  S  S  S  S  S  S  S  S
--------------------------------------------------|
--18-18-18-18-18-18-18-18-20-20-20-20-20-20-20-20-|
---x--x--x--x--x--x--x--x--x--x--x--x--x--x--x--x-|
--15-15-15-15-15-15-15-15-17-17-17-17-17-17-17-17-|
--------------------------------------------------|
--------------------------------------------------|


   S  S  S  S  S  S  S  S  Q     E  E     S S S  E  S S  E  S S S S S S S
---------------------------------------|----------------------------------|
--17-17-17-17-17-17-17-17-17\----------|--------10------11----------------|
---x--x--x--x--x--x--x--x--x-----------|--5-7-------7---------3---3-5-5-5-|
--14-14-14-14-14-14-14-14-14\----------|--5-7-0-------0-----0-3-0-3-5-5-5-|
---------------------------------------|--3-5---------------0-1-0-1-3-3-3-|
---------------------------------------|--------------------0---0---------|


  S S S  E  S S  E  S S S S S S S    S S S  E  S S  E  S S S S S S S
----------------------------------|----------------------------------|
--------10------11----------------|--------10------11----------------|
--5-7-------7---------3---3-------|--5-7-------7---------3---3-5-5-5-|
--5-7-0-------0-----0-3-0-3-5-5-5-|--5-7-0-------0-----0-3-0-3-5-5-5-|
--3-5---------------0-1-0-1-5-5-5-|--3-5---------------0-1-0-1-3-3-3-|
--------------------0---0---5-5-5-|--------------------0---0---------|


  S S S S S S S S  S  S S  S S  S S  S    E   H        Q    E
---------------------------------------|-----------------------|-----|-----|
---------------------------------------|-----------------------|-----|-----|
---------------------------------------|-----------------------|-----|-----|
--7-7-7-7-7-7-7-7-10-10-7-10-7-11-7-12-|--L\-------------------|-----|-----|
--7-7-7-7-7-7-7-7-10-10-7-10-7-11-7-12-|--L\-------------------|-----|-----|
--7-7-7-7-7-7-7-7-10-10-7-10-7-11-7-12-|--L\-------------------|-----|-----|


                           PM PM PM PM PM PM PM PM PM PM PM PM PM PM PM PM
  H        Q    E   E      S  S  S  S  S  S  S  S  S  S  S  S  S  S  S  S
------------------------|--------------------------------------------------|
------------------------|--------------------------------------------------|
------------------------|--7--7--7--7--7--7--7--7--7--7--7--7--7--7--7--7--|
-------------------12\--|--7--7--7--7--7--7--7--7--7--7--7--7--7--7--7--7--|
-------------------12\--|--5--5--5--5--5--5--5--5--5--5--5--5--5--5--5--5--|
-------------------12\--|--------------------------------------------------|


  PM PM PM PM PM PM PM PM PM PM PM PM PM PM PM PM
  S  S  S  S  S  S  S  S  S  S  S  S  S  S  S  S
--------------------------------------------------|
--------------------------------------------------|
--------------------------------------------------|
--3--3--3--3--3--3--3--3--3--3--3--3--3--3--3--3--|
--3--3--3--3--3--3--3--3--3--3--3--3--3--3--3--3--|
--3--3--3--3--3--3--3--3--3--3--3--3--3--3--3--3--|


  PM PM PM PM PM PM PM PM PM PM PM PM PM PM PM PM
  S  S  S  S  S  S  S  S  S  S  S  S  S  S  S  S
--------------------------------------------------|
--------------------------------------------------|
--------------------------------------------------|
--8--8--8--8--8--8--8--8--8--8--8--8--8--8--8--8--|
--8--8--8--8--8--8--8--8--8--8--8--8--8--8--8--8--|
--8--8--8--8--8--8--8--8--8--8--8--8--8--8--8--8--|


  PM PM PM PM PM PM PM PM PM PM PM PM PM PM
  S  S  S  S  S  S  S  S  S  S  S  S  S  S   E      E  E  E  E  E  E  S S S S
-------------------------------------------------|----------------------------|
-------------------------------------------------|----------------------------|
-------------------------------------------------|----------------------x-x-x-|
--7--7--7--7--7--7--7--7--7--7--7--7--7--7--12\--|----------------------x-x-x-|
--7--7--7--7--7--7--7--7--7--7--7--7--7--7--12\--|----------------------x-x-x-|
--7--7--7--7--7--7--7--7--7--7--7--7--7--7--12\--|----------------------------|


   S  S  S  S  S  S  S  S  S  S  S  S  S  S  S  S
--------------------------------------------------|
--15-15-15-15-15-15-15-15-15-15-15-15-15-15-15-15-|
---x--x--x--x--x--x--x--x--x--x--x--x--x--x--x--x-|
--12-12-12-12-12-12-12-12-12-12-12-12-12-12-12-12-|
--------------------------------------------------|
--------------------------------------------------|


   S  S  S  S  S  S  S  S  S  S  S  S  S  S  S  S
--------------------------------------------------|
--17-17-17-17-17-17-17-17-17-17-17-17-17-17-17-17-|
---x--x--x--x--x--x--x--x--x--x--x--x--x--x--x--x-|
--14-14-14-14-14-14-14-14-14-14-14-14-14-14-14-14-|
--------------------------------------------------|
--------------------------------------------------|


   S  S  S  S  S  S  S  S  S  S  S  S  S  S  S  S
--------------------------------------------------|
--18-18-18-18-18-18-18-18-20-20-20-20-20-20-20-20-|
---x--x--x--x--x--x--x--x--x--x--x--x--x--x--x--x-|
--15-15-15-15-15-15-15-15-17-17-17-17-17-17-17-17-|
--------------------------------------------------|
--------------------------------------------------|


   S  S  S  S  S  S  S  S  S  S  S  S  S  S  S  S
--------------------------------------------------|
--17-17-17-17-17-17-17-17-18-18-18-18-18-18-18-18-|
---x--x--x--x--x--x--x--x--x--x--x--x--x--x--x--x-|
--14-14-14-14-14-14-14-14-15-15-15-15-15-15-15-15-|
--------------------------------------------------|
--------------------------------------------------|


   S  S  S  S  S  S  S  S  S  S  S  S  S  S  S  S
--------------------------------------------------|
--15-15-15-15-15-15-15-15-15-15-15-15-15-15-15-15-|
---x--x--x--x--x--x--x--x--x--x--x--x--x--x--x--x-|
--12-12-12-12-12-12-12-12-12-12-12-12-12-12-12-12-|
--------------------------------------------------|
--------------------------------------------------|


   S  S  S  S  S  S  S  S  S  S  S  S  S  S  S  S
--------------------------------------------------|
--17-17-17-17-17-17-17-17-17-17-17-17-17-17-17-17-|
---x--x--x--x--x--x--x--x--x--x--x--x--x--x--x--x-|
--14-14-14-14-14-14-14-14-14-14-14-14-14-14-14-14-|
--------------------------------------------------|
--------------------------------------------------|


   S  S  S  S  S  S  S  S  S  S  S  S  S  S  S  S
--------------------------------------------------|
--18-18-18-18-18-18-18-18-20-20-20-20-20-20-20-20-|
---x--x--x--x--x--x--x--x--x--x--x--x--x--x--x--x-|
--15-15-15-15-15-15-15-15-17-17-17-17-17-17-17-17-|
--------------------------------------------------|
--------------------------------------------------|


                                              PM       PM     PM   PM
   S  S  S  S  S  S  S  S  Q     E  E     S S S   E  S S   E  S  S S  S S S S
---------------------------------------|--------------------------------------|
--17-17-17-17-17-17-17-17-17\----------|---------10-------11------------------|
---x--x--x--x--x--x--x--x--x-----------|--5-7--------7-----------3----3-5-5-5-|
--14-14-14-14-14-14-14-14-14\----------|------0--------0------0----0----------|
---------------------------------------|--------------------------------------|
---------------------------------------|--------------------------------------|


      PM       PM     PM   PM                PM       PM     PM   PM
  S S S   E  S S   E  S  S S  S S S S    S S S   E  S S   E  S  S S  S S S S
--------------------------------------|--------------------------------------|
---------10-------11------------------|---------10-------11------------------|
--5-7--------7-----------3----3-0-0-0-|--5-7--------7-----------3----3-5-5-5-|
------0--------0------0----0----------|------0--------0------0----0----------|
--------------------------------------|--------------------------------------|
--------------------------------------|--------------------------------------|


      PM       PM                   PM      PM PM PM       PM PM PM   PM   PM
  S S S   E  S S   E  E  E  E  S    S  E  S T  T  S  S S S S  S  S  S S  S S
---------------------------------|--------------------------------------------|
---------10-------11-------------|--------------------------------------------|
--5-7--------7-------------------|--------------------------------------------|
------0--------0-----------------|--0--0--L-0--0--0--------0--0--0----0----0--|
---------------------------------|--0--0--L-0--0--0--------0--0--0----0----0--|
---------------------------------|--0--0--L-0--0--0--------0--0--0----0----0--|


    PM PM PM PM PM PM PM
  S S  T  T  S  T  T  S  S S S S S S S S S S
---------------------------------------------|
---------------------------------------------|
---------------------------------------------|
----0--0--0--0--0--0--0----------------------|
----0--0--0--0--0--0--0----------------------|
----0--0--0--0--0--0--0------------0-0-------|


  PM      PM PM PM       PM PM PM   PM   PM
  S  E  S T  T  S  S S S S  S  S  S S  S S
--------------------------------------------|
--------------------------------------------|
--------------------------------------------|
--0--0--L-0--0--0--------0--0--0----0----0--|
--0--0--L-0--0--0--------0--0--0----0----0--|
--0--0--L-0--0--0--------0--0--0----0----0--|


    PM PM PM PM PM PM PM             PM PM
  S S  T  T  S  T  T  S  S S S S S S S  S  S S
-----------------------------------------------|
-----------------------------------------------|
-----------------------------------------------|
----0--0--0--0--0--0--0--------------0--0------|
----0--0--0--0--0--0--0--------------0--0------|
----0--0--0--0--0--0--0--------------0--0------|


  PM      PM PM PM       PM PM PM   PM   PM
  S  E  S T  T  S  S S S S  S  S  S S  S S
--------------------------------------------|
--------------------------------------------|
--------------------------------------------|
--0--0--L-0--0--0--------0--0--0----0----0--|
--0--0--L-0--0--0--------0--0--0----0----0--|
--0--0--L-0--0--0--------0--0--0----0----0--|


    PM PM PM PM PM PM PM
  S S  T  T  S  T  T  S  S S S S S S S S S S
---------------------------------------------|
---------------------------------------------|
---------------------------------------------|
----0--0--0--0--0--0--0----------------------|
----0--0--0--0--0--0--0----------------------|
----0--0--0--0--0--0--0------0-0---------0---|


  PM      PM PM PM       PM PM PM   PM   PM
  S  E  S T  T  S  S S S S  S  S  S S  S S
--------------------------------------------|
--------------------------------------------|
--------------------------------------------|
--0--0--L-0--0--0--------0--0--0----0----0--|
--0--0--L-0--0--0--------0--0--0----0----0--|
--0--0--L-0--0--0--------0--0--0----0----0--|


    PM PM PM PM PM PM PM             PM PM
  S S  T  T  S  T  T  S  S S S S S S S  S  S S      H          H
-----------------------------------------------|------------------------|
-----------------------------------------------|--/15--------/17--------|
-----------------------------------------------|--/18--------/20--------|
----0--0--0--0--0--0--0--------------0--0------|------------------------|
----0--0--0--0--0--0--0--------------0--0------|------------------------|
----0--0--0--0--0--0--0--------------0--0------|------------------------|


   |--3--|
   S  S  S  Q     E   T  T  T  T  Q     E
-------------------------------------------|
--------18-20b----L--18-17-----------------|
--17-19--------------------19-17-19b----L--|
-------------------------------------------|
-------------------------------------------|
-------------------------------------------|


   T           T           T           T           T           T           T
   T  T  T  T  T  T  T  T  T  T  T  T  T  T  T  T  T  T  T  T  T  T  T  T  T  T
--------------------------------------------------------------------------------|
--18-15-13-10-18-15-13-10-18-15-13-10-18-15-13-10-20-18-15-13-20-18-15-13-20-18-|
--------------------------------------------------------------------------------|
--------------------------------------------------------------------------------|
--------------------------------------------------------------------------------|
--------------------------------------------------------------------------------|


   T           T           T           T
   T  T  T  T  T  T  T  T  T  T  T  T  T  T  T  T  T  T  T  T  T  T  T  T  T  T
--------------------------------------------------------------------------------|
--22-20-18-15-22-20-18-15-22-20-18-15-22-20-18-15-------------------------15-15-|
--------------------------------------------------------------15-15-17-17-------|
--------------------------------------------------15-15-17-17-------------------|
--------------------------------------------------------------------------------|
--------------------------------------------------------------------------------|


   W                    S  S  S  S  S  S  S  S  S  S  S  S  S  S  S  S
--22----------------|--------------------------------------------------|
--------------------|--17-17-17-17-17-17-17-17-17-17-17-17-17-17-17-17-|
--------------------|---x--x--x--x--x--x--x--x--x--x--x--x--x--x--x--x-|
--------------------|--14-14-14-14-14-14-14-14-14-14-14-14-14-14-14-14-|
--------------------|--------------------------------------------------|
--------------------|--------------------------------------------------|


   S  S  S  S  S  S  S  S  S  S  S  S  S  S  S  S
--------------------------------------------------|
--18-18-18-18-18-18-18-18-20-20-20-20-20-20-20-20-|
---x--x--x--x--x--x--x--x--x--x--x--x--x--x--x--x-|
--15-15-15-15-15-15-15-15-17-17-17-17-17-17-17-17-|
--------------------------------------------------|
--------------------------------------------------|


   S  S  S  S  S  S  S  S  S  S  S  S  S  S  S  S
--------------------------------------------------|
--17-17-17-17-17-17-17-17-18-18-18-18-18-18-18-18-|
---x--x--x--x--x--x--x--x--x--x--x--x--x--x--x--x-|
--14-14-14-14-14-14-14-14-15-15-15-15-15-15-15-15-|
--------------------------------------------------|
--------------------------------------------------|


   S  S  S  S  S  S  S  S  S  S  S  S  S  S  S  S
--------------------------------------------------|
--15-15-15-15-15-15-15-15-15-15-15-15-15-15-15-15-|
---x--x--x--x--x--x--x--x--x--x--x--x--x--x--x--x-|
--12-12-12-12-12-12-12-12-12-12-12-12-12-12-12-12-|
--------------------------------------------------|
--------------------------------------------------|


   S  S  S  S  S  S  S  S  S  S  S  S  S  S  S  S
--------------------------------------------------|
--17-17-17-17-17-17-17-17-17-17-17-17-17-17-17-17-|
---x--x--x--x--x--x--x--x--x--x--x--x--x--x--x--x-|
--14-14-14-14-14-14-14-14-14-14-14-14-14-14-14-14-|
--------------------------------------------------|
--------------------------------------------------|


   S  S  S  S  S  S  S  S  S  S  S  S  S  S  S  S
--------------------------------------------------|
--18-18-18-18-18-18-18-18-20-20-20-20-20-20-20-20-|
---x--x--x--x--x--x--x--x--x--x--x--x--x--x--x--x-|
--15-15-15-15-15-15-15-15-17-17-17-17-17-17-17-17-|
--------------------------------------------------|
--------------------------------------------------|


   S  S  S  S  S  S  S  S  Q     E  E
---------------------------------------|
--17-17-17-17-17-17-17-17-17\----------|
---x--x--x--x--x--x--x--x--x-----------|
--14-14-14-14-14-14-14-14-14\----------|
---------------------------------------|
---------------------------------------|


  PM      PM PM PM       PM PM PM   PM   PM
  S  E  S T  T  S  S S S S  S  S  S S  S S
--------------------------------------------|
--------------------------------------------|
--------------------------------------------|
--0--0--L-0--0--0--------0--0--0----0----0--|
--0--0--L-0--0--0--------0--0--0----0----0--|
--0--0--L-0--0--0--------0--0--0----0----0--|


    PM PM PM PM PM PM PM
  S S  T  T  S  T  T  S  S S S S S S S S S S
---------------------------------------------|
---------------------------------------------|
---------------------------------------------|
----0--0--0--0--0--0--0----------------------|
----0--0--0--0--0--0--0----------------------|
----0--0--0--0--0--0--0------0-0---------0---|


  PM      PM PM PM       PM PM PM   PM   PM
  S  E  S T  T  S  S S S S  S  S  S S  S S
--------------------------------------------|
--------------------------------------------|
--------------------------------------------|
--0--0--L-0--0--0--------0--0--0----0----0--|
--0--0--L-0--0--0--------0--0--0----0----0--|
--0--0--L-0--0--0--------0--0--0----0----0--|


    PM PM PM PM PM PM PM             PM PM
  S S  T  T  S  T  T  S  S S S S S S S  S  S S
-----------------------------------------------|
-----------------------------------------------|
-----------------------------------------------|
----0--0--0--0--0--0--0--------------0--0------|
----0--0--0--0--0--0--0--------------0--0------|
----0--0--0--0--0--0--0--------------0--0------|


  PM      PM PM PM
  S  E  S T  T  S  H        E
-------------------------------||
-------------------------------||
-------------------------------||
--0--0--L-0--0--0--------------||
--0--0--L-0--0--0--------------||
--0--0--L-0--0--0--------------||


Duration Legend
---------------
W - whole
H - half
Q - quarter
E - 8th
S - 16th
T - 32nd
X - 64th
. - note dotted
|-n-|  - n-tuplets


Tablature Legend
----------------
L - tied note
x - dead note
g - grace note
(n) - ghost note
> - accentuded note
NH - natural harmonic
AH - artificial harmonic
TH - tapped harmonic
SH - semi harmonic
PH - pitch harmonic
h - hammer on
p - pull off
b - bend
br - bendRelease
pb - preBend
pbr - preBendRelease
brb - bendReleaseBend
\n/ - tremolo bar dip
\n - tremolo bar dive
-/n - tremolo bar Release up
/n\ - tremolo bar inverted dip
/n - tremolo bar return
-\n - tremolo bar Release down
S - shift slide
s - legato slide
/ -  slide into from below or out of upwards
\ -  slide into from above or out of downwards
~ - vibrato
W - wide vibrato
tr - trill
TP - tremolo picking
T - tapping
S - slap
P - pop
< - fade in
^ - brush up
v - brush down


That is all! I hope this helped, and be sure to check out my cover if you are
having problems with the tab. Thanks, oh and one last thing... ROCK OUT!!!!
comments
We did not receive enough feedback on this tab! Please rate:
print report bad tab
1 2 3 4 5
I want to post or [tab]
guest
You may want to rate the tab now too:
select rating
Please do not post tabs as comments. Select "correction" instead!