Oops, an error
Loading. Please wait.

Gorgeous Nightmare Tab

ver6
ver6

Intro

Solo

Interactive

More versions @911Tabs.com
1,680 views 9 this week
1 commentread comment
1 2 3 4 5
excellent!
x 1
add to favorites launch autoscroll
font size
0
reset
Autoscroll
+/-
esc
set tempo
stop
Contributor
Difficulty
Tuning
advanced
C G C F A D
WARNING: You are trying to view
                                    content from Ultimate-Guitar.com
                                    in an unauthorized application,
                                    which is prohibited.

                                    Please use an official Ultimate
                                    Guitar Tabs application for iPhone,
                                    iPad or Android to access legitimate
                                    chords, guitar, bass, and drum tabs
                                    from Ultimate-Guitar.com database.

                                    Type "ultimate guitar tabs" in Apple
                                    App Store's or Android Market's
                                    search to find the application.
Tab By: Chester Evans
Any question to chess.evans@hotmail.com

Gorgeous Nightmare                                


                                                                Escape The Fate 
Lead Guitar



       PH         PH    PM                             PH     
       E  E  E    E  E  E  E  E     E  E  E  Q    E    Q      
D||------------------------------|---------------------------|
A||------------------------------|---------------------------|
F||------------------------------|-----------0---------------|
C||--<>3--0-----<>3--0--------x--|--x-----3----------<>2~----|
G||------------------------5--x--|--x--1----------0----------|
C||----------0----------0-----x--|--x------------------------|


    PH         PH    PM                             PH     
    E  E  E    E  E  E  E  E     E  E  E  Q    E    Q      
------------------------------|---------------------------|
------------------------------|---------------------------|
------------------------------|-----------0---------------|
--<>3--0-----<>3--0--------x--|--x-----3----------<>2~----|
------------------------5--x--|--x--1----------0----------|
----------0----------0-----x--|--x------------------------|


    PH         PH    PM                             PH     
    E  E  E    E  E  E  E  E     E  E  E  Q    E    Q      
------------------------------|---------------------------|
------------------------------|---------------------------|
------------------------------|-----------0---------------|
--<>3--0-----<>3--0--------x--|--x-----3----------<>2~----|
------------------------5--x--|--x--1----------0----------|
----------0----------0-----x--|--x------------------------|


    PH         PH    PM                             PH     
    E  E  E    E  E  E  E  E     E  E  E  Q    E    Q      
------------------------------|---------------------------|
------------------------------|---------------------------|
------------------------------|-----------0---------------|
--<>3--0-----<>3--0--------x--|--x-----3----------<>2~----|
------------------------5--x--|--x--1----------0----------|
----------0----------0-----x--|--x------------------------|


   E  E  E   E  E  E  E  E     E  E  E  E  E  E  E  E   
----------------------------|--------------------------|
----------------------------|--------------------------|
--10--------10--------7-----|--x--3--3--3--3--2--2--2--|
--10--0--0--10--0--0--7--0--|--x--3--3--3--3--2--2--2--|
---8--0--0---8--0--0--5--0--|--x--1--1--1--1--0--0--0--|
------0--0------0--0-----0--|--------------------------|


   E  E  E   E  E  E  E  E     E  E  E  E  E  E  E  E   
----------------------------|--------------------------|
----------------------------|--------------------------|
--10--------10--------7-----|--x--3--3--3--3--2--2--2--|
--10--0--0--10--0--0--7--0--|--x--3--3--3--3--2--2--2--|
---8--0--0---8--0--0--5--0--|--x--1--1--1--1--0--0--0--|
------0--0------0--0-----0--|--------------------------|


   E  E  E   E  E  E  E  E     E  E  E  E  E  E  E  E   
----------------------------|--------------------------|
----------------------------|--------------------------|
--10--------10--------7-----|--x--3--3--3--3--2--2--2--|
--10--0--0--10--0--0--7--0--|--x--3--3--3--3--2--2--2--|
---8--0--0---8--0--0--5--0--|--x--1--1--1--1--0--0--0--|
------0--0------0--0-----0--|--------------------------|


   E  E  E   E  E  E  E  E     E  E  E  E  E  E  E  E     W                 
----------------------------|--------------------------|-------------------|
----------------------------|--------------------------|-------------------|
--10--------10--------7-----|--x--3--3--3--3--2--2--2--|-------------------|
--10--0--0--10--0--0--7--0--|--x--3--3--3--3--2--2--2--|-------------------|
---8--0--0---8--0--0--5--0--|--x--1--1--1--1--0--0--0--|-------------------|
------0--0------0--0-----0--|--------------------------|-------------------|


  W                   W                   W                   W                 
-------------------|-------------------|-------------------|-------------------|
-------------------|-------------------|-------------------|-------------------|
-------------------|-------------------|-------------------|-------------------|
-------------------|-------------------|-------------------|-------------------|
-------------------|-------------------|-------------------|-------------------|
-------------------|-------------------|-------------------|-------------------|


  W                   W                   W                 
-------------------|-------------------|-------------------|
-------------------|-------------------|-------------------|
-------------------|-------------------|-------------------|
-------------------|-------------------|-------------------|
-------------------|-------------------|-------------------|
-------------------|-------------------|-------------------|


  E  E  E  E  E  E  E  E     W                   E  E  E  E  E  E  E  E   
--------------------------|-------------------|--------------------------|
--------------------------|-------------------|--------------------------|
--------------------------|-------------------|--------------------------|
--------------------------|-------------------|--------------------------|
--------------------------|-------------------|--------------------------|
--3--0--0--3--0--0--0-----|-------------------|--3--0--0--3--0--0--0-----|


  W                   E  E  E  E  E  E  E  E     W                 
-------------------|--------------------------|-------------------|
-------------------|--------------------------|-------------------|
-------------------|--------------------------|-------------------|
-------------------|--------------------------|-------------------|
-------------------|--------------------------|-------------------|
-------------------|--3--0--0--3--0--0--0-----|-------------------|


  E  E  E  E  E  E  E  E     W                   E  E  E  E  E  E  E  E   
--------------------------|-------------------|--------------------------|
--------------------------|-------------------|--------------------------|
--------------------------|-------------------|--------------------------|
--------------------------|-------------------|--8--8--8--8--8--8--8--8--|
--------------------------|-------------------|--8--8--8--8--8--8--8--8--|
--3--0--0--3--0--0--0-----|-------------------|--8--8--8--8--8--8--8--8--|


  E  E  E  E  E  E  E  E     E  E  E  E  E  E  E  E   
--------------------------|--------------------------|
--------------------------|--------------------------|
--------------------------|--------------------------|
--7--7--7--7--7--7--7--7--|--0--0--0--0--0--0--0--0--|
--7--7--7--7--7--7--7--7--|--0--0--0--0--0--0--0--0--|
--7--7--7--7--7--7--7--7--|--0--0--0--0--0--0--0--0--|


  E  E  E  E  E  E  E  E     E  E  E  E  E  E  E  E   
--------------------------|--------------------------|
--------------------------|--------------------------|
--5--5--5--5--5--5--5--5--|--------------------------|
--5--5--5--5--5--5--5--5--|--8--8--8--8--8--8--8--8--|
--3--3--3--3--3--3--3--3--|--8--8--8--8--8--8--8--8--|
--------------------------|--8--8--8--8--8--8--8--8--|


  E  E  E  E  E  E  E  E     E  E  E  E  E  E  E  E   
--------------------------|--------------------------|
--------------------------|--------------------------|
--------------------------|--------------------------|
--5--5--5--5--5--5--5--5--|--7--7--7--7--7--7--7--7--|
--5--5--5--5--5--5--5--5--|--7--7--7--7--7--7--7--7--|
--5--5--5--5--5--5--5--5--|--7--7--7--7--7--7--7--7--|


                                PM PM    PM PM PM PM  
  E  E  E  E  E  E  E  E     E  E  E  E  E  E  E  E   
--------------------------|--------------------------|
--------------------------|--------------------------|
--------------------------|--------------------------|
--7--7--7--7--7--7--7--7--|--3--------3--------------|
--7--7--7--7--7--7--7--7--|--3--0--0--3--0--0--0--0--|
--7--7--7--7--7--7--7--7--|--3--0--0--3--0--0--0--0--|


     PM PM PM    PM PM PM       PM PM    PM PM PM PM  
  E  E  E  E  E  E  E  E     E  E  E  E  E  E  E  E   
--------------------------|--------------------------|
--------------------------|--------------------------|
--------------------------|--------------------------|
--------------------------|--3--------3--------------|
-----0--0--0-----0--0--0--|--3--0--0--3--0--0--0--0--|
-----0--0--0-----0--0--0--|--3--0--0--3--0--0--0--0--|


     PM PM PM    PM PM PM                                          
  E  E  E  E  E  E  E  E     W                   W                 
--------------------------|-------------------|-------------------|
--------------------------|-------------------|-------------------|
--------------------------|-------------------|-------------------|
--------------------------|-------------------|-------------------|
-----0--0--0-----0--0--0--|-------------------|-------------------|
-----0--0--0-----0--0--0--|-------------------|-------------------|


  W                   W                   W                   W                 
-------------------|-------------------|-------------------|-------------------|
-------------------|-------------------|-------------------|-------------------|
-------------------|-------------------|-------------------|-------------------|
-------------------|-------------------|-------------------|-------------------|
-------------------|-------------------|-------------------|-------------------|
-------------------|-------------------|-------------------|-------------------|


  W                   W                   E  E  E  E  E  E  E  E   
-------------------|-------------------|--------------------------|
-------------------|-------------------|--------------------------|
-------------------|-------------------|--------------------------|
-------------------|-------------------|--------------------------|
-------------------|-------------------|--------------------------|
-------------------|-------------------|--3--0--0--3--0--0--0-----|


  W                   E  E  E  E  E  E  E  E     W                 
-------------------|--------------------------|-------------------|
-------------------|--------------------------|-------------------|
-------------------|--------------------------|-------------------|
-------------------|--------------------------|-------------------|
-------------------|--------------------------|-------------------|
-------------------|--3--0--0--3--0--0--0-----|-------------------|


  E  E  E  E  E  E  E  E     W                   E  E  E  E  E  E  E  E   
--------------------------|-------------------|--------------------------|
--------------------------|-------------------|--------------------------|
--------------------------|-------------------|--------------------------|
--------------------------|-------------------|--------------------------|
--------------------------|-------------------|--------------------------|
--3--0--0--3--0--0--0-----|-------------------|--3--0--0--3--0--0--0-----|


  W                   E  E  E  E  E  E  E  E     E  E  E  E  E  E  E  E   
-------------------|--------------------------|--------------------------|
-------------------|--------------------------|--------------------------|
-------------------|--------------------------|--------------------------|
-------------------|--8--8--8--8--8--8--8--8--|--7--7--7--7--7--7--7--7--|
-------------------|--8--8--8--8--8--8--8--8--|--7--7--7--7--7--7--7--7--|
-------------------|--8--8--8--8--8--8--8--8--|--7--7--7--7--7--7--7--7--|


  E  E  E  E  E  E  E  E     E  E  E  E  E  E  E  E   
--------------------------|--------------------------|
--------------------------|--------------------------|
--------------------------|--5--5--5--5--5--5--5--5--|
--0--0--0--0--0--0--0--0--|--5--5--5--5--5--5--5--5--|
--0--0--0--0--0--0--0--0--|--3--3--3--3--3--3--3--3--|
--0--0--0--0--0--0--0--0--|--------------------------|


  E  E  E  E  E  E  E  E     E  E  E  E  E  E  E  E   
--------------------------|--------------------------|
--------------------------|--------------------------|
--------------------------|--------------------------|
--8--8--8--8--8--8--8--8--|--5--5--5--5--5--5--5--5--|
--8--8--8--8--8--8--8--8--|--5--5--5--5--5--5--5--5--|
--8--8--8--8--8--8--8--8--|--5--5--5--5--5--5--5--5--|


  E  E  E  E  E  E  E  E     E  E  E  E  E  E  E  E   
--------------------------|--------------------------|
--------------------------|--------------------------|
--------------------------|--------------------------|
--7--7--7--7--7--7--7--7--|--7--7--7--7--7--7--7--7--|
--7--7--7--7--7--7--7--7--|--7--7--7--7--7--7--7--7--|
--7--7--7--7--7--7--7--7--|--7--7--7--7--7--7--7--7--|


     PM PM    PM PM PM PM       PM PM PM    PM PM PM  
  E  E  E  E  E  E  E  E     E  E  E  E  E  E  E  E   
--------------------------|--------------------------|
--------------------------|--------------------------|
--------------------------|--------------------------|
--3--------3--------------|--------------------------|
--3--0--0--3--0--0--0--0--|-----0--0--0-----0--0--0--|
--3--0--0--3--0--0--0--0--|-----0--0--0-----0--0--0--|


     PM PM    PM PM PM PM       PM PM PM    PM PM PM     -/2       -/2         
  E  E  E  E  E  E  E  E     E  E  E  E  E  E  E  E      H         Q.      E   
--------------------------|--------------------------|------------------------|
--------------------------|--------------------------|--------------------17--|
--------------------------|--------------------------|--14--------17----------|
--3--------3--------------|--------------------------|------------------------|
--3--0--0--3--0--0--0--0--|-----0--0--0-----0--0--0--|------------------------|
--3--0--0--3--0--0--0--0--|-----0--0--0-----0--0--0--|------------------------|


   E   Q       Q     E    E   E      Q.       H         E   
---------------------------------|-------------------------|
---L---Lbr----15-------------18--|---L-------18---------L--|
--------------------17b---L---L--|--17b------17b--------L--|
---------------------------------|-------------------------|
---------------------------------|-------------------------|
---------------------------------|-------------------------|


   Q.        H          E      H           E   E   E   E   
------------17br--------L--|--17br---------L--15------15--|
--17br---------------------|----------------------18------|
---------------------------|------------------------------|
---------------------------|------------------------------|
---------------------------|------------------------------|
---------------------------|------------------------------|


   H           E   E   E   E   
--17br---------L--15------15--|
----------------------18------|
------------------------------|
------------------------------|
------------------------------|
------------------------------|


   |--3--|              |--3--|              |--3--|        
   S  S  S  S  S  S  S  S  S  S  S  S  S  S  S  S  S  S  S  
--12-15-12-------------12-15-12-------------15-18-15-------|
-----------14-11-11-11----------14-11-11-11----------17-17-|
-----------------------------------------------------------|
-----------------------------------------------------------|
-----------------------------------------------------------|
-----------------------------------------------------------|


   |--3--|              |--3--|              |--3--|        
   S  S  S  S  S  S  S  S  S  S  S  S  S  S  S  S  S  S  S  
--18-21-18-------------18-21-18-------------21-24-21-------|
-----------20-17-17-17----------20-17-17-17----------23-23-|
-----------------------------------------------------------|
-----------------------------------------------------------|
-----------------------------------------------------------|
-----------------------------------------------------------|


    PH         PH    PM                             PH     
    E  E  E    E  E  E  E  E     E  E  E  Q    E    Q      
------------------------------|---------------------------|
------------------------------|---------------------------|
------------------------------|-----------0---------------|
--<>3--0-----<>3--0--------x--|--x-----3----------<>2~----|
------------------------5--x--|--x--1----------0----------|
----------0----------0-----x--|--x------------------------|


    PH         PH    PM                                         
    E  E  E    E  E  E  E  E           E  E  E  E  E  E  E  E   
------------------------------|-----|--------------------------|
------------------------------|-----|--------------------------|
------------------------------|-----|--------------------------|
--<>3--0-----<>3--0--------x--|-----|--8--8--8--8--8--8--8--8--|
------------------------5--x--|-----|--8--8--8--8--8--8--8--8--|
----------0----------0-----x--|-----|--8--8--8--8--8--8--8--8--|


  E  E  E  E  E  E  E  E     E  E  E  E  E  E  E  E   
--------------------------|--------------------------|
--------------------------|--------------------------|
--------------------------|--------------------------|
--7--7--7--7--7--7--7--7--|--0--0--0--0--0--0--0--0--|
--7--7--7--7--7--7--7--7--|--0--0--0--0--0--0--0--0--|
--7--7--7--7--7--7--7--7--|--0--0--0--0--0--0--0--0--|


  E  E  E  E  E  E  E  E     E  E  E  E  E  E  E  E   
--------------------------|--------------------------|
--------------------------|--------------------------|
--5--5--5--5--5--5--5--5--|--------------------------|
--5--5--5--5--5--5--5--5--|--8--8--8--8--8--8--8--8--|
--3--3--3--3--3--3--3--3--|--8--8--8--8--8--8--8--8--|
--------------------------|--8--8--8--8--8--8--8--8--|


                                                         \6                 
  E  E  E  E  E  E  E  E     E  E  E  E  E  E  E  E      W                  
--------------------------|--------------------------|---------------------|
--------------------------|--------------------------|---------------------|
--------------------------|--------------------------|---------------------|
--5--5--5--5--5--5--5--5--|--7--7--7--7--7--7--7--7--|---------------------|
--5--5--5--5--5--5--5--5--|--7--7--7--7--7--7--7--7--|---------------------|
--5--5--5--5--5--5--5--5--|--7--7--7--7--7--7--7--7--|--19\----------------|


   H.            Q        H          E   E   E   E      W                  
----------------13----|--13b---------L---L--12--13--|--10~----------------|
--11------------------|-----------------------------|---------------------|
----------------------|-----------------------------|---------------------|
----------------------|-----------------------------|---------------------|
----------------------|-----------------------------|---------------------|
----------------------|-----------------------------|---------------------|


   Q.        Q.        E   E      E   H         E   Q     
--15br------15br--------------|--------------------------|
----------------------18--17--|---L--18---------L--11----|
------------------------------|--------------------------|
------------------------------|--------------------------|
------------------------------|--------------------------|
------------------------------|--------------------------|


   H.             E   E      W                    
--13b-------------L--13--|--12brb----------------|
-------------------------|-----------------------|
-------------------------|-----------------------|
-------------------------|-----------------------|
-------------------------|-----------------------|
-------------------------|-----------------------|


   T  T  T  T  T  T  T  T  T  T  T  T  T  T  T  T  T  T  T  T  T  T  T  T  T  T 
--------------------------------------------------------------------------------
--10-10-10-10-10-10-10-10-10-10-10-10-10-10-10-10-13-13-13-13-13-13-13-13-13-13-
--------------------------------------------------------------------------------
--------------------------------------------------------------------------------
--------------------------------------------------------------------------------
--------------------------------------------------------------------------------


     PM PM    PM PM PM PM       PM PM PM    PM PM PM  
  E  E  E  E  E  E  E  E     E  E  E  E  E  E  E  E   
--------------------------|--------------------------|
--------------------------|--------------------------|
--------------------------|--------------------------|
--3--------3--------------|--------------------------|
--3--0--0--3--0--0--0--0--|-----0--0--0-----0--0--0--|
--3--0--0--3--0--0--0--0--|-----0--0--0-----0--0--0--|


     PM PM    PM PM PM PM       PM PM PM    PM PM PM  
  E  E  E  E  E  E  E  E     E  E  E  E  E  E  E  E   
--------------------------|--------------------------|
--------------------------|--------------------------|
--------------------------|--------------------------|
--3--------3--------------|--------------------------|
--3--0--0--3--0--0--0--0--|-----0--0--0-----0--0--0--|
--3--0--0--3--0--0--0--0--|-----0--0--0-----0--0--0--|


     PM PM    PM PM PM PM       PM PM PM    PM PM PM  
  E  E  E  E  E  E  E  E     E  E  E  E  E  E  E  E   
--------------------------|--------------------------|
--------------------------|--------------------------|
--------------------------|--------------------------|
--3--------3--------------|--------------------------|
--3--0--0--3--0--0--0--0--|-----0--0--0-----0--0--0--|
--3--0--0--3--0--0--0--0--|-----0--0--0-----0--0--0--|


     PM PM    PM PM PM PM       PM PM PM    PM PM PM                           
  E  E  E  E  E  E  E  E     E  E  E  E  E  E  E  E                            
--------------------------|--------------------------|-----|-----|-----|-----||
--------------------------|--------------------------|-----|-----|-----|-----||
--------------------------|--------------------------|-----|-----|-----|-----||
--3--------3--------------|--------------------------|-----|-----|-----|-----||
--3--0--0--3--0--0--0--0--|-----0--0--0-----0--0--0--|-----|-----|-----|-----||
--3--0--0--3--0--0--0--0--|-----0--0--0-----0--0--0--|-----|-----|-----|-----||




Duration Legend
---------------
W - whole
H - half
Q - quarter
E - 8th
S - 16th
T - 32nd
X - 64th
. - note dotted
|-n-|  - n-tuplets


Tablature Legend
----------------
L - tied note
x - dead note
g - grace note
(n) - ghost note
> - accentuded note
NH - natural harmonic
AH - artificial harmonic
TH - tapped harmonic
SH - semi harmonic
PH - pitch harmonic
h - hammer on
p - pull off
b - bend
br - bendRelease
pb - preBend
pbr - preBendRelease
brb - bendReleaseBend
\n/ - tremolo bar dip
\n - tremolo bar dive
-/n - tremolo bar Release up
/n\ - tremolo bar inverted dip
/n - tremolo bar return
-\n - tremolo bar Release down
S - shift slide
s - legato slide
/ -  slide into from below or out of upwards
\ -  slide into from above or out of downwards
~ - vibrato
W - wide vibrato
tr - trill
TP - tremolo picking
T - tapping
S - slap
P - pop
< - fade in
^ - brush up
v - brush down
comments
We did not receive enough feedback on this tab! Please rate:
print report bad tab
1 2 3 4 5
1 comment total.
0 reply
DrakeTheOne wrote on September 14 2011, 12:20 pm

Where did you get this tab? I'm listening to the song and it seems dead on.

I want to post or [tab]
guest
You may want to rate the tab now too:
select rating
Please do not post tabs as comments. Select "correction" instead!