Oops, an error
Loading. Please wait.

My Apocolypse Tab

ver2
ver2

Whole song

More versions @911Tabs.com
143 views 1 this week
no commentswrite comment
1 2 3 4 5
please rate
Autoscroll
+/-
esc
set tempo
stop
Contributor
Difficulty
Tuning
intermediate
C G C F A D
WARNING: You are trying to view
                                    content from Ultimate-Guitar.com
                                    in an unauthorized application,
                                    which is prohibited.

                                    Please use an official Ultimate
                                    Guitar Tabs application for iPhone,
                                    iPad or Android to access legitimate
                                    chords, guitar, bass, and drum tabs
                                    from Ultimate-Guitar.com database.

                                    Type "ultimate guitar tabs" in Apple
                                    App Store's or Android Market's
                                    search to find the application.
Okay, the other tab for this is right I do believe... But this way is an easier way to 
play it. Not really any changes except for the chorus,
and I will come back and tab the guitar in the background.

Clean. Guitar 1
D|----------------------------------------------------------|
A|---8------x-x-----------------8------8------8-8-----------|
F|---9-(x6)-x-x---9-------x-x---9-(x5)-9------9-9-9---------|
C|---7------x-x---10-(x6)-x-x---7------7h10p7-7-7-10-(x8)---|
G|-0------------8-8-------x-x-0-------------------8---------|
C|----------------------------------------------------------|

Full Distortion, Guitar 1
D|-15p12-------15p12-------15p12-------15p12------|
A|-------13p12-------13p12-------13p12-------13p12|
F|------------------------------------------------|
C|------------------------------------------------|
G|------------------------------------------------|
C|------------------------------------------------|


D|------------------------------------------------|
A|-------13p12-15p12-13p12-15p12-13p12-15p12-13---|
F|-13p12------------------------------------------|
C|------------------------------------------------|
G|------------------------------------------------|
C|------------------------------------------------|


D|-------15p12-------15p12-------15p12------15p12-|
A|-13p12-------13p12-------13p12-------13p12------|
F|------------------------------------------------|
C|------------------------------------------------|
G|------------------------------------------------|
C|------------------------------------------------|

D|------------------------------------------------|
A|-------13p12-15p12-13p12-15p12-13p12-15b--------|
F|-13p12------------------------------------------|
C|------------------------------------------------|
G|------------------------------------------------|
C|------------------------------------------------|


D|-15p12-------15p12-------15p12-------15p12------|
A|-------13p12-------13p12-------13p12-------13p12|
F|------------------------------------------------|
C|------------------------------------------------|
G|------------------------------------------------|
C|------------------------------------------------|


D|------------------------------------------------|
A|-------13p12-15p12-13p12-15p12-13p12-15p12-13---|
F|-13p12------------------------------------------|
C|------------------------------------------------|
G|------------------------------------------------|
C|------------------------------------------------|


D|-------15p12-------15p12-------15p12------15p12-|
A|-13p12-------13p12-------13p12-------13p12------|
F|------------------------------------------------|
C|------------------------------------------------|
G|------------------------------------------------|
C|------------------------------------------------|


D|------------------------------------------------|
A|------13p12-15p12-13p12-15p12-13p12-15p12-15-13~|
F|-13p12------------------------------------------|
C|------------------------------------------------|
G|------------------------------------------------|
C|------------------------------------------------|


D|-15--15--15--15--15--15--12--12-----------------|
A|---13--13--13--13--13--13--13--13---------------|
F|------------------------------------------------| (x3)
C|------------------------------------------------|
G|------------------------------------------------|
C|------------------------------------------------|

*Pickslide*

D|------------------------------------------------|
A|------------------------------------------------|
F|-2-2-2-x-x-2-2-2-x-x-----------5-5-5------------| (x2)
C|-2-2-2-x-x-2-2-2-x-x-3-3-3-x-x-5-5-5------------|
G|-0-0-0-x-x-0-0-0-x-x-3-3-3-x-x-3-3-3------------|
C|---------------------3-3-3-x-x------------------|


D|-15p12-------15p12-------15p12-------15p12------|
A|-------13p12-------13p12-------13p12-------13p12|
F|------------------------------------------------|
C|------------------------------------------------|
G|------------------------------------------------|
C|------------------------------------------------|


D|------------------------------------------------|
A|-------13p12-15p12-13p12-15p12-13p12-15p12-13---|
F|-13p12------------------------------------------|
C|------------------------------------------------|
G|------------------------------------------------|
C|------------------------------------------------|


D|-------15p12-------15p12-------15p12------15p12-|
A|-13p12-------13p12-------13p12-------13p12------|
F|------------------------------------------------|
C|------------------------------------------------|
G|------------------------------------------------|
C|------------------------------------------------|

D|------------------------------------------------|
A|-------13p12-15p12-13p12-15p12-13p12-15b--------|
F|-13p12------------------------------------------|
C|------------------------------------------------|
G|------------------------------------------------|
C|------------------------------------------------|


D|-15p12-------15p12-------15p12-------15p12------|
A|-------13p12-------13p12-------13p12-------13p12|
F|------------------------------------------------|
C|------------------------------------------------|
G|------------------------------------------------|
C|------------------------------------------------|


D|------------------------------------------------|
A|-------13p12-15p12-13p12-15p12-13p12-15p12-13---|
F|-13p12------------------------------------------|
C|------------------------------------------------|
G|------------------------------------------------|
C|------------------------------------------------|


D|-------15p12-------15p12-------15p12------15p12-|
A|-13p12-------13p12-------13p12-------13p12------|
F|------------------------------------------------|
C|------------------------------------------------|
G|------------------------------------------------|
C|------------------------------------------------|


D|------------------------------------------------|
A|------13p12-15p12-13p12-15p12-13p12-15p12-15-13~|
F|-13p12------------------------------------------|
C|------------------------------------------------|
G|------------------------------------------------|
C|------------------------------------------------|


D|------------------------------------------------|
A|------------------------------------------------|
F|-2-------------5--------------------------------| (x2)
C|-2-(x8)-3------5-(x4)---------------------------|
G|-0------3-(x4)-3--------------------------------|
C|--------3---------------------------------------|


D|------------------------------------------------|
A|------------------------------------------------|
F|-2-2-2-x-x-2-2-2-x-x-----------5-5-5------------| (x2)
C|-2-2-2-x-x-2-2-2-x-x-3-3-3-x-x-5-5-5------------|
G|-0-0-0-x-x-0-0-0-x-x-3-3-3-x-x-3-3-3------------|
C|---------------------3-3-3-x-x------------------|



D|-15p12-------15p12-------15p12-------15p12------|
A|-------13p12-------13p12-------13p12-------13p12|
F|------------------------------------------------|
C|------------------------------------------------|
G|------------------------------------------------|
C|------------------------------------------------|


D|------------------------------------------------|
A|-------13p12-15p12-13p12-15p12-13p12-15p12-13---|
F|-13p12------------------------------------------|
C|------------------------------------------------|
G|------------------------------------------------|
C|------------------------------------------------|


D|-------15p12-------15p12-------15p12------15p12-|
A|-13p12-------13p12-------13p12-------13p12------|
F|------------------------------------------------|
C|------------------------------------------------|
G|------------------------------------------------|
C|------------------------------------------------|

D|------------------------------------------------|
A|-------13p12-15p12-13p12-15p12-13p12-15b--------|
F|-13p12------------------------------------------|
C|------------------------------------------------|
G|------------------------------------------------|
C|------------------------------------------------|


D|-15p12-------15p12-------15p12-------15p12------|
A|-------13p12-------13p12-------13p12-------13p12|
F|------------------------------------------------|
C|------------------------------------------------|
G|------------------------------------------------|
C|------------------------------------------------|


D|------------------------------------------------|
A|-------13p12-15p12-13p12-15p12-13p12-15p12-13---|
F|-13p12------------------------------------------|
C|------------------------------------------------|
G|------------------------------------------------|
C|------------------------------------------------|


D|-------15p12-------15p12-------15p12------15p12-|
A|-13p12-------13p12-------13p12-------13p12------|
F|------------------------------------------------|
C|------------------------------------------------|
G|------------------------------------------------|
C|------------------------------------------------|


D|------------------------------------------------|
A|------13p12-15p12-13p12-15p12-13p12-15p12-15-13~|
F|-13p12------------------------------------------|
C|------------------------------------------------|
G|------------------------------------------------|
C|------------------------------------------------|

Okay, now the solo starts. It sounds insane.. But its actually pretty easy once you get 
the hang of it.
Just hit the three lower notes with your left hand, and the higher notes, turn your pick 
and hit the string against the fretboard. Simple.


D|------------------------------------------------|
A|-(13)-12-10-13-15-12-10-13-12-10-12-13-15-17-15-|
F|------------------------------------------------|
C|------------------------------------------------|
G|------------------------------------------------|
C|------------------------------------------------|

Slower,
D|-12p5h7h8-12p5h7h8-13p5h7h8-13p5h7h8-10p5h7h8-10p5h7h8-15p5h7h8-17p5h7h8-|
A|-------------------------------------------------------------------------|
F|-------------------------------------------------------------------------|
C|-------------------------------------------------------------------------|
G|-------------------------------------------------------------------------|
C|-------------------------------------------------------------------------|

Faster,
D|-12p5h7h8-12p5h7h8-12p5h7h8-12p5h7h8-13p5h7h8-13p5h7h8-13p5h7h8-13p5h7h8-|
A|-------------------------------------------------------------------------|
F|-------------------------------------------------------------------------|
C|-------------------------------------------------------------------------|
G|-------------------------------------------------------------------------|
C|-------------------------------------------------------------------------|


D|-10p5h7h8-10p5h7h8-10p5h7h8-10p5h7h8-15p5h7h8-15p5h7h8-17p5h7h8-17~------|
A|-------------------------------------------------------------------------|
F|-------------------------------------------------------------------------|
C|-------------------------------------------------------------------------|
G|-------------------------------------------------------------------------|
C|-------------------------------------------------------------------------|

Fastest,
D|-12p5h7h8-12p5h7h8-12p5h7h8-12p5h7h8-12p5h7h8-12p5h7h8-12p5h7h8-12p5h7h8-|
A|-------------------------------------------------------------------------|
F|-------------------------------------------------------------------------|
C|-------------------------------------------------------------------------|
G|-------------------------------------------------------------------------|
C|-------------------------------------------------------------------------|


D|-13p5h7h8-13p5h7h8-13p5h7h8-13p5h7h8-13p5h7h8-13p5h7h8-13p5h7h8-13p5h7h8-|
A|-------------------------------------------------------------------------|
F|-------------------------------------------------------------------------|
C|-------------------------------------------------------------------------|
G|-------------------------------------------------------------------------|
C|-------------------------------------------------------------------------|


D|-10p5h7h8-10p5h7h8-10p5h7h8-10p5h7h8-10p5h7h8-10p5h7h8-10p5h7h8-10p5h7h8-|
A|-------------------------------------------------------------------------|
F|-------------------------------------------------------------------------|
C|-------------------------------------------------------------------------|
G|-------------------------------------------------------------------------|
C|-------------------------------------------------------------------------|


D|-15p5h7h8-15p5h7h8-15p5h7h8-15p5h7h8-17p5h7h8-17p5h7h8-17p5h7h8-17p5h7h8-|
A|-------------------------------------------------------------------------|
F|-------------------------------------------------------------------------|
C|-------------------------------------------------------------------------|
G|-------------------------------------------------------------------------|
C|-------------------------------------------------------------------------|


D|-8-5-5-5-7-5-5-5-7-5-5-5-0-0-0-0---------------|
A|-----------------------------------------------|
F|-----------------------------------------------|
C|-----------------------------------------------|
G|-----------------------------------------------|
C|-----------------------------------------------| (x4)


D|-13p0-12p0-8p0-7p0-8p0-7p0-5p0-7p0-------------|
A|-----------------------------------------------|
F|-----------------------------------------------|
C|-----------------------------------------------|
G|-----------------------------------------------|
C|-----------------------------------------------| (x3)


D|-8-0-0-7-0-0-5-0-0-7-0-0-5-7-5-----------------|
A|-----------------------------------------------|
F|-----------------------------------------------|
C|-----------------------------------------------|
G|-----------------------------------------------|
C|-----------------------------------------------|


D|-20-19-----------------------------------------|
A|-------20-17-----------------------------------|
F|-----------------------------------------------|
C|-----------------------------------------------|
G|-----------------------------------------------|
C|-----------------------------------------------| (x12)
comments
We did not receive enough feedback on this tab! Please rate:
print report bad tab
1 2 3 4 5
I want to post or [tab]
guest
You may want to rate the tab now too:
select rating
Please do not post tabs as comments. Select "correction" instead!