Oops, an error
Loading. Please wait.

One For The Money Tab

ver1
ver1

Whole song

Interactive

More versions @911Tabs.com
10,575 views 145 this week
no commentswrite comment
1 2 3 4 5
excellent!
x 3
Autoscroll
+/-
esc
set tempo
stop
Contributor
Difficulty
Tuning
intermediate
C G C F A D
Hey! There's an official Ultimate Guitar app which is ideal
for learning songs when you're away from computer. Get the app
WARNING: You are trying to view
                                    content from Ultimate-Guitar.com
                                    in an unauthorized application,
                                    which is prohibited.

                                    Please use an official Ultimate
                                    Guitar Tabs application for iPhone,
                                    iPad or Android to access legitimate
                                    chords, guitar, bass, and drum tabs
                                    from Ultimate-Guitar.com database.

                                    Type "ultimate guitar tabs" in Apple
                                    App Store's or Android Market's
                                    search to find the application.
----------------------------------------------------------------------------
                        One for the Money
                          Escape the Fate
----------------------------------------------------------------------------

One for the Money is a great example of Craig’s vocal abilities. Hitting high notes is
not an easy task, but he makes it sound good. Not only that, but the guitars and even the
drums are very intriguing in this song. You could say, it is “one for the money”... 
haha... Nevermind. Enjoy!

Username: dkm817 (same on X box live)
Youtube Cover: http://www.youtube.com/watch?v=vkfECEiwB6s
Email: guitardrums@rockfan.com

Guitar 1 Rhythmic (C G C F A D)
Guitar 2 Lead     (C G C F A D)

NOTE: This was exported off of guitar pro.


Guitar 1

     S S S S S S S S S S S S S S S S    S S S S S S S S S S S S S S S S
D||----------------------------------|----------------------------------|
A||----------------------------------|----------------------------------|
F||----------------------------------|----------------------------------|
C||----0---0-7-0-7-0---0---0-8-0-8-0-|----3---3-5-3-5-3---2---2-3-2-3-2-|
G||----------------------------------|--1---------------0---------------|
C||--0---------------0---------------|----------------------------------|


  S S S S S S S S S S S S S S S S    S S S S S S S S S S S S S S S S
----------------------------------|----------------------------------|
----------------------------------|----------------------------------|
----------------------------------|----------------------------------|
----0---0-7-0-7-0---0---0-8-0-8-0-|----3---3-5-3-5-3---2---2-3-2-3-2-|
----------------------------------|--1---------------0---------------|
--0---------------0---------------|----------------------------------|


  S S S S S S S S S S S S S S S S    S S S S S S S S S S S S S S S S
----------------------------------|----------------------------------|
----------------------------------|----------------------------------|
----------------------------------|----------------------------------|
----0---0-7-0-7-0---0---0-8-0-8-0-|----3---3-5-3-5-3---2---2-3-2-3-2-|
----------------------------------|--1---------------0---------------|
--0---------------0---------------|----------------------------------|


  S S S S S S S S S S S S S S S S    S S S S S S S S S S S S S S S S
----------------------------------|----------------------------------|
----------------------------------|----------------------------------|
----------------------------------|----------------------------------|
----0---0-7-0-7-0---0---0-8-0-8-0-|----3---3-5-3-5-3---2---2-3-2-3-2-|
----------------------------------|--1---------------0---------------|
--0---------------0---------------|----------------------------------|


  PM PM PM PM PM PM PM PM PM PM PM PM PM PM PM PM
  S  S  S  S  S  S  S  S  S  S  S  S  S  S  S  S
--------------------------------------------------|
--------------------------------------------------|
--------------------------------------------------|
--------------------------------------------------|
--------------------------------------------------|
--0--0--0--0--0--0--0--0--0--0--0--0--0--0--0--0--|


  PM PM PM PM PM PM PM PM PM PM PM PM PM PM PM PM
  S  S  S  S  S  S  S  S  S  S  S  S  S  S  S  S
--------------------------------------------------|
--------------------------------------------------|
--------------------------------------------------|
--------------------------------------------------|
--------------------------------------------------|
--8--8--8--8--8--8--8--8--7--7--7--7--7--7--7--7--|


  PM PM PM PM PM PM PM PM PM PM PM PM PM PM PM PM
  S  S  S  S  S  S  S  S  S  S  S  S  S  S  S  S
--------------------------------------------------|
--------------------------------------------------|
--------------------------------------------------|
--------------------------------------------------|
--------------------------------------------------|
--0--0--0--0--0--0--0--0--0--0--0--0--0--0--0--0--|


  PM PM PM PM PM PM PM PM PM PM PM PM
  S  S  S  S  S  S  S  S  S  S  S  S  Q
--------------------------------------------|
--------------------------------------------|
--------------------------------------------|
--------------------------------------------|
--------------------------------------------|
--8--8--8--8--8--8--8--8--7--7--7--7--3b----|


  PM PM             PM PM                PM PM             PM PM
  S  S  S S S S S S S  S  S S S S S S    S  S  S S S S S S S  S  S S S S S S
--------------------------------------|--------------------------------------|
--------------------------------------|--------------------------------------|
--------------------------------------|--------------------------------------|
--0--0--------------0--0--------------|--8--8--------------7--7--------------|
--0--0--------------0--0--------------|--8--8--------------7--7--------------|
--0--0--------------0--0--------------|--8--8--------------7--7--------------|


  PM PM             PM PM                PM PM
  S  S  S S S S S S S  S  S S S S S S    S  S  S S S S S S E  E  E  E
--------------------------------------|--------------------------------|
--------------------------------------|--------------------------------|
--------------------------------------|--------------------------------|
--0--0--------------0--0--------------|--8--8--------------7-----------|
--0--0--------------0--0--------------|--8--8--------------7-----------|
--0--0--------------0--0--------------|--8--8--------------7-----------|


  E  E  E  S E  S E  E  S S    E  E  E  S S E  S S E  S S
----------------------------|-----------------------------|
----------------------------|-----------------------------|
----------------------------|-----------------------------|
--0--0--0--L-0--0-0--0--0-0-|--8--8--8--8-8-5--5-5-7--7-5-|
--0--0--0--L-0--0-0--0--0-0-|--8--8--8--8-8-5--5-5-7--7-5-|
--0--0--0--L-0--0-0--0--0-0-|--8--8--8--8-8-5--5-5-7--7-5-|


  E  E  E  S E  S E  E  S S    E  E  E  S S E  S S E  S S
----------------------------|-----------------------------|
----------------------------|-----------------------------|
----------------------------|-----------------------------|
--0--0--0--L-0--0-0--0--0-0-|--8--8--8--8-8-5--5-5-7--7-5-|
--0--0--0--L-0--0-0--0--0-0-|--8--8--8--8-8-5--5-5-7--7-5-|
--0--0--0--L-0--0-0--0--0-0-|--8--8--8--8-8-5--5-5-7--7-5-|


  E  E  E  S E  S E  E  S S    E  E  E  S S E  S S E  S S
----------------------------|-----------------------------|
----------------------------|-----------------------------|
----------------------------|-----------------------------|
--0--0--0--L-0--0-0--0--0-0-|--8--8--8--8-8-5--5-5-7--7-5-|
--0--0--0--L-0--0-0--0--0-0-|--8--8--8--8-8-5--5-5-7--7-5-|
--0--0--0--L-0--0-0--0--0-0-|--8--8--8--8-8-5--5-5-7--7-5-|


  E  E  E  S E  S E  E  S S    E  E  E  S S E  S S E  S S
----------------------------|-----------------------------|
----------------------------|-----------------------------|
----------------------------|-----------------------------|
--0--0--0--L-0--0-0--0--0-0-|--8--8--8--8-8-5--5-5-7--7-5-|
--0--0--0--L-0--0-0--0--0-0-|--8--8--8--8-8-5--5-5-7--7-5-|
--0--0--0--L-0--0-0--0--0-0-|--8--8--8--8-8-5--5-5-7--7-5-|


   S S E   S  S  S  S S S S S S  S  E      S S E   S  S  S  S S S  E  S S  E
---------------------------------------|--------------------------------------|
---------------------------------------|--------------------------------------|
---------------------------------------|--------------------------------------|
---------------------------------------|--------------------------------------|
---------------------------------------|--------------------------------------|
--15---0--10-12-12-12---0---0-0-12-15--|--15---0--10-12-12-12---0-13--0-0-13--|


  PM PM
  S  S  E  Q    H           Q     H        Q       W
-------------------------|-------17--------L----|--L----------------|
-------------------------|----------------------|-------------------|
-------------------------|----------------------|-------------------|
--0--0-------------------|----------------------|-------------------|
--0--0-------------------|----------------------|-------------------|
--0--0-------------------|----------------------|-------------------|


                      PM PM             PM PM
  W                   S  S  S S S S S S S  S  S S S S S S
--L----------------|--------------------------------------|
-------------------|--------------------------------------|
-------------------|--------------------------------------|
-------------------|--0--0--------------0--0--------------|
-------------------|--0--0--------------0--0--------------|
-------------------|--0--0--------------0--0--------------|


  PM PM             PM PM                PM PM             PM PM
  S  S  S S S S S S S  S  S S S S S S    S  S  S S S S S S S  S  S S S S S S
--------------------------------------|--------------------------------------|
--------------------------------------|--------------------------------------|
--------------------------------------|--------------------------------------|
--8--8--------------7--7--------------|--0--0--------------0--0--------------|
--8--8--------------7--7--------------|--0--0--------------0--0--------------|
--8--8--------------7--7--------------|--0--0--------------0--0--------------|


  PM PM
  S  S  S S S S S S Q     S S S S    E  E  E  S E  S E  E  S S
----------------------------------|----------------------------|
--------------------------x-x-x-x-|----------------------------|
--------------------------x-x-x-x-|----------------------------|
--8--8--------------7\----x-x-x-x-|--0--0--0--L-0--0-0--0--0-0-|
--8--8--------------7\------------|--0--0--0--L-0--0-0--0--0-0-|
--8--8--------------7\------------|--0--0--0--L-0--0-0--0--0-0-|


  E  E  E  S S E  S S E  S S    E  E  E  S E  S E  E  S S
-----------------------------|----------------------------|
-----------------------------|----------------------------|
-----------------------------|----------------------------|
--8--8--8--8-8-5--5-5-7--7-5-|--0--0--0--L-0--0-0--0--0-0-|
--8--8--8--8-8-5--5-5-7--7-5-|--0--0--0--L-0--0-0--0--0-0-|
--8--8--8--8-8-5--5-5-7--7-5-|--0--0--0--L-0--0-0--0--0-0-|


  E  E  E  S S E  S S E  S S    E  E  E  S E  S E  E  S S
-----------------------------|----------------------------|
-----------------------------|----------------------------|
-----------------------------|----------------------------|
--8--8--8--8-8-5--5-5-7--7-5-|--0--0--0--L-0--0-0--0--0-0-|
--8--8--8--8-8-5--5-5-7--7-5-|--0--0--0--L-0--0-0--0--0-0-|
--8--8--8--8-8-5--5-5-7--7-5-|--0--0--0--L-0--0-0--0--0-0-|


  E  E  E  S S E  S S E  S S    E  E  E  S E  S E  E  S S
-----------------------------|----------------------------|
-----------------------------|----------------------------|
-----------------------------|----------------------------|
--8--8--8--8-8-5--5-5-7--7-5-|--0--0--0--L-0--0-0--0--0-0-|
--8--8--8--8-8-5--5-5-7--7-5-|--0--0--0--L-0--0-0--0--0-0-|
--8--8--8--8-8-5--5-5-7--7-5-|--0--0--0--L-0--0-0--0--0-0-|


  E  E  E  S S E  S S E  S S     S S E   S  S  S  S S S S S S  S  E
-----------------------------|---------------------------------------|
-----------------------------|---------------------------------------|
-----------------------------|---------------------------------------|
--8--8--8--8-8-5--5-5-7--7-5-|---------------------------------------|
--8--8--8--8-8-5--5-5-7--7-5-|---------------------------------------|
--8--8--8--8-8-5--5-5-7--7-5-|--15---0--10-12-12-12---0---0-0-12-15--|


   S S E   S  S  S  S S S  E  S S  E      S S E   S  S  S  S S S S S S  S  E
--------------------------------------|---------------------------------------|
--------------------------------------|---------------------------------------|
--------------------------------------|---------------------------------------|
--------------------------------------|---------------------------------------|
--------------------------------------|---------------------------------------|
--15---0--10-12-12-12---0-13--0-0-13--|--15---0--10-12-12-12---0---0-0-12-15--|


   S S E   S  S  S  S S S E  S S E      E  E   S  S  S  E  E  S S  S  E
------------------------------------|------------------------------------|
------------------------------------|------------------------------------|
------------------------------------|------------------------------------|
------------------------------------|------------------------------------|
------------------------------------|------------------------------------|
--15---0--10-12-12-12---------------|--15--0--10-12-12-12--0--0-0-12-15--|


   E  E   S  S  S  E  S  E  S S  E      E  E   S  S  S  E  E  S S  S  E
------------------------------------|------------------------------------|
------------------------------------|------------------------------------|
------------------------------------|------------------------------------|
------------------------------------|------------------------------------|
------------------------------------|------------------------------------|
--15--0--10-12-12-12--0-13--0-0-13--|--15--0--10-12-12-12--0--0-0-12-15--|


   E  E   S  S  S  E  S  E  S S  E     E  E  E  E  E  E  E  E
------------------------------------|--------------------------|-----|-----|
------------------------------------|--------------------------|-----|-----|
------------------------------------|--------------------------|-----|-----|
------------------------------------|--1--1--1--1--1--1--1--1--|-----|-----|
------------------------------------|--1--1--1--1--1--1--1--1--|-----|-----|
--15--0--10-12-12-12--0-13--0-0-13--|--1--1--1--1--1--1--1--1--|-----|-----|


              E  E  E  S E  S E  E  S S    E  E  E  S S E  S S E  S S
-----|-----|----------------------------|-----------------------------|
-----|-----|----------------------------|-----------------------------|
-----|-----|----------------------------|-----------------------------|
-----|-----|--0--0--0--L-0--0-0--0--0-0-|--8--8--8--8-8-5--5-5-7--7-5-|
-----|-----|--0--0--0--L-0--0-0--0--0-0-|--8--8--8--8-8-5--5-5-7--7-5-|
-----|-----|--0--0--0--L-0--0-0--0--0-0-|--8--8--8--8-8-5--5-5-7--7-5-|


  E  E  E  S E  S E  E  S S    E  E  E  S S E  S S E  S S
----------------------------|-----------------------------|
----------------------------|-----------------------------|
----------------------------|-----------------------------|
--0--0--0--L-0--0-0--0--0-0-|--8--8--8--8-8-5--5-5-7--7-5-|
--0--0--0--L-0--0-0--0--0-0-|--8--8--8--8-8-5--5-5-7--7-5-|
--0--0--0--L-0--0-0--0--0-0-|--8--8--8--8-8-5--5-5-7--7-5-|


   S S E   S  S  S  S S S S S S  S  E      S S E   S  S  S  S S S  E  S S  E
---------------------------------------|--------------------------------------|
---------------------------------------|--------------------------------------|
---------------------------------------|--------------------------------------|
---------------------------------------|--------------------------------------|
---------------------------------------|--------------------------------------|
--15---0--10-12-12-12---0---0-0-12-15--|--15---0--10-12-12-12---0-13--0-0-13--|


   S S E   S  S  S  S S S S S S  S  E      S S E   S  S  S  S S S E  S S E
---------------------------------------|------------------------------------|
---------------------------------------|------------------------------------|
---------------------------------------|------------------------------------|
---------------------------------------|------------------------------------|
---------------------------------------|------------------------------------|
--15---0--10-12-12-12---0---0-0-12-15--|--15---0--10-12-12-12---------------|


   E  E   S  S  S  E  E  S S  S  E      E  E   S  S  S  E  S  E  S S  E
------------------------------------|------------------------------------|
------------------------------------|------------------------------------|
------------------------------------|------------------------------------|
------------------------------------|------------------------------------|
------------------------------------|------------------------------------|
--15--0--10-12-12-12--0--0-0-12-15--|--15--0--10-12-12-12--0-13--0-0-13--|


   E  E   S  S  S  E  E  S S  S  E      E  E   S  S  S  E  S  E  S S  E
------------------------------------|------------------------------------|
------------------------------------|------------------------------------|
------------------------------------|------------------------------------|
------------------------------------|------------------------------------|
------------------------------------|------------------------------------|
--15--0--10-12-12-12--0--0-0-12-15--|--15--0--10-12-12-12--0-13--0-0-13--|


   E  E   S  S  S  E  E  S S  S  E      E  E   S  S  S  E  S  E  S S  E
------------------------------------|------------------------------------|
------------------------------------|------------------------------------|
------------------------------------|------------------------------------|
--15--0--10-12-12-12--0--0-0-12-15--|--15--0--10-12-12-12--0-13--0-0-13--|
--15--0--10-12-12-12--0--0-0-12-15--|--15--0--10-12-12-12--0-13--0-0-13--|
--15--0--10-12-12-12--0--0-0-12-15--|--15--0--10-12-12-12--0-13--0-0-13--|


   E  E   S  S  S  E  E  S S  S  E      E  E   S  S  S  E  S  E  S S  E
------------------------------------|------------------------------------|
------------------------------------|------------------------------------|
------------------------------------|------------------------------------|
--15--0--10-12-12-12--0--0-0-12-15--|--15--0--10-12-12-12--0-13--0-0-13--|
--15--0--10-12-12-12--0--0-0-12-15--|--15--0--10-12-12-12--0-13--0-0-13--|
--15--0--10-12-12-12--0--0-0-12-15--|--15--0--10-12-12-12--0-13--0-0-13--|


                    PM PM PM PM
  E  E  E  E  E  E  S  S  S  S
--------------------------------|----||
--------------------------------|----||
--------------------------------|----||
--1--1--1--1--1--1--1--1--1--1--|----||
--1--1--1--1--1--1--1--1--1--1--|----||
--1--1--1--1--1--1--1--1--1--1--|----||


Guitar 2

Starts at (00:13)


  S  S S  S  S  S  S  S S  S S  S  S  S  S  S
----------------------------------------------|
----------------------------------------------|
------------14----14--------------15----15----|
--0-12---12----12----12-0-12---12----12----12-|
----------------------------------------------|
----------------------------------------------|


  S  S S  S  S  S  S  S S S S S  S S  S S
------------------------------------------|
------------------------------------------|
----10---10-12-10-12-10---9---9-10-9-10-9-|
------------------------------------------|
--8---------------------7-----------------|
------------------------------------------|


  S  S S  S  S  S  S  S S  S S  S  S  S  S  S
----------------------------------------------|
----------------------------------------------|
------------14----14--------------15----15----|
--0-12---12----12----12-0-12---12----12----12-|
----------------------------------------------|
----------------------------------------------|


  S  S S  S  S  S  S  S S S S S  S S  S S
------------------------------------------|
------------------------------------------|
----10---10-12-10-12-10---9---9-10-9-10-9-|
------------------------------------------|
--8---------------------7-----------------|
------------------------------------------|


  PM  PM   PM PM PM PM PMPM  PM   PM PM PM PM PM
  S   S S  S  S  S  S  S S   S S  S  S  S  S  S
------------------------------------------------|
------------------------------------------------|
-------------14----14---------------15----15----|
--0--12---12----12----12-0--12---12----12----12-|
------------------------------------------------|
------------------------------------------------|


  PM  PM   PM PM PM PM PMPM PM   PM  PMPM  PMPM
  S   S S  S  S  S  S  S S  S  S S   S S   S S
------------------------------------------------|
------------------------------------------------|
-----10---10-12-10-12-10----9----9--10-9--10-9--|
------------------------------------------------|
--8----------------------7----------------------|
------------------------------------------------|


  PM  PM   PM PM PM PM PMPM  PM   PM PM PM PM PM
  S   S S  S  S  S  S  S S   S S  S  S  S  S  S
------------------------------------------------|
------------------------------------------------|
-------------14----14---------------15----15----|
--0--12---12----12----12-0--12---12----12----12-|
------------------------------------------------|
------------------------------------------------|


  PM  PM   PM PM PM PM PMPM PM   PM  PMPM  PMPM
  S   S S  S  S  S  S  S S  S  S S   S S   S S
------------------------------------------------|
------------------------------------------------|
-----10---10-12-10-12-10----9----9--10-9--10-9--|
------------------------------------------------|
--8----------------------7----------------------|
------------------------------------------------|


  PM  PM   PM PM PM PM PMPM  PM   PM PM PM PM PM
  S   S S  S  S  S  S  S S   S S  S  S  S  S  S
------------------------------------------------|
------------------------------------------------|
-------------14----14---------------15----15----|
--0--12---12----12----12-0--12---12----12----12-|
------------------------------------------------|
------------------------------------------------|


  PM  PM   PM PM PM PM PMPM PM   PM  PMPM  PMPM
  S   S S  S  S  S  S  S S  S  S S   S S   S S
------------------------------------------------|
------------------------------------------------|
-----10---10-12-10-12-10----9----9--10-9--10-9--|
------------------------------------------------|
--8----------------------7----------------------|
------------------------------------------------|


  PM  PM   PM PM PM PM PMPM  PM   PM PM PM PM PM
  S   S S  S  S  S  S  S S   S S  S  S  S  S  S
------------------------------------------------|
------------------------------------------------|
-------------14----14---------------15----15----|
--0--12---12----12----12-0--12---12----12----12-|
------------------------------------------------|
------------------------------------------------|


  PM  PM   PM PM PM PM PM
  S   S S  S  S  S  S  S E  E  E  E     E  E  E  S S S  S  S  S S  S  S  S
-------------------------------------|-------------------------------------|
-------------------------------------|-------------------------------------|
-----10---10-12-10-12-10-------------|--7--7--7--7-7-7-10-10-10-7-12-12-12-|
-------------------------------------|--x--x--x--x-x-x--x--x--x-x--x--x--x-|
--8----------------------7-----------|--5--5--5--5-5-5--8--8--8-5-10-10-10-|
-------------------------------------|-------------------------------------|


   E   E   E   S  S  E   S  S  E   S  S    E  E  E  S S S  S  S  S S  S  S  S
----------------------------------------|-------------------------------------|
----------------------------------------|-------------------------------------|
--12--12--10--10-10-15--15-15-14--14-14-|--7--7--7--7-7-7-10-10-10-7-12-12-12-|
---x---x---x---x--x--x---x--x--x---x--x-|--x--x--x--x-x-x--x--x--x-x--x--x--x-|
--10--10---8---8--8-13--13-13-12--12-12-|--5--5--5--5-5-5--8--8--8-5-10-10-10-|
----------------------------------------|-------------------------------------|


   E   E   E   S  S  E   S  S  E   S  S    E  E  E  S S S  S  S  S S  S  S  S
----------------------------------------|-------------------------------------|
----------------------------------------|-------------------------------------|
--12--12--10--10-10-15--15-15-14--14-14-|--7--7--7--7-7-7-10-10-10-7-12-12-12-|
---x---x---x---x--x--x---x--x--x---x--x-|--x--x--x--x-x-x--x--x--x-x--x--x--x-|
--10--10---8---8--8-13--13-13-12--12-12-|--5--5--5--5-5-5--8--8--8-5-10-10-10-|
----------------------------------------|-------------------------------------|


   E   E   E   S  S  E   S  S  E   S  S    E  E  E  S S S S S S S S S S
----------------------------------------|-------------------------------|
----------------------------------------|-------------------------------|
--12--12--10--10-10-15--15-15-14--14-14-|--7--7--7--7-7-5-5-7-7-5-5-3-3-|
---x---x---x---x--x--x---x--x--x---x--x-|--x--x--x--x-x-x-x-x-x-x-x-x-x-|
--10--10---8---8--8-13--13-13-12--12-12-|--5--5--5--5-5-3-3-5-5-3-3-1-1-|
----------------------------------------|-------------------------------|


  S S S S S S S S S S S S S S S S     S S E   S  S  S  S S S S S S  S  E
----------------------------------|---------------------------------------|
----------------------------------|---------------------------------------|
--3-3-3-3-3-3-3-3-3-3-3-3-2-2-2-2-|---------------------------------------|
--x-x-x-x-x-x-x-x-x-x-x-x-x-x-x-x-|---------------------------------------|
--1-1-1-1-1-1-1-1-1-1-1-1-0-0-0-0-|---------------------------------------|
----------------------------------|--15---0--10-12-12-12---0---0-0-12-15--|


   S S E   S  S  S  S S S  E  S S  E      W
--------------------------------------|--------------------|
--------------------------------------|--15----------------|
--------------------------------------|--------------------|
--------------------------------------|--------------------|
--------------------------------------|--------------------|
--15---0--10-12-12-12---0-13--0-0-13--|--------------------|


  H         H           W                   W
---------------------|-------------------|-------------------|
-----------15--------|--L----------------|--L----------------|
---------------------|-------------------|-------------------|
---------------------|-------------------|-------------------|
---------------------|-------------------|-------------------|
---------------------|-------------------|-------------------|


  PM  PM   PM PM PM PM PMPM  PM   PM PM PM PM PM
  S   S S  S  S  S  S  S S   S S  S  S  S  S  S
------------------------------------------------|
------------------------------------------------|
-------------14----14---------------15----15----|
--0--12---12----12----12-0--12---12----12----12-|
------------------------------------------------|
------------------------------------------------|


  PM  PM   PM PM PM PM PMPM PM   PM  PMPM  PMPM
  S   S S  S  S  S  S  S S  S  S S   S S   S S
------------------------------------------------|
------------------------------------------------|
-----10---10-12-10-12-10----9----9--10-9--10-9--|
------------------------------------------------|
--8----------------------7----------------------|
------------------------------------------------|


  PM  PM   PM PM PM PM PMPM  PM   PM PM PM PM PM
  S   S S  S  S  S  S  S S   S S  S  S  S  S  S
------------------------------------------------|
------------------------------------------------|
-------------14----14---------------15----15----|
--0--12---12----12----12-0--12---12----12----12-|
------------------------------------------------|
------------------------------------------------|


  PM  PM   PM PM PM PM PM
  S   S S  S  S  S  S  S Q     S S S S    E  E  E  S S S  S  S  S S  S  S  S
---------------------------------------|-------------------------------------|
-------------------------------x-x-x-x-|-------------------------------------|
-----10---10-12-10-12-10-------x-x-x-x-|--7--7--7--7-7-7-10-10-10-7-12-12-12-|
-------------------------------x-x-x-x-|--x--x--x--x-x-x--x--x--x-x--x--x--x-|
--8----------------------7\------------|--5--5--5--5-5-5--8--8--8-5-10-10-10-|
---------------------------------------|-------------------------------------|


   E   E   E   S  S  E   S  S  E   S  S    E  E  E  S S S  S  S  S S  S  S  S
----------------------------------------|-------------------------------------|
----------------------------------------|-------------------------------------|
--12--12--10--10-10-15--15-15-14--14-14-|--7--7--7--7-7-7-10-10-10-7-12-12-12-|
---x---x---x---x--x--x---x--x--x---x--x-|--x--x--x--x-x-x--x--x--x-x--x--x--x-|
--10--10---8---8--8-13--13-13-12--12-12-|--5--5--5--5-5-5--8--8--8-5-10-10-10-|
----------------------------------------|-------------------------------------|


   E   E   E   S  S  E   S  S  E   S  S    E  E  E  S S S  S  S  S S  S  S  S
----------------------------------------|-------------------------------------|
----------------------------------------|-------------------------------------|
--12--12--10--10-10-15--15-15-14--14-14-|--7--7--7--7-7-7-10-10-10-7-12-12-12-|
---x---x---x---x--x--x---x--x--x---x--x-|--x--x--x--x-x-x--x--x--x-x--x--x--x-|
--10--10---8---8--8-13--13-13-12--12-12-|--5--5--5--5-5-5--8--8--8-5-10-10-10-|
----------------------------------------|-------------------------------------|


   E   E   E   S  S  E   S  S  E   S  S    E  E  E  S S S S S S S S S S
----------------------------------------|-------------------------------|
----------------------------------------|-------------------------------|
--12--12--10--10-10-15--15-15-14--14-14-|--7--7--7--7-7-5-5-7-7-5-5-3-3-|
---x---x---x---x--x--x---x--x--x---x--x-|--x--x--x--x-x-x-x-x-x-x-x-x-x-|
--10--10---8---8--8-13--13-13-12--12-12-|--5--5--5--5-5-3-3-5-5-3-3-1-1-|
----------------------------------------|-------------------------------|


  S S S S S S S S S S S S S S S S     S S E   S  S  S  S S S S S S  S  E
----------------------------------|---------------------------------------|
----------------------------------|---------------------------------------|
--3-3-3-3-3-3-3-3-3-3-3-3-2-2-2-2-|---------------------------------------|
--x-x-x-x-x-x-x-x-x-x-x-x-x-x-x-x-|---------------------------------------|
--1-1-1-1-1-1-1-1-1-1-1-1-0-0-0-0-|---------------------------------------|
----------------------------------|--15---0--10-12-12-12---0---0-0-12-15--|


   S S E   S  S  S  S S S  E  S S  E      S S E   S  S  S  S S S S S S  S  E
--------------------------------------|---------------------------------------|
--------------------------------------|---------------------------------------|
--------------------------------------|---------------------------------------|
--------------------------------------|---------------------------------------|
--------------------------------------|---------------------------------------|
--15---0--10-12-12-12---0-13--0-0-13--|--15---0--10-12-12-12---0---0-0-12-15--|


          PM PM PM PM PM PM PM  PM PM PM PM PM PM PM PM PM PM PM
          |--3--|  |--3--|  |---3--|  |--3--|  |--3--|  |--3--|
   S S E  S  S  S  S  S  S  S   S  S  S  S  S  S  S  S  S  S  S
----------------------------------------------------------------|
----------3--4--5--6--7--8--9--10-11-11-12-12-13-13-14-14-15-15-|
----------------------------------------------------------------|
----------------------------------------------------------------|
----------------------------------------------------------------|
--15---0--------------------------------------------------------|


   H         Q    S S S S      Q     S S S   Q     E    E   S
--------------------------|-----------------------------------|
--13b--------L----L-------|-----------------------------------|
----------------------5-7-|--<>7b----7-5-7--------------------|
--------------------7-----|----------------<>5~----L--/12\--L-|
--------------------------|---------------------------/12\--L-|
--------------------------|---------------------------/12\--L-|


   W     W     W    W
   E  S  E  S  E  S E  S  S  S  E      E  S  E  S   Q     E   Q
----------------------------12-13--|-------------------------13b----|
-------------------------15--------|--11--L-10--L-------------------|
-----------------------------------|--------------<>7~----L---------|
--12--L-11--L-10--L-8--L-----------|--------------------------------|
-----------------------------------|--------------------------------|
-----------------------------------|--------------------------------|


   |--3--|  |--3--|  |--3--|  |--3--|  |--3--|  |--3--|  |--3--|  |--3--|
   S  S  S  S  S  S  S  S  S  S  S  S  S  S  S  S  S  S  S  S  S  S  S  S
--------------------------------------------------------20-18-17----------|
--18-17-15----------20-18-17----------22-20-18-22-20-18----------20-18-17-|
-----------17-16-14----------19-17-16-------------------------------------|
--------------------------------------------------------------------------|
--------------------------------------------------------------------------|
--------------------------------------------------------------------------|


   W
--20b----------------|-------|-------|-------|
---------------------|-------|-------|-------|
---------------------|-------|-------|-------|
---------------------|-------|-------|-------|
---------------------|-------|-------|-------|
---------------------|-------|-------|-------|


  E  E  E  S S S  S  S  S S  S  S  S     E   E   E   S  S  E   S  S  E   S  S
-------------------------------------|----------------------------------------|
-------------------------------------|----------------------------------------|
--7--7--7--7-7-7-10-10-10-7-12-12-12-|--12--12--10--10-10-15--15-15-14--14-14-|
--x--x--x--x-x-x--x--x--x-x--x--x--x-|---x---x---x---x--x--x---x--x--x---x--x-|
--5--5--5--5-5-5--8--8--8-5-10-10-10-|--10--10---8---8--8-13--13-13-12--12-12-|
-------------------------------------|----------------------------------------|


  E  E  E  S S S S S S S S S S    S S S S S S S S S S S S S S S S
-------------------------------|----------------------------------|
-------------------------------|----------------------------------|
--7--7--7--7-7-5-5-7-7-5-5-3-3-|--3-3-3-3-3-3-3-3-3-3-3-3-2-2-2-2-|
--x--x--x--x-x-x-x-x-x-x-x-x-x-|--x-x-x-x-x-x-x-x-x-x-x-x-x-x-x-x-|
--5--5--5--5-5-3-3-5-5-3-3-1-1-|--1-1-1-1-1-1-1-1-1-1-1-1-0-0-0-0-|
-------------------------------|----------------------------------|


   S S E   S  S  S  S S S S S S  S  E      S S E   S  S  S  S S S  E  S S  E
---------------------------------------|--------------------------------------|
---------------------------------------|--------------------------------------|
---------------------------------------|--------------------------------------|
---------------------------------------|--------------------------------------|
---------------------------------------|--------------------------------------|
--15---0--10-12-12-12---0---0-0-12-15--|--15---0--10-12-12-12---0-13--0-0-13--|


   S S E   S  S  S  S S S S S S  S  E      S S E   S  S  S  S S S E  S S E
---------------------------------------|------------------------------------|
---------------------------------------|------------------------------------|
---------------------------------------|------------------------------------|
---------------------------------------|------------------------------------|
---------------------------------------|------------------------------------|
--15---0--10-12-12-12---0---0-0-12-15--|--15---0--10-12-12-12---------------|


   E  E   S  S  S  E  E  S S  S  E      E  E   S  S  S  E  S  E  S S  E
------------------------------------|------------------------------------|
------------------------------------|------------------------------------|
------------------------------------|------------------------------------|
------------------------------------|------------------------------------|
------------------------------------|------------------------------------|
--15--0--10-12-12-12--0--0-0-12-15--|--15--0--10-12-12-12--0-13--0-0-13--|


   E  E   S  S  S  E  E  S S  S  E      E  E   S  S  S  E  S  E  S S  E
------------------------------------|------------------------------------|
------------------------------------|------------------------------------|
------------------------------------|------------------------------------|
------------------------------------|------------------------------------|
------------------------------------|------------------------------------|
--15--0--10-12-12-12--0--0-0-12-15--|--15--0--10-12-12-12--0-13--0-0-13--|


   E  E   S  S  S  E  E  S S  S  E      E  E   S  S  S  E  S  E  S S  E
------------------------------------|------------------------------------|
------------------------------------|------------------------------------|
------------------------------------|------------------------------------|
--15--0--10-12-12-12--0--0-0-12-15--|--15--0--10-12-12-12--0-13--0-0-13--|
--15--0--10-12-12-12--0--0-0-12-15--|--15--0--10-12-12-12--0-13--0-0-13--|
--15--0--10-12-12-12--0--0-0-12-15--|--15--0--10-12-12-12--0-13--0-0-13--|


   E  E   S  S  S  E  E  S S  S  E      E  E   S  S  S  E  S  E  S S  E
------------------------------------|------------------------------------|
------------------------------------|------------------------------------|
------------------------------------|------------------------------------|
--15--0--10-12-12-12--0--0-0-12-15--|--15--0--10-12-12-12--0-13--0-0-13--|
--15--0--10-12-12-12--0--0-0-12-15--|--15--0--10-12-12-12--0-13--0-0-13--|
--15--0--10-12-12-12--0--0-0-12-15--|--15--0--10-12-12-12--0-13--0-0-13--|


                    PM PM PM PM
  E  E  E  E  E  E  S  S  S  S
--------------------------------|----||
--------------------------------|----||
--------------------------------|----||
--1--1--1--1--1--1--1--1--1--1--|----||
--1--1--1--1--1--1--1--1--1--1--|----||
--1--1--1--1--1--1--1--1--1--1--|----||


Duration Legend
---------------
W - whole
H - half
Q - quarter
E - 8th
S - 16th
T - 32nd
X - 64th
. - note dotted
|-n-|  - n-tuplets


Tablature Legend
----------------
L - tied note
x - dead note
g - grace note
(n) - ghost note
> - accentuded note
NH - natural harmonic
AH - artificial harmonic
TH - tapped harmonic
SH - semi harmonic
PH - pitch harmonic
h - hammer on
p - pull off
b - bend
br - bendRelease
pb - preBend
pbr - preBendRelease
brb - bendReleaseBend
\n/ - tremolo bar dip
\n - tremolo bar dive
-/n - tremolo bar Release up
/n\ - tremolo bar inverted dip
/n - tremolo bar return
-\n - tremolo bar Release down
S - shift slide
s - legato slide
/ -  slide into from below or out of upwards
\ -  slide into from above or out of downwards
~ - vibrato
W - wide vibrato
tr - trill
TP - tremolo picking
T - tapping
S - slap
P - pop
< - fade in
^ - brush up
v - brush down


That is all! I hope this helped, and be sure to check out my cover if you are
having problems with the tab. Thanks, oh and one last thing... ROCK OUT!!!!]
comments
We did not receive enough feedback on this tab! Please rate:
print report bad tab
1 2 3 4 5
I want to post or [tab]
guest
You may want to rate the tab now too:
select rating
Please do not post tabs as comments. Select "correction" instead!