Oops, an error
Loading. Please wait.

Something Bass Tab

ver4
ver4

Whole song

Interactive

More versions @911Tabs.com
1,532 views 3 this week
1 commentread comment
1 2 3 4 5
excellent!
x 4
Autoscroll
+/-
esc
set tempo
stop
Contributor
Tuning
C G C F A D
Hey! There's an official Ultimate Guitar app which is ideal
for learning songs when you're away from computer. Get the app
WARNING: You are trying to view
                                    content from Ultimate-Guitar.com
                                    in an unauthorized application,
                                    which is prohibited.

                                    Please use an official Ultimate
                                    Guitar Tabs application for iPhone,
                                    iPad or Android to access legitimate
                                    chords, guitar, bass, and drum tabs
                                    from Ultimate-Guitar.com database.

                                    Type "ultimate guitar tabs" in Apple
                                    App Store's or Android Market's
                                    search to find the application.
Intro 0:05
F|-----------------------------------------------------------------|
C|-----------------------------------------------------------------|
G|---------------------------------3-3-3-3-3-3---3-3-3-3---3---3---|
C|-6-6-6-6-6-6---6-6-6-6---6---6-----------------------------------|
   1   +   2   +   3   +   4   +   1   +   2   +   3   +   4   +   

0:11
F|-----------------------------------------------------------------|
C|-----------------------------------------------------------------|
G|---------------------------------3-3-3-3-3-3---3-6-6-6---6---6---|
C|-6---6---6-6---6-6-6-6---6---6-----------------------------------|
   1   +   2   +   3   +   4   +   1   +   2   +   3   +   4   +   

Verse 0:16
F|-----------------------------------------------------------------|
C|---------------------------------------------------------6-6-----|
G|-----------------------------------------------5-6-6-6-6-----6-5-|
C|-6---6---------6---6-6-----------6---6---------------------------|
   1   +   2   +   3   +   4   +   1   +   2   +   3   +   4   +   

0:21
F|-----------------------------------------------------------------|
C|-----------------------------------------------------------------|
G|-3---3-------3-3---3-3-----------3---3-------3-3---3-3---6---\---|
C|-----------------------------------------------------------------|
   1   +   2   +   3   +   4   +   1   +   2   +   3   +   4   +   

0:27
F|-----------------------------------------------------------------|
C|---------------------------------------------------------6-6-----|
G|---------------------------------------------------6-6-------6-5-|
C|-6---6-------6-6---6-6-----------6---6---------------------------|
   1   +   2   +   3   +   4   +   1   +   2   +   3   +   4   +   

0:33
F|---------5-5-----------------------------5-5-------------/-8-\---|
C|-----------------------------------------------------------------|
G|-3---3-------3-3---3-3-----------3---3-------3-3---3-3-----------|
C|-----------------------------------------------------------------|
   1   +   2   +   3   +   4   +   1   +   2   +   3   +   4   + 

0:38
F|-----------------------------------------------------------------|
C|-------------------------------------------------6---5-----------|
G|---------------------------------------------------------6---5---|
C|-6---6-6-6-6-6-6-6-6-6-6-6-6-6-6-6-6-6-6-6-6-6-6-----------------|
   1   +   2   +   3   +   4   +   1   +   2   +   3   +   4   + 

0:43
F|-----------------------------------------------------------------|
C|-----------------------------------------------------------------|
G|-3---3-3-3-3-3-3-3-3-3-3-3-3-3-3-3-3-3-3-3-3-3-3-3-3-3-3-5-5-6-6-|
C|-----------------------------------------------------------------|
   1   +   2   +   3   +   4   +   1   +   2   +   3   +   4   + 

0:49
F|-----------------------------------------------------------------|
C|---------6---------------------------------------6-6-6-6---------|
G|-------------------------6-6-6-6-------------------------6-6-6-6-|
C|-6---6-6---6-6-6-6-6-6-6---------6-6-6-6-6-6-6-6-----------------|
   1   +   2   +   3   +   4   +   1   +   2   +   3   +   4   + 

0:55
F|-----------------------------------------------------------------|
C|-----------------------------------------------------8---10--8---|
G|-3-3-3-3-3-3-3-3-3-3-3-3-3-3-3-3-3-3-3-3-3-3-3-3-6---------------|
C|-----------------------------------------------------------------|
   1   +   2   +   3   +   4   +   1   +   2   +   3   +   4   + 

Pre Chorus 1:00
F|-----------------------------------------------------------------|
C|-----------------------------------------------------------------|
G|-----------------------------------------------------------------|
C|-3---3---------------------------6-6-6-6-----6-6-6-6-----6-6-----|
   1   +   2   +   3   +   4   +   1   +   2   +   3   +   4   + 

Chorus 1:06
F|-----------------------------------------------------------------|
C|-----------------------------------------------------------------|
G|---------------------------------3---3---3-3---3-3---3---3-3---3-|
C|-1---1---1-1---1-5---5---5-5---5---------------------------------|
   1   +   2   +   3   +   4   +   1   +   2   +   3   +   4   + 

1:11
F|-----------------------------------------------------------------|
C|-----------------------------------------------------------------|
G|---------------------------------3---3---3-3-----1---1---1-1-1-1-|
C|-6---6---6-6-----5---5---5-5-------------------------------------|
   1   +   2   +   3   +   4   +   1   +   2   +   3   +   4   + 

1:17
F|-----------------------------------------------------------------|
C|-----------------------------------------------------------------|
G|---------------------------------3---3---3-3---3-3---3---3-3---3-|
C|-1---1---1-1---1-5---5---5-5---5---------------------------------|
   1   +   2   +   3   +   4   +   1   +   2   +   3   +   4   + 

F|-----------------------------------------------------------------|
C|-----------------------------------------------------------------|
G|---------------------------------3-------------------------------|
C|-6---6---6-6-----5---5---5-5-------------------------------------|
   1   +   2   +   3   +   4   +   1   +   2   +   3   +   4   + 

Verse 1:27
F|-----------------------------------------------------------------|
C|-----------------------------------------------------------------|
G|-------------------------------------------------------------6-6-|
C|-6-6-6-6-6-6---6-6-6-6-6-6-6---6-6-6-6-6-6-6---6-6-6-6-6-6-6-----|
   1   +   2   +   3   +   4   +   1   +   2   +   3   +   4   + 

1:33
F|-----------------------------------------------------------------|
C|-------------------------5-5-5-5-----------------------------5---|
G|-3-3-3-3-5-5-5-5-6-6-6-6---------3-3-3-3-5-5-5-5-6-6-6-6-6-8-----|
C|-----------------------------------------------------------------|
   1   +   2   +   3   +   4   +   1   +   2   +   3   +   4   + 

1:38
F|-----------------------------------------------------------------|
C|-6-6-6-6-6-6---6-6-6-6-6-6-6---6-6-6-6-6-6-6---6-6-6-6-6-6-6-----|
G|-------------------------------------------------------------6-6-|
C|-----------------------------------------------------------------|
   1   +   2   +   3   +   4   +   1   +   2   +   3   +   4   + 

1:44
F|-----------------------------------------------------------------|
C|-------------------------5-5-5-5---------------------------------|
G|-3-3-3-3-5-5-5-5-6-6-6-6---------6-6-6-6-5-5-5-5-3-3-3-3-1-1-1-1-|
C|-----------------------------------------------------------------|
   1   +   2   +   3   +   4   +   1   +   2   +   3   +   4   + 

1:49
F|-----------------------------------------------------------------|
C|---------------------------------------------------------5-5-5-5-|
G|---------6-6-6-6---------6-6-6-6---------6-6-6-6-----------------|
C|-6---6-6-----------6-6-----------6---6-6-----------6-6-----------|
   1   +   2   +   3   +   4   +   1   +   2   +   3   +   4   + 

1:55
F|-----------------------------------------------------------------|
C|-----------------------------------------------------------------|
G|-3---3---3---3---3---3---3---3---3---3---3---3-/-1515151515151515|
C|-----------------------------------------------------------------|
   1   +   2   +   3   +   4   +   1   +   2   +   3   +   4   + 

Pre Chorus 2:00
F|-----------------------------------------------------------------|
C|-----------------------------------------------------------------|
G|-----------------3---/---8-------------------------------6-------|
C|-3---3---------------------------6-6-6-6-----6-6-6-6-------6-\---|
   1   +   2   +   3   +   4   +   1   +   2   +   3   +   4   + 

Chorus 2:06
F|-----------------------------------------------------------------|
C|-----------------------------------------------------------------|
G|---------------------------------3---3---3-3---3/15--15--1515--15|
C|-1---1---1-1---1-5---5---5-5---5---------------------------------|
   1   +   2   +   3   +   4   +   1   +   2   +   3   +   4   + 

2:11
F|-----------------------------------------------------------------|
C|-----------------------------------------------------------------|
G|---------------------------------3---3---3-3-----1---1---1-1-1-1-|
C|-6---6---6-6-----5---5---5-5-------------------------------------|
   1   +   2   +   3   +   4   +   1   +   2   +   3   +   4   + 

2:17
F|-----------------------------------------------------------------|
C|-----------------------------------------------------------------|
G|---------------------------------3---3---3-3---3/15--15--1515--15|
C|-1---1---1-1---1-5---5---5-5---5---------------------------------|
   1   +   2   +   3   +   4   +   1   +   2   +   3   +   4   + 

2:22
F|-----------------------------------------------------------------|
C|-----------------------------------------------------------------|
G|---------------------------------3---------------3---------------|
C|-6---6---6-6-----5---5---5-5-------------------------------------|
   1   +   2   +   3   +   4   +   1   +   2   +   3   +   4   + 

Bridge
F|-----------------------------------------------------------------|
C|-----------------------------------------------------------------|
G|-3---3---3---3---3---3---3---3---8---8---8---8---8---8---8---8---|
C|-----------------------------------------------------------------|
   1   +   2   +   3   +   4   +   1   +   2   +   3   +   4   + 

2:33
F|-----------------------------------------------------------------|
C|-----------------------------------------------------------------|
G|-5---5---5---5---5---5---5---5-----------6---------------5-------|
C|---------------------------------6-6-6-6---------5-5-5-5---------|
   1   +   2   +   3   +   4   +   1   +   2   +   3   +   4   + 

2:18
F|-----------------------------------------------------------------|
C|-----------------------------------------------------------------|
G|-3---3---3---3---3---3---3---3---8---8---8---8---8---8---8---8---|
C|-----------------------------------------------------------------|
   1   +   2   +   3   +   4   +   1   +   2   +   3   +   4   + 

2:44
F|-----------------------------------------------------------------|
C|-----------------------------------------------------------------|
G|-5---5---5---5---5---5---5---5-----------6-------5---------------|
C|---------------------------------6-6-6-6-------------------------|
   1   +   2   +   3   +   4   +   1   +   2   +   3   +   4   + 

Break 2:51
F|-----------------------------------------------------------------|
C|-----------------------------------------------------------------|
G|-----------------------------------------------------------------|
C|-----------------------------------------------------------------|
   1   +   2   +   3   +   4   +   1   +   2   +   3   +   4   + 

F|-----------------------------------------------------------------|
C|-----------------------------------------------------------------|
G|-------------------------3---------------------------------------|
C|---------------------------------------------------------/-6-\---|
   1   +   2   +   3   +   4   +   1   +   2   +   3   +   4   + 

Chorus 3:02
F|-----------------------------------------------------------------|
C|-----------------------------------------------------------------|
G|---------------------------------3---3---3-3---3-3---3-3-3-3---3-|
C|-1---1---1-1---1-5---5---5-5---5---------------------------------|
   1   +   2   +   3   +   4   +   1   +   2   +   3   +   4   + 

3:08
F|---------------------------------------------------------5---3---|
C|-6---6---6-6-----5---5---5-5-----------------------1-3-5---------|
G|---------------------------------3---/---3---/---3---------------|
C|-----------------------------------------------------------------|
   1   +   2   +   3   +   4   +   1   +   2   +   3   +   4   + 

3:13
F|-----------------------------------------------------------------|
C|-----------------------------------------------------------------|
G|-6---6---6-6---6-5---5---5-5---5-3-3-3-3-3-------1-1-1-1-1---/---|
C|-----------------------------------------------------------------|
   1   +   2   +   3   +   4   +   1   +   2   +   3   +   4   + 

3:19
F|-----------------------------------------------------------------|
C|-----------------------------------------------------------------|
G|---------------------------------3-------------------------------|
C|-6---6---6-6-----5---5---5-5-------------------------------------|
   1   +   2   +   3   +   4   +   1   +   2   +   3   +   4   + 

Outro 3:24
F|-----------------------------------------------------------------|
C|-----------------------------------------------------------------|
G|---------------------------------3---3---3-3---3-6---6---6-6---6-|
C|-6---6---6-6---6-6-6-6---6-6-------------------------------------|
   1   +   2   +   3   +   4   +   1   +   2   +   3   +   4   +  

3:29
F|-----------------------------------------------------------------|
C|-----------------------------------------------------------------|
G|---------------------------------3-3-3-3-----3-3-3-3-------------|
C|-6---6---6-6---6-6---6---6-6---6---------------------------------|
   1   +   2   +   3   +   4   +   1   +   2   +   3   +   4   +  
Tabbed by Dave Vucko
comments
print report bad tab
1 comment total.
+2 reply
tommoandrew wrote on September 5 2013, 11:00 am

this song reminds you how good a bassist max green is!

I want to post or [tab]
guest
You may want to rate the tab now too:
select rating
Please do not post tabs as comments. Select "correction" instead!