Oops, an error
Loading. Please wait.

Something Tab

ver4
ver4

Solo

Interactive

More versions @911Tabs.com
2,607 views 1 this week
no commentswrite comment
1 2 3 4 5
please rate
Autoscroll
+/-
esc
set tempo
stop
Contributor
Difficulty
Tuning
novice
D A D G B E
Hey! There's an official Ultimate Guitar app which is ideal
for learning songs when you're away from computer. Get the app
WARNING: You are trying to view
                                    content from Ultimate-Guitar.com
                                    in an unauthorized application,
                                    which is prohibited.

                                    Please use an official Ultimate
                                    Guitar Tabs application for iPhone,
                                    iPad or Android to access legitimate
                                    chords, guitar, bass, and drum tabs
                                    from Ultimate-Guitar.com database.

                                    Type "ultimate guitar tabs" in Apple
                                    App Store's or Android Market's
                                    search to find the application.
Intro (0:00-0:16)

Guitar 1

e|-------------------------------------------8-8h9---------------|
b|--6h7p6--6--6h7p6--7h9-9----6h7p6--6--6h7--x-x----9------------| 
g|--6~-----6--6------6--------6------6--6----6-6----6------------|  Clean
d|---------------------------------------------------------------|
a|---------------------------------------------------------------|
D|---------------------------------------------------------------| 

e|-------------------------------------------8-8h9---------------|
b|--6h7p6--6--6h7p6--7h9-9----6h7p6--6--6h7--x-x----9--7---------|
g|--6~-----6--6------6--------6------6--6----6-6----6--6---------|
d|---------------------------------------------------------------|
a|---------------------------------------------------------------|
D|---------------------------------------------------------------| 
                                                                    Overdrive
e|-------------------------------------------8-8h9---------------|
b|--6h7p6--6--6h7p6--7h9-9----6h7p6--6--6h7--x-x----9------------|
g|--6~-----6--6------6--------6------6--6----6-6----6------------|
d|---------------------------------------------------------------|
a|---------------------------------------------------------------|
D|---------------------------------------------------------------| 

Guitar 2

e|---------------------------------------------------------------|
b|---------------------------------------------------------------|
g|---------------------------------------------------------------|
d|---------------------------------------------------------------|
a|---------------------------------------------------------------|
D|---------------------------------------------------------------|

e|---------------------------------------------------------------|
b|---------------------------------------------------------------|
g|---------------------------------------------------------------|
d|--444444--xx--444444--4--888888--xx--888888--8-----------------|
a|--444444--xx--444444--4--888888--xx--888888--8-----------------|
D|--444444--xx--444444--4--888888--xx--888888--8-----------------| 

e|---------------------------------------------------------------|
b|---------------------------------------------------------------|
g|---------------------------------------------------------------|
d|--444444--xx--444444--4--888888--xx--888888--8-----------------|
a|--444444--xx--444444--4--888888--xx--888888--8-----------------|
D|--444444--xx--444444--4--888888--xx--888888--8-----------------| 

e|-------|
b|--6~---|
g|--6~---|
d|--6~---|
a|-------|
D|-------|

Verse 1 (0:16-1:00)

(0:16-0:38)
e|-------------------------------------------------------|
b|----------6--------------------------------------------|
g|----6---6---6---6--------------------------------------|
d|--4---4-------4----------------------------------------|
a|-------------------------------------------------------| 
D|-------------------------------------------------------|

(0:38-1:00) 
e|-------------------------------------------------------|
b|----------6--------------------------------------------|
g|----6---6---6---6--------------------------------------|
d|--4---4-------4----------------------------------------|
a|-------------------------------------------------------| 
D|-------------------------------------------------------|
PM  . . . . . . . .

Pre-Chorus (1:00-1:05)

e|-------------------------------------------------------|
b|-------------------------------------------------------|
g|-------------------------------------------------------|
d|--11~----4444--4444--xx--------------------------------|
a|--11~----4444--4444--xx--------------------------------|
D|--11~----4444--4444--xx--------------------------------|

Chorus (1:05-1:27)

e|-------------------------------------------------------|
b|-------------------------------------------------------|
g|-------------------------------------------------------|
d|--4~-----6~-----8~-----8~----8~------------------------|
a|--4~x6---6~x6---8~x6---8~x4--8~------------------------|
D|--4~-----6~-----8~-----8~----8~------------------------| 

e|-------------------------------------------------------|
b|-------------------------------------------------------|
g|-------------------------------------------------------|
d|--4~-----1~-----8~-----6~------------------------------|
a|--4~x6---1~x6---8~x6---6~x6----------------------------|
D|--4~-----1~-----8~-----6~------------------------------|

e|-------------------------------------------------------|
b|-------------------------------------------------------|
g|-------------------------------------------------------|
d|--4~-----6~-----8~-----8~----8~------------------------|
a|--4~x6---6~x6---8~x6---8~x4--8~------------------------|
D|--4~-----6~-----8~-----8~----8~------------------------|

e|-------------------------------------------------------|
b|-------------------------------------------------------|
g|-------------------------------------------------------|
d|--4~-----1~--------------------------------------------|
a|--4~x6---1~x6------------------------------------------|
D|--4~-----1~--------------------------------------------|


Verse 2 (1:27-2:00)

e|-------4---------|
b|-----------6~----|
g|----6----6-------|
d|--4--------------|
a|-----------------|
D|-----------------|

e|--4--------------|
b|--------6-----6~-|
g|-----6-----6-----|
d|-----------------|
a|-----------------|
D|-----------------|

e|-------------------------------------------------------|
b|----------6--------------------------------------------|
g|----6---6---6---6--------------------------------------|
d|--4---4-------4----------------------------------------|
a|-------------------------------------------------------| 
D|-------------------------------------------------------|
PM  . . . . . . . .

Pre-Chorus (2:00-2:05)

Chorus (2:05-2:27)

Bridge (2:27-3:02)

(2:27-2:51)
e|---------------------------------------------------| Sorry for the second 
b|---------------------------------------------------| guitar I didn't hear 
g|---------------------------------------------------| her
d|--4-4-4-4---8-8-8-8---1-1-1-1---44444~-11111~------|
a|--4 4-4-4x2-8-8-8-8x2-1-1-1-1x2-44444~-11111~------|
D|--4-4-4-4---8-8-8-8---1-1-1-1---44444~-11111~------|
 PM                               .....  .....
e|---------------------------------------------------|
b|---------------------------------------------------|
g|---------------------------------------------------|
d|--4-4-4-4---8-8-8-8---1-1-1-1---44444~-1~----------|
a|--4 4-4-4x2-8-8-8-8x2-1-1-1-1x2-44444~-1~----------|
D|--4-4-4-4---8-8-8-8---1-1-1-1---44444~-1~----------|
 PM                               .....  

clean:
(2:51-2:59)
e|----------8---8-9-13---13----11-9-------------------|
b|----6-9-6---6--------9----9-------------------------|
g|--6-------------------------------------------------|
d|----------------------------------------------------|
a|----------------------------------------------------|
D|----------------------------------------------------|  Overdrive:
                                   (3:00-3:02)
e|----------------------------------------------------|  |-----------| 
b|----6-9-6-11----------------------------------------|  |-----------|
g|--6---------9-11-7~---------------------------------|  |-----------|
d|----------------------------------------------------|  |-6~--------|
a|----------------------------------------------------|  |-6~--------|
D|----------------------------------------------------|  |-6~--------|


Chorus (3:02-3:24)

e|-------------------------------------------------------|
b|-------------------------------------------------------|
g|-------------------------------------------------------|
d|--4~-----6~-----8~-----8~----8~------------------------|
a|--4~x6---6~x6---8~x6---8~x4--8~------------------------|
D|--4~-----6~-----8~-----8~----8~------------------------| 

e|-------------------------------------------------------|
b|-------------------------------------------------------|
g|-------------------------------------------------------|
d|--4~-----1~-----8~-----6~------------------------------|
a|--4~x6---1~x6---8~x6---6~x6----------------------------|
D|--4~-----1~-----8~-----6~------------------------------|

e|-------------------------------------------------------|
b|-------------------------------------------------------|
g|-------------------------------------------------------|
d|--4~-----6~-----8~-----8~----8~------------------------|
a|--4~x6---6~x6---8~x6---8~x4--8~------------------------|
D|--4~-----6~-----8~-----8~----8~------------------------|

e|-------------------------------------------------------|
b|-------------------------------------------------------|
g|-------------------------------------------------------|
d|--4~-----1~----8~--------------------------------------|
a|--4~x6---1~x6--8~--------------------------------------|
D|--4~-----1~----8~--------------------------------------|

Intro (3:24-3:35)

Guitar 1

e|-------------------------------------------8-8h9---------------|
b|--6h7p6--6--6h7p6--7h9-9----6h7p6--6--6h7--x-x----9--7---------|
g|--6~-----6--6------6--------6------6--6----6-6----6--6---------|
d|---------------------------------------------------------------|
a|---------------------------------------------------------------|
D|---------------------------------------------------------------| 

e|---------------------------------------------------------------|
b|--6h7p6--6--6h7p6--7h9-9--7~-----------------------------------|
g|--6~-----6--6------6------6~-----------------------------------|
d|---------------------------------------------------------------|
a|---------------------------------------------------------------|
D|---------------------------------------------------------------| 

Guitar 2

e|---------------------------------------------------------------|
b|---------------------------------------------------------------|
g|---------------------------------------------------------------|
d|--444444--xx--444444--4--888888--xx--888888--8-----------------|
a|--444444--xx--444444--4--888888--xx--888888--8-----------------|
D|--444444--xx--444444--4--888888--xx--888888--8-----------------| 

e|---------------------------------------------------------------|
b|---------------------------------------------------------------|
g|---------------------------------------------------------------|
d|--444444--xx--444444--4--4444--4444----------------------------|
a|--444444--xx--444444--4--4444--4444----------------------------|
D|--444444--xx--444444--4--4444--4444----------------------------|
comments
We did not receive enough feedback on this tab! Please rate:
print report bad tab
1 2 3 4 5
I want to post or [tab]
guest
You may want to rate the tab now too:
select rating
Please do not post tabs as comments. Select "correction" instead!