Oops, an error
Loading. Please wait.

The Aftermath G3 Tab

ver1
ver1

Solo

Whole song

More versions @911Tabs.com
15,253 views 18 this week
4 commentsread comments
1 2 3 4 5
accurate
x 9
add to favorites launch autoscroll
font size
0
reset
Autoscroll
+/-
esc
set tempo
stop
Contributor
Difficulty
Tuning
advanced
C G C F A D
WARNING: You are trying to view
                                    content from Ultimate-Guitar.com
                                    in an unauthorized application,
                                    which is prohibited.

                                    Please use an official Ultimate
                                    Guitar Tabs application for iPhone,
                                    iPad or Android to access legitimate
                                    chords, guitar, bass, and drum tabs
                                    from Ultimate-Guitar.com database.

                                    Type "ultimate guitar tabs" in Apple
                                    App Store's or Android Market's
                                    search to find the application.
----------------------------------------------------------------------------
                             The Aftermath (G3)
                              Escape the Fate
----------------------------------------------------------------------------

YESSS! The new album that I have been dying to get has finally come out! Before the
album came out, I wasn’t thinking of learning any of the songs on the guitar, until I heard
the Third Guillotine’s guitar solo. IT’S INSANE. I am dedicated to learning the whole 
thing, (most likely to quit after a while). This is my favorite song on the guitar from this
album. Enjoy!

NOTE: I give 100% credit to dquintern@web.de (email) for the second part of the Chorus,
which is now more easy and accurate.

Username: dkm817 (same on X box live)
Email: guitardrums@rockfan.com

Guitar 1 Rhythmic (C G C F A D)
Guitar 2 Lead     (C G C F A D)
Guitar 3 Backup   (C G C F A D) (The Lead and Backup guitars might be mixed up, they are
still the same notes)

Intro

Guitar 1
D-----------------------------------------------------------------|
A-----------------------------------------------------------------|
F-----------------------------------------------------------------|
C-0---0---0-------0---0---0-------0---0---0-------0---0---0-------|
G-0---0---0-------0---0---0-------0---0---0-------0---0---0-------|
C-0---0---0-------0---0---0-------0---0---0-------0---0---0-------|

Guitar 2
D-----------------------------------------------------------------|
A-6~~~~~~~~~~~~~~~~~~~~~~-5~~~~~~-6~~~~~~~~~~~~~~-5~~~~~~~~~~~~~~-|
F-----------------------------------------------------------------|
C-----------------------------------------------------------------|
G-----------------------------------------------------------------|
C-----------------------------------------------------------------|

Guitar 3
D-----------------------------------------------------------------|
A-----------------------------------------------------------------|
F-7~~~~~~~~~~~~~~~~~~~~~~-5~~~~~~-7~~~~~~~~~~~~~~-5~~~~~~~~~~~~~~-|
C-----------------------------------------------------------------|
G-----------------------------------------------------------------|
C-----------------------------------------------------------------|

Guitar 1
D-----------------------------------------------------------------|
A-----------------------------------------------------------------|
F-----------------------------------------------------------------|
C-0---0---0-------0---0---0-------0---0---0-------0---0---0-------|
G-0---0---0-------0---0---0-------0---0---0-------0---0---0-------|
C-0---0---0-------0---0---0-------0---0---0-------0---0---0-------|

Guitar 2
D-----------------------------------------------------------------|
A-8~~~~~~~~~~~~~~~~~~~~~~-6~~~~~~-8~~~~~~~~~~~~~~-6~~~~~~~~~~~~~~-|
F-----------------------------------------------------------------|
C-----------------------------------------------------------------|
G-----------------------------------------------------------------|
C-----------------------------------------------------------------|

Guitar 3
D-----------------------------------------------------------------|
A-----------------------------------------------------------------|
F-9~~~~~~~~~~~~~~~~~~~~~~-7~~~~~~-9~~~~~~~~~~~~~~-7~~~~~~~~~~~~~~-|
C-----------------------------------------------------------------|
G-----------------------------------------------------------------|
C-----------------------------------------------------------------|

Guitar 1
D-----------------------------------------------------------------|
A-----------------------------------------------------------------|
F-----------------------------------------------------------------|
C-0---0---0-------0---0---0-------0---0---0-------0---0---0-------|
G-0---0---0-------0---0---0-------0---0---0-------0---0---0-------|
C-0---0---0-------0---0---0-------0---0---0-------0---0---0-------|

Guitar 2
D-----------------------------------------------------------------|
A-10~~~~~~~~~~~~~~~~~~~~~-8~~~~~~-10~~~~~~~~~~~~~-11~~~~~~~~~~~~~-|
F-----------------------------------------------------------------|
C-----------------------------------------------------------------|
G-----------------------------------------------------------------|
C-----------------------------------------------------------------|

Guitar 3
D-----------------------------------------------------------------|
A-----------------------------------------------------------------|
F-10~~~~~~~~~~~~~~~~~~~~~-9~~~~~~-10~~~~~~~~~~~~~-12~~~~~~~~~~~~~-|
C-----------------------------------------------------------------|
G-----------------------------------------------------------------|
C-----------------------------------------------------------------|

Guitar 1
D-----------------------------------------------------------------|
A-----------------------------------------------------------------|
F-----------------------------------------------------------------|
C-0---0---0-------0---0---0-------0---0---0-------0---0---0-------|
G-0---0---0-------0---0---0-------0---0---0-------0---0---0-------|
C-0---0---0-------0---0---0-------0---0---0-------0---0---0-------|

Guitar 2
D-----------------------------------------------------------------|
A-8~~~~~~~~~~~~~~~~~~~~~~-6~~~~~~-8~~~~~~~~~~~~~~-10~~~~~~~~~~~~~-|
F-----------------------------------------------------------------|
C-----------------------------------------------------------------|
G-----------------------------------------------------------------|
C-----------------------------------------------------------------|

Guitar 3
D-----------------------------------------------------------------|
A-----------------------------------------------------------------|
F-9~~~~~~~~~~~~~~~~~~~~~~-7~~~~~~-9~~~~~~~~~~~~~~-10~~~~~~~~~~~~~-|
C-----------------------------------------------------------------|
G-----------------------------------------------------------------|
C-----------------------------------------------------------------|

Guitar 1 x2
D-------------------------------------------------|
A-------------------------------------------------|
F-------------------------------------------------|
C-0-----0-----0-----------0-----0-----0-----------|
G-0-----0-----0-----------0-----0-----0-----------|
C-0-----0-----0-----------0-----0-----0-----------|

Guitar 2 x2
D-------------------------------------------------|
A-7--8--10-10-7--8--10-10-7--8--10-10-7--8--10-10-|
F-------------------------------------------------|
C-------------------------------------------------|
G-------------------------------------------------|
C-------------------------------------------------|
Pm.  .  .  .  .  .  .  .  .  .  .  .  .  .  .  .

Guitar 3 x2
D-------------------------------------------------|
A-------------------------------------------------|
F-7--8--10-10-7--8--10-10-7--8--10-10-7--8--10-10-|
C-------------------------------------------------|
G-------------------------------------------------|
C-------------------------------------------------|
Pm.  .  .  .  .  .  .  .  .  .  .  .  .  .  .  .

Guitar 1 x2
D-------------------------------------------------|
A-------------------------------------------------|
F-------------------------------------------------|
C-0-----0-----0-----------0-----0-----0-----------|
G-0-----0-----0-----------0-----0-----0-----------|
C-0-----0-----0-----------0-----0-----0-----------|

Guitar 2 x2
D-------------------------------------------------|
A-8--9--11-11-8--9--11-11-8--9--11-11-8--9--11-11-|
F-------------------------------------------------|
C-------------------------------------------------|
G-------------------------------------------------|
C-------------------------------------------------|
Pm.  .  .  .  .  .  .  .  .  .  .  .  .  .  .  .

Guitar 3 x2
D-------------------------------------------------|
A-------------------------------------------------|
F-9--10-12-12-9--10-12-12-9--10-12-12-9--10-12-12-|
C-------------------------------------------------|
G-------------------------------------------------|
C-------------------------------------------------|
Pm.  .  .  .  .  .  .  .  .  .  .  .  .  .  .  .

Guitar 1 x2
D-------------------------------------------------|
A-------------------------------------------------|
F-------------------------------------------------|
C-0-----0-----0-----------0-----0-----0-----------|
G-0-----0-----0-----------0-----0-----0-----------|
C-0-----0-----0-----------0-----0-----0-----------|

Guitar 2 x2
D-------------------------------------------------|
A-10-11-13-13-10-11-13-13-10-11-13-13-10-11-13-13-|
F-------------------------------------------------|
C-------------------------------------------------|
G-------------------------------------------------|
C-------------------------------------------------|
Pm.  .  .  .  .  .  .  .  .  .  .  .  .  .  .  .

Guitar 3 x2
D-------------------------------------------------|
A-------------------------------------------------|
F-11-12-14-14-11-12-14-14-11-12-14-14-11-12-14-14-|
C-------------------------------------------------|
G-------------------------------------------------|
C-------------------------------------------------|
Pm.  .  .  .  .  .  .  .  .  .  .  .  .  .  .  .

Guitar 1
D-------------------------------------------------|
A-------------------------------------------------|
F-------------------------------------------------|
C-0-----0-----0-----------0-----0-----0-----------|
G-0-----0-----0-----------0-----0-----0-----------|
C-0-----0-----0-----------0-----0-----0-----------|

Guitar 2
D-------------------------------------------------|
A-12-13-15-15-12-13-15-15-12-13-15-15-12-13-15-15-|
F-------------------------------------------------|
C-------------------------------------------------|
G-------------------------------------------------|
C-------------------------------------------------|
Pm.  .  .  .  .  .  .  .  .  .  .  .  .  .  .  .

Guitar 3
D-------------------------------------------------|
A-------------------------------------------------|
F-12-13-15-15-12-13-15-15-12-13-15-15-12-13-15-15-|
C-------------------------------------------------|
G-------------------------------------------------|
C-------------------------------------------------|
Pm.  .  .  .  .  .  .  .  .  .  .  .  .  .  .  .

Guitar 1
D-------------------------------------------------|
A-------------------------------------------------|
F-------------------------------------------------|
C-0-----0-----0-----------0--0--0--0--10\~~~~~~~~-|
G-0-----0-----0-----------0--0--0--0--10\~~~~~~~~-|
C-0-----0-----0-----------0--0--0--0--10\~~~~~~~~-|

Guitar 2 (Gradually raise bends)
D-------------------------------------------------|
A-15-15-15-15-15-15-15b15b15b15b15b15b15b\~~~~~~~-|
F-------------------------------------------------|
C-------------------------------------------------|
G-------------------------------------------------|
C-------------------------------------------------|
Pm.  .  .  .  .  .

Guitar 3 (Gradually raise bends)
D-------------------------------------------------|
A-------------------------------------------------|
F-15-15-15-15-15-15-15b15b15b15b15b15b15b\~~~~~~~-|
C-------------------------------------------------|
G-------------------------------------------------|
C-------------------------------------------------|
Pm.  .  .  .  .  .

Verse

Guitar 1 & 2
D-----------------------------------------------------------------|
A-----------------------------------------------------------------|
F-----------------------------------------------------------------|
C-0-0-0-0-0~~~~~~~------------------------------------------------|
G-0-0-0-0-0~~~~~~~------------------------------------------------|
C-0-0-0-0-0~~~~~~~------------------------------------------------|
Pm. . . .

Guitar 1 & 2
D-----------------------------------------------------------------|
A-----------------------------------------------------------------|
F-----------------------------------------------------------------|
C-0-0-0-0-0~~~~~~~------------------------------------------------|
G-0-0-0-0-0~~~~~~~------------------------------------------------|
C-0-0-0-0-0~~~~~~~------------------------------------------------|
Pm. . . .

Guitar 1 & 2
D-----------------------------------------------------------------|
A-----------------------------------------------------------------|
F-----------------------------------------------------------------|
C-8-8-8-8-8~~~\~~~------------------------------------------------|
G-8-8-8-8-8~~~\~~~------------------------------------------------|
C-8-8-8-8-8~~~\~~~------------------------------------------------|
Pm. . . .

Guitar 1 & 2
D-----------------------------------------------------------------|
A-----------------------------------------------------------------|
F-----------------------------------------------------------------|
C-8-8-8-8-8~~~\~~~------------------------------------------------|
G-8-8-8-8-8~~~\~~~------------------------------------------------|
C-8-8-8-8-8~~~\~~~------------------------------------------------|
Pm. . . .

Guitar 1
D-----------------------------------------------------------------|
A-----------------------------------------------------------------|
F-----------------------------------------------------------------|
C-0-0-0-0-0~~~~~~~------------------------------------------------|
G-0-0-0-0-0~~~~~~~------------------------------------------------|
C-0-0-0-0-0~~~~~~~------------------------------------------------|
Pm. . . .

Guitar 2
D------------------------------------------------------------------|
A------------------------------------------------------------------|
F---------7-------9-----------7---------9---------7-------10-------|
C-7-7-7-7---7-7-7---7-7-7-7-7---7-7-7-7---7-7-7-7---7-7-7----7-7-7-|
G------------------------------------------------------------------|
C------------------------------------------------------------------|
Pm. . . .   . . .   . . . . .   . . . .   . . . .   . . .    . . .

Guitar 3
D---------10------12----------10--------12--------10------13-------|
A------------------------------------------------------------------|
F------------------------------------------------------------------|
C------------------------------------------------------------------|
G------------------------------------------------------------------|
C------------------------------------------------------------------|

Guitar 1
D-----------------------------------------------------------------|
A-----------------------------------------------------------------|
F-----------------------------------------------------------------|
C-0-0-0-0-0~~~~~~~------------------------------------------------|
G-0-0-0-0-0~~~~~~~------------------------------------------------|
C-0-0-0-0-0~~~~~~~------------------------------------------------|
Pm. . . .

Guitar 2
D------------------------------------------------------------------|
A------------------------------------------------------------------|
F---------7-------9-----------7---------9---------7-------10-------|
C-7-7-7-7---7-7-7---7-7-7-7-7---7-7-7-7---7-7-7-7---7-7-7----7-7-7-|
G------------------------------------------------------------------|
C------------------------------------------------------------------|
Pm. . . .   . . .   . . . . .   . . . .   . . . .   . . .    . . .

Guitar 3
D---------10------12----------10--------12--------10------13-------|
A------------------------------------------------------------------|
F------------------------------------------------------------------|
C------------------------------------------------------------------|
G------------------------------------------------------------------|
C------------------------------------------------------------------|

Guitar 1
D-----------------------------------------------------------------|
A-----------------------------------------------------------------|
F-----------------------------------------------------------------|
C-8-8-8-8-8~~~\~~~------------------------------------------------|
G-8-8-8-8-8~~~\~~~------------------------------------------------|
C-8-8-8-8-8~~~\~~~------------------------------------------------|
Pm. . . .

Guitar 2
D------------------------------------------------------------------|
A------------------------------------------------------------------|
F---------7-------9-----------7---------9---------7-------10-------|
C-8-8-8-8---8-8-8---8-8-8-8-8---8-8-8-8---8-8-8-8---8-8-8----8-8-8-|
G------------------------------------------------------------------|
C------------------------------------------------------------------|
Pm. . . .   . . .   . . . . .   . . . .   . . . .   . . .    . . .

Guitar 3
D---------10------12----------10--------12--------10------13-------|
A------------------------------------------------------------------|
F------------------------------------------------------------------|
C------------------------------------------------------------------|
G------------------------------------------------------------------|
C------------------------------------------------------------------|

Guitar 1
D-----------------------------------------------------------------|
A-----------------------------------------------------------------|
F-----------------------------------------------------------------|
C-8-8-8-8-8~~~\~~~------------------------------------------------|
G-8-8-8-8-8~~~\~~~------------------------------------------------|
C-8-8-8-8-8~~~\~~~------------------------------------------------|
Pm. . . .

Guitar 2
D------------------------------------------------------------------|
A------------------------------------------------------------------|
F---------7-------9-----------7---------9---------7-------10-------|
C-8-8-8-8---8-8-8---8-8-8-8-8---8-8-8-8---8-8-8-8---8-8-8----8-8-8-|
G------------------------------------------------------------------|
C------------------------------------------------------------------|
Pm. . . .   . . .   . . . . .   . . . .   . . . .   . . .    . . .

Guitar 3
D---------10------12----------10--------12--------10------13-------|
A------------------------------------------------------------------|
F------------------------------------------------------------------|
C------------------------------------------------------------------|
G------------------------------------------------------------------|
C------------------------------------------------------------------|

Break Off 1

Guitar 1 & 2
D-----------------------------------------------------------------|
A-----------------------------------------------------------------|
F-----------------------------------------------------------------|
C-0---0---0-------0---0---0-------0---0---0-------0---0---0-------|
G-0---0---0-------0---0---0-------0---0---0-------0---0---0-------|
C-0---0---0-------0---0---0-------0---0---0-------0---0---0-------|

Pre Chorus

Guitar 1
D-----------------------------------------------------------------|
A-----------------------------------------------------------------|
F-----------------------------------------------------------------|
C-8-8-8-8-8-8-8-8-8---8-------------------------------------------|
G-8-8-8-8-8-8-8-8-8---8---------------8---8---8---8---8---8---8---|
C-8-8-8-8-8-8-8-8-8---8-------------------------------------------|
Pm. . . . . . . . .   .

Guitar 2
D-----------------------------------------------------------------|
A-----------------------------------------------------------------|
F-----------------------------------------------------------------|
C-8-8-8-8-8-8-8-8-8---8-------------------------------------------|
G-8-8-8-8-8-8-8-8-8---8---------------8---8---8---8---7---7---7---|
C-8-8-8-8-8-8-8-8-8---8-------------------------------------------|
Pm. . . . . . . . .   .

Guitar 1
D-----------------------------------------------------------------|
A-----------------------------------------------------------------|
F-----------------------------------------------------------------|
C-8-8-8-8-8-8-8-8-8---8-------------------------------------------|
G-8-8-8-8-8-8-8-8-8---8---------------8---8---8---8---8---8---8---|
C-8-8-8-8-8-8-8-8-8---8-------------------------------------------|
Pm. . . . . . . . .   .

Guitar 2
D-----------------------------------------------------------------|
A-----------------------------------------------------------------|
F-----------------------------------------------------------------|
C-8-8-8-8-8-8-8-8-8---8-------------------------------------------|
G-8-8-8-8-8-8-8-8-8---8---------------8---8---8---8---7---7---7---|
C-8-8-8-8-8-8-8-8-8---8-------------------------------------------|
Pm. . . . . . . . .   .

Guitar 1 (Gradually raise bends)
D-----------------------------------------------------------------|
A-----------------------------------------------------------------|
F-----------------------------------------------------------------|
C-0-0-0-0-0-0-0-0-0---0-------------------------------------------|
G-0-0-0-0-0-0-0-0-0---0---------------12--12b-12b-12b-12b-12b-12b-|
C-0-0-0-0-0-0-0-0-0---0-------------------------------------------|
Pm. . . . . . . . .   .

Guitar 1 (Gradually raise bends)
D-----------------------------------------------------------------|
A-------------------------------------11--11b-11b-11b-11b-11b-11b-|
F-------------------------------------14--14b-14b-14b-14b-14b-14b-|
C-0-0-0-0-0-0-0-0-0---0-------------------------------------------|
G-0-0-0-0-0-0-0-0-0---0-------------------------------------------|
C-0-0-0-0-0-0-0-0-0---0-------------------------------------------|
Pm. . . . . . . . .   .

Guitar 1
D-----------------------------------------------------------------|
A-----------------------------------------------------------------|
F-----------------------------------------------------------------|
C-0---0~~~~~~-0---0~~~~~~-0---0~~~~~~-0---0~~~~~~-0---0---0---0---|
G-0---0~~~~~~-0---0~~~~~~-0---0~~~~~~-0---0~~~~~~-0---0---0---0---|
C-0---0~~~~~~-0---0~~~~~~-0---0~~~~~~-0---0~~~~~~-0---0---0---0---|
Pm.   .       .   .       .   .       .   .       .   .   .   .

Guitar 2
D-----------------------------------------------------------------|
A-----------------------------------------------------------------|
F-7---7---7---9---9---9---10--10--10--12--12--12--12--12b-12b-12b-|
C-x---x---x---x---x---x---x---x---x---x---x---x---x---x---x---x---|
G-5---5---5---7---7---7---8---8---8---10--10--10--10--10b-10b-10b-|
C-----------------------------------------------------------------|
Pm.   .   .   .   .   .   .   .   .   .   .   .

Chorus 1

Guitar 1
D-----------------------------------------------------------------|
A-----------------------------------------------------------------|
F-----------------------------------------------------------------|
C-7/--8---8---8---8---8---8---8---8---8---8---8---8---8---8---8---|
G-7/--8---8---8---8---8---8---8---8---8---8---8---8---8---8---8---|
C-7/--8---8---8---8---8---8---8---8---8---8---8---8---8---8---8---|

Guitar 2
D-----------------------------------------------------------------|
A-----------------------------------------------------------------|
F-9/--10--10--10--10--10--10--10--10--10--10--10--10--9---9---9---|
C-x/--x---x---x---x---x---x---x---x---x---x---x---x---x---x---x---|
G-7/--8---8---8---8---8---8---8---8---8---8---8---8---7---7---7---|
C-----------------------------------------------------------------|

Guitar 1
D-----------------------------------------------------------------|
A-----------------------------------------------------------------|
F-----------------------------------------------------------------|
C-8/--10--10--10--10--10--10--10--10--10--10--10--10--10--10--10--|
G-8/--10--10--10--10--10--10--10--10--10--10--10--10--10--10--10--|
C-8/--10--10--10--10--10--10--10--10--10--10--10--10--10--10--10--|

Guitar 2
D-----------------------------------------------------------------|
A-----------------------------------------------------------------|
F-9/--10--10--10--10--10--10--10--10--12--12--12--12--12--12--12--|
C-x/--x---x---x---x---x---x---x---x---x---x---x---x---x---x---x---|
G-7/--8---8---8---8---8---8---8---8---10--10--10--10--10--10--10--|
C-----------------------------------------------------------------|

Guitar 1
D-----------------------------------------------------------------|
A-----------------------------------------------------------------|
F-----------------------------------------------------------------|
C-10/-12--12--12--12--12--12--12--12--12--12--12--12--12--12--12--|
G-10/-12--12--12--12--12--12--12--12--12--12--12--12--12--12--12--|
C-10/-12--12--12--12--12--12--12--12--12--12--12--12--12--12--12--|

Guitar 2
D-----------------------------------------------------------------|
A-----------------------------------------------------------------|
F-12/-14--14--14--14--14--14--14--14--14--14--14--14--14--14--14--|
C-x-/-x---x---x---x---x---x---x---x---x---x---x---x---x---x---x---|
G-10/-12--12--12--12--12--12--12--12--12--12--12--12--12--12--12--|
C-----------------------------------------------------------------|

Guitar 1
D-----------------------------------------------------------------|
A-----------------------------------------------------------------|
F-----------------------------------------------------------------|
C-----------------------------------------------------------------|
G-------------------------------------8---8---8---8---8---8---8---|
C-7---7---7---7---7---7---7---7---7-------------------------------|

Guitar 2
D-----------------------------------------------------------------|
A-----------------------------------------------------------------|
F-14--14--14--14--14--14--14--14--14--10--10--10--10--10--10--10--|
C-x---x---x---x---x---x---x---x---x---x---x---x---x---x---x---x---|
G-12--12--12--12--12--12--12--12--12--8---8---8---8---8---8---8---|
C-----------------------------------------------------------------|

Guitar 1
D-----------------------------------------------------------------|
A-----------------------------------------------------------------|
F-----------------------------------------------------------------|
C-7/--8---8---8---8---8---8---8---8---8---8---8---8---8---8---8---|
G-7/--8---8---8---8---8---8---8---8---8---8---8---8---8---8---8---|
C-7/--8---8---8---8---8---8---8---8---8---8---8---8---8---8---8---|

Guitar 2
D-17--13------17--13--------17---------------------17--18--17-----|
A---------15----------15-17-----15-----------------------------18-|
F------------------------------------------14---------------------|
C--------------------------------------15------15-----------------|
G----------------------------------17-----------------------------|
C-----------------------------------------------------------------|

Guitar 1
D-----------------------------------------------------------------|
A-----------------------------------------------------------------|
F-----------------------------------------------------------------|
C-8/--10--10--10--10--10--10--10--10--10--10--10--10--10--10--10--|
G-8/--10--10--10--10--10--10--10--10--10--10--10--10--10--10--10--|
C-8/--10--10--10--10--10--10--10--10--10--10--10--10--10--10--10--|

Guitar 2
D-15--12------15--12--------15---------------------12--13--12-----|
A---------13----------13-15-----13-----------------------------13-|
F------------------------------------------12---------------------|
C--------------------------------------14------14-----------------|
G----------------------------------15-----------------------------|
C-----------------------------------------------------------------|

Guitar 1
D-----------------------------------------------------------------|
A-----------------------------------------------------------------|
F-----------------------------------------------------------------|
C-0---0---0---0---0---0---0---0---0---0---0---0---0---0---0---0---|
G-0---0---0---0---0---0---0---0---0---0---0---0---0---0---0---0---|
C-0---0---0---0---0---0---0---0---0---0---0---0---0---0---0---0---|

Guitar 2
D-----------------------------------------------------------------|
A-17--15------17--15------18--15------18--15------17--15--18--15--|
F---------14----------14----------14----------14------------------|
C-----------------------------------------------------------------|
G-----------------------------------------------------------------|
C-----------------------------------------------------------------|

Guitar 1
D-----------------------------------------------------------------|
A-----------------------------------------------------------------|
F-----------------------------------------------------------------|
C-3---3---3---3---3---3---3---3---3---3---3---3---3---3---3---3---|
G-3---3---3---3---3---3---3---3---3---3---3---3---3---3---3---3---|
C-3---3---3---3---3---3---3---3---3---3---3---3---3---3---3---3---|

Guitar 2
D-15--12------15--12--------15--------------------13-13-13-13-12~-|
A---------13----------13-15-----13---------17---------------------|
F----------------------------------14--17------17-----------------|
C-----------------------------------------------------------------|
G-----------------------------------------------------------------|
C-----------------------------------------------------------------|

Verse

Guitar 1 & 2
D-----------------------------------------------------------------|
A-----------------------------------------------------------------|
F-----------------------------------------------------------------|
C-0-0-0-0-0~~~~~~~------------------------------------------------|
G-0-0-0-0-0~~~~~~~------------------------------------------------|
C-0-0-0-0-0~~~~~~~------------------------------------------------|
Pm. . . .

Guitar 1 & 2
D-----------------------------------------------------------------|
A-----------------------------------------------------------------|
F-----------------------------------------------------------------|
C-0-0-0-0-0~~~~~~~------------------------------------------------|
G-0-0-0-0-0~~~~~~~------------------------------------------------|
C-0-0-0-0-0~~~~~~~------------------------------------------------|
Pm. . . .

Guitar 1 & 2
D-----------------------------------------------------------------|
A-----------------------------------------------------------------|
F-----------------------------------------------------------------|
C-8-8-8-8-8~~~\~~~------------------------------------------------|
G-8-8-8-8-8~~~\~~~------------------------------------------------|
C-8-8-8-8-8~~~\~~~------------------------------------------------|
Pm. . . .

Guitar 1 & 2
D-----------------------------------------------------------------|
A-----------------------------------------------------------------|
F-----------------------------------------------------------------|
C-8-8-8-8-8~~~\~~~------------------------------------------------|
G-8-8-8-8-8~~~\~~~------------------------------------------------|
C-8-8-8-8-8~~~\~~~------------------------------------------------|
Pm. . . .

Guitar 1
D-----------------------------------------------------------------|
A-----------------------------------------------------------------|
F-----------------------------------------------------------------|
C-0-0-0-0-0~~~~~~~------------------------------------------------|
G-0-0-0-0-0~~~~~~~------------------------------------------------|
C-0-0-0-0-0~~~~~~~------------------------------------------------|
Pm. . . .

Guitar 2
D------------------------------------------------------------------|
A------------------------------------------------------------------|
F---------7-------9-----------7---------9---------7-------10-------|
C-7-7-7-7---7-7-7---7-7-7-7-7---7-7-7-7---7-7-7-7---7-7-7----7-7-7-|
G------------------------------------------------------------------|
C------------------------------------------------------------------|
Pm. . . .   . . .   . . . . .   . . . .   . . . .   . . .    . . .

Guitar 3
D---------10------12----------10--------12--------10------13-------|
A------------------------------------------------------------------|
F------------------------------------------------------------------|
C------------------------------------------------------------------|
G------------------------------------------------------------------|
C------------------------------------------------------------------|

Guitar 1
D-----------------------------------------------------------------|
A-----------------------------------------------------------------|
F-----------------------------------------------------------------|
C-0-0-0-0-0~~~~~~~------------------------------------------------|
G-0-0-0-0-0~~~~~~~------------------------------------------------|
C-0-0-0-0-0~~~~~~~------------------------------------------------|
Pm. . . .

Guitar 2
D------------------------------------------------------------------|
A------------------------------------------------------------------|
F---------7-------9-----------7---------9---------7-------10-------|
C-7-7-7-7---7-7-7---7-7-7-7-7---7-7-7-7---7-7-7-7---7-7-7----7-7-7-|
G------------------------------------------------------------------|
C------------------------------------------------------------------|
Pm. . . .   . . .   . . . . .   . . . .   . . . .   . . .    . . .

Guitar 3
D---------10------12----------10--------12--------10------13-------|
A------------------------------------------------------------------|
F------------------------------------------------------------------|
C------------------------------------------------------------------|
G------------------------------------------------------------------|
C------------------------------------------------------------------|

Guitar 1
D-----------------------------------------------------------------|
A-----------------------------------------------------------------|
F-----------------------------------------------------------------|
C-8-8-8-8-8~~~\~~~------------------------------------------------|
G-8-8-8-8-8~~~\~~~------------------------------------------------|
C-8-8-8-8-8~~~\~~~------------------------------------------------|
Pm. . . .

Guitar 2
D------------------------------------------------------------------|
A------------------------------------------------------------------|
F---------7-------9-----------7---------9---------7-------10-------|
C-8-8-8-8---8-8-8---8-8-8-8-8---8-8-8-8---8-8-8-8---8-8-8----8-8-8-|
G------------------------------------------------------------------|
C------------------------------------------------------------------|
Pm. . . .   . . .   . . . . .   . . . .   . . . .   . . .    . . .

Guitar 3
D---------10------12----------10--------12--------10------13-------|
A------------------------------------------------------------------|
F------------------------------------------------------------------|
C------------------------------------------------------------------|
G------------------------------------------------------------------|
C------------------------------------------------------------------|

Guitar 1
D-----------------------------------------------------------------|
A-----------------------------------------------------------------|
F-----------------------------------------------------------------|
C-8-8-8-8-8~~~\~~~------------------------------------------------|
G-8-8-8-8-8~~~\~~~------------------------------------------------|
C-8-8-8-8-8~~~\~~~------------------------------------------------|
Pm. . . .

Guitar 2
D------------------------------------------------------------------|
A------------------------------------------------------------------|
F---------7-------9-----------7---------9---------7-------10-------|
C-8-8-8-8---8-8-8---8-8-8-8-8---8-8-8-8---8-8-8-8---8-8-8----8-8-8-|
G------------------------------------------------------------------|
C------------------------------------------------------------------|
Pm. . . .   . . .   . . . . .   . . . .   . . . .   . . .    . . .

Guitar 3
D---------10------12----------10--------12--------10------13-------|
A------------------------------------------------------------------|
F------------------------------------------------------------------|
C------------------------------------------------------------------|
G------------------------------------------------------------------|
C------------------------------------------------------------------|

Break Off 1

Guitar 1 & 2
D-----------------------------------------------------------------|
A-----------------------------------------------------------------|
F-----------------------------------------------------------------|
C-0---0---0-------0---0---0-------0---0---0-------0---0---0-------|
G-0---0---0-------0---0---0-------0---0---0-------0---0---0-------|
C-0---0---0-------0---0---0-------0---0---0-------0---0---0-------|

Pre Chorus

Guitar 1
D-----------------------------------------------------------------|
A-----------------------------------------------------------------|
F-----------------------------------------------------------------|
C-8-8-8-8-8-8-8-8-8---8-------------------------------------------|
G-8-8-8-8-8-8-8-8-8---8---------------8---8---8---8---8---8---8---|
C-8-8-8-8-8-8-8-8-8---8-------------------------------------------|
Pm. . . . . . . . .   .

Guitar 2
D-----------------------------------------------------------------|
A-----------------------------------------------------------------|
F-----------------------------------------------------------------|
C-8-8-8-8-8-8-8-8-8---8-------------------------------------------|
G-8-8-8-8-8-8-8-8-8---8---------------8---8---8---8---7---7---7---|
C-8-8-8-8-8-8-8-8-8---8-------------------------------------------|
Pm. . . . . . . . .   .

Guitar 1
D-----------------------------------------------------------------|
A-----------------------------------------------------------------|
F-----------------------------------------------------------------|
C-8-8-8-8-8-8-8-8-8---8-------------------------------------------|
G-8-8-8-8-8-8-8-8-8---8---------------8---8---8---8---8---8---8---|
C-8-8-8-8-8-8-8-8-8---8-------------------------------------------|
Pm. . . . . . . . .   .

Guitar 2
D-----------------------------------------------------------------|
A-----------------------------------------------------------------|
F-----------------------------------------------------------------|
C-8-8-8-8-8-8-8-8-8---8-------------------------------------------|
G-8-8-8-8-8-8-8-8-8---8---------------8---8---8---8---7---7---7---|
C-8-8-8-8-8-8-8-8-8---8-------------------------------------------|
Pm. . . . . . . . .   .

Guitar 1 (Gradually raise bends)
D-----------------------------------------------------------------|
A-----------------------------------------------------------------|
F-----------------------------------------------------------------|
C-0-0-0-0-0-0-0-0-0---0-------------------------------------------|
G-0-0-0-0-0-0-0-0-0---0---------------12--12b-12b-12b-12b-12b-12b-|
C-0-0-0-0-0-0-0-0-0---0-------------------------------------------|
Pm. . . . . . . . .   .

Guitar 1 (Gradually raise bends)
D-----------------------------------------------------------------|
A-------------------------------------11--11b-11b-11b-11b-11b-11b-|
F-------------------------------------14--14b-14b-14b-14b-14b-14b-|
C-0-0-0-0-0-0-0-0-0---0-------------------------------------------|
G-0-0-0-0-0-0-0-0-0---0-------------------------------------------|
C-0-0-0-0-0-0-0-0-0---0-------------------------------------------|
Pm. . . . . . . . .   .

Guitar 1
D-----------------------------------------------------------------|
A-----------------------------------------------------------------|
F-----------------------------------------------------------------|
C-0---0~~~~~~-0---0~~~~~~-0---0~~~~~~-0---0~~~~~~-0---0---0---0---|
G-0---0~~~~~~-0---0~~~~~~-0---0~~~~~~-0---0~~~~~~-0---0---0---0---|
C-0---0~~~~~~-0---0~~~~~~-0---0~~~~~~-0---0~~~~~~-0---0---0---0---|
Pm.   .       .   .       .   .       .   .       .   .   .   .

Guitar 2
D-----------------------------------------------------------------|
A-----------------------------------------------------------------|
F-7---7---7---9---9---9---10--10--10--12--12--12--12--12b-12b-12b-|
C-x---x---x---x---x---x---x---x---x---x---x---x---x---x---x---x---|
G-5---5---5---7---7---7---8---8---8---10--10--10--10--10b-10b-10b-|
C-----------------------------------------------------------------|
Pm.   .   .   .   .   .   .   .   .   .   .   .

Chorus 1

Guitar 1
D-----------------------------------------------------------------|
A-----------------------------------------------------------------|
F-----------------------------------------------------------------|
C-7/--8---8---8---8---8---8---8---8---8---8---8---8---8---8---8---|
G-7/--8---8---8---8---8---8---8---8---8---8---8---8---8---8---8---|
C-7/--8---8---8---8---8---8---8---8---8---8---8---8---8---8---8---|

Guitar 2
D-----------------------------------------------------------------|
A-----------------------------------------------------------------|
F-9/--10--10--10--10--10--10--10--10--10--10--10--10--9---9---9---|
C-x/--x---x---x---x---x---x---x---x---x---x---x---x---x---x---x---|
G-7/--8---8---8---8---8---8---8---8---8---8---8---8---7---7---7---|
C-----------------------------------------------------------------|

Guitar 1
D-----------------------------------------------------------------|
A-----------------------------------------------------------------|
F-----------------------------------------------------------------|
C-8/--10--10--10--10--10--10--10--10--10--10--10--10--10--10--10--|
G-8/--10--10--10--10--10--10--10--10--10--10--10--10--10--10--10--|
C-8/--10--10--10--10--10--10--10--10--10--10--10--10--10--10--10--|

Guitar 2
D-----------------------------------------------------------------|
A-----------------------------------------------------------------|
F-9/--10--10--10--10--10--10--10--10--12--12--12--12--12--12--12--|
C-x/--x---x---x---x---x---x---x---x---x---x---x---x---x---x---x---|
G-7/--8---8---8---8---8---8---8---8---10--10--10--10--10--10--10--|
C-----------------------------------------------------------------|

Guitar 1
D-----------------------------------------------------------------|
A-----------------------------------------------------------------|
F-----------------------------------------------------------------|
C-10/-12--12--12--12--12--12--12--12--12--12--12--12--12--12--12--|
G-10/-12--12--12--12--12--12--12--12--12--12--12--12--12--12--12--|
C-10/-12--12--12--12--12--12--12--12--12--12--12--12--12--12--12--|

Guitar 2
D-----------------------------------------------------------------|
A-----------------------------------------------------------------|
F-12/-14--14--14--14--14--14--14--14--14--14--14--14--14--14--14--|
C-x-/-x---x---x---x---x---x---x---x---x---x---x---x---x---x---x---|
G-10/-12--12--12--12--12--12--12--12--12--12--12--12--12--12--12--|
C-----------------------------------------------------------------|

Guitar 1
D-----------------------------------------------------------------|
A-----------------------------------------------------------------|
F-----------------------------------------------------------------|
C-----------------------------------------------------------------|
G-------------------------------------8---8---8---8---8---8---8---|
C-7---7---7---7---7---7---7---7---7-------------------------------|

Guitar 2
D-----------------------------------------------------------------|
A-----------------------------------------------------------------|
F-14--14--14--14--14--14--14--14--14--10--10--10--10--10--10--10--|
C-x---x---x---x---x---x---x---x---x---x---x---x---x---x---x---x---|
G-12--12--12--12--12--12--12--12--12--8---8---8---8---8---8---8---|
C-----------------------------------------------------------------|

Guitar 1
D-----------------------------------------------------------------|
A-----------------------------------------------------------------|
F-----------------------------------------------------------------|
C-7/--8---8---8---8---8---8---8---8---8---8---8---8---8---8---8---|
G-7/--8---8---8---8---8---8---8---8---8---8---8---8---8---8---8---|
C-7/--8---8---8---8---8---8---8---8---8---8---8---8---8---8---8---|

Guitar 2
D-17--13------17--13--------17---------------------17--18--17-----|
A---------15----------15-17-----15-----------------------------18-|
F------------------------------------------14---------------------|
C--------------------------------------15------15-----------------|
G----------------------------------17-----------------------------|
C-----------------------------------------------------------------|

Guitar 1
D-----------------------------------------------------------------|
A-----------------------------------------------------------------|
F-----------------------------------------------------------------|
C-8/--10--10--10--10--10--10--10--10--10--10--10--10--10--10--10--|
G-8/--10--10--10--10--10--10--10--10--10--10--10--10--10--10--10--|
C-8/--10--10--10--10--10--10--10--10--10--10--10--10--10--10--10--|

Guitar 2
D-15--12------15--12--------15---------------------12--13--12-----|
A---------13----------13-15-----13-----------------------------13-|
F------------------------------------------12---------------------|
C--------------------------------------14------14-----------------|
G----------------------------------15-----------------------------|
C-----------------------------------------------------------------|

Guitar 1
D-----------------------------------------------------------------|
A-----------------------------------------------------------------|
F-----------------------------------------------------------------|
C-0---0---0---0---0---0---0---0---0---0---0---0---0---0---0---0---|
G-0---0---0---0---0---0---0---0---0---0---0---0---0---0---0---0---|
C-0---0---0---0---0---0---0---0---0---0---0---0---0---0---0---0---|

Guitar 2
D-----------------------------------------------------------------|
A-17--15------17--15------18--15------18--15------17--15--18--15--|
F---------14----------14----------14----------14------------------|
C-----------------------------------------------------------------|
G-----------------------------------------------------------------|
C-----------------------------------------------------------------|

Guitar 1
D-----------------------------------------------------------------|
A-----------------------------------------------------------------|
F-----------------------------------------------------------------|
C-3---3---3---3---3---3---3---3---3---3---3---3---3---3---3---3---|
G-3---3---3---3---3---3---3---3---3---3---3---3---3---3---3---3---|
C-3---3---3---3---3---3---3---3---3---3---3---3---3---3---3---3---|

Guitar 2
D-15--12------15--12--------15--------------------13-13-13-13-12~-|
A---------13----------13-15-----13---------17---------------------|
F----------------------------------14--17------17-----------------|
C-----------------------------------------------------------------|
G-----------------------------------------------------------------|
C-----------------------------------------------------------------|

Break Off 2

Guitar 1 & 2
D-----------------------------------------------------------------|
A-----------------------------------------------------------------|
F-----------------------------------------------------------------|
C-3---3---3---3---3---3---3---3---3---3---3---3---3---3---3---3---|
G-3---3---3---3---3---3---3---3---3---3---3---3---3---3---3---3---|
C-3---3---3---3---3---3---3---3---3---3---3---3---3---3---3---3---|

Break Off 3

Guitar 1
D-----------------------------------------------------------------|
A-----------------------------------------------------------------|
F-----------------------------------------------------------------|
C-8---8-------8---8-------8---8-------8---8---8---8---7---7---7---|
G-8---8-------8---8-------8---8-------8---8---8---8---7---7---7---|
C-8---8-------8---8-------8---8-------8---8---8---8---7---7---7---|

Guitar 2
D-----------------------------------------------------------------|
A-----------------------------------------------------------------|
F-15--15------15--15------15--15------15--15--15--15--14--14--14--|
C-x---x-------x---x-------x---x-------x---x---x---x---x---x---x---|
G-13--13------13--13------13--13------13--13--13--13--12--12--12--|
C-----------------------------------------------------------------|

Interlude 1

Guitar 1
D-----------------------------------------------------------------|
A-----------------------------------------------------------------|
F-----------------------------------------------------------------|
C-0---0-----------------------------------------------------------|
G-0---0-----------------------------------------------------------|
C-0---0-----------------------------------------------------------|
Pm.   .

Guitar 2
D-----------------------------------------------------------------|
A-----------------------------------------------------------------|
F-----------------------------------------------------------------|
C-----------------------------------------------------------------|
G-5---5---5---5---5---5---5---5---5---5---5---5---5---5---5---5---|
C-----------------------------------------------------------------|

Guitar 3
D-----------------------------------------------------------------|
A-----------------------------------------------------------------|
F-7---7-----------------------------------------------------------|
C-7---7-----------------------------------------------------------|
G-5---5-----------------------------------------------------------|
C-----------------------------------------------------------------|
Pm.   .

Guitar 2 (Gradually raise bends)
D-----------------------------------------------------------------|
A-----------------------------------------------------------------|
F-----------------------------------------------------------------|
C-----------------------------------------------------------------|
G-5---5---5---5---5---5---5---5---5---5---5---5b--5b--5b--5b--5b--|
C-----------------------------------------------------------------|

Guitar 1
D-----------------------------------------------------------------|
A-----------------------------------------------------------------|
F-----------------------------------------------------------------|
C-0---0-----------------------------------------------------------|
G-0---0-----------------------------------------------------------|
C-0---0-----------------------------------------------------------|

Guitar 2
D-----------------------------------------------------------------|
A-----------------------------------------------------------------|
F-----------------------------------------------------------------|
C-----------------------------------------------------------------|
G-5---5---5---5---5---5---5---5---5---5---5---5---5---5---5---5---|
C-----------------------------------------------------------------|

Guitar 3
D-----------------------------------------------------------------|
A-----------------------------------------------------------------|
F-7---7-----------------------------------------------------------|
C-7---7-----------------------------------------------------------|
G-5---5-----------------------------------------------------------|
C-----------------------------------------------------------------|

Guitar 2 (Gradually raise bends)
D-----------------------------------------------------------------|
A-----------------------------------------------------------------|
F-----------------------------------------------------------------|
C-----------------------------------------------------------------|
G-5---5---5---5---5---5---5---5---5---5---5---5b--5b--5b--5b--5b--|
C-----------------------------------------------------------------|

Guitar 1
D-----------------------------------------------------------------|
A-----------------------------------------------------------------|
F-----------------------------------------------------------------|
C-0---0---------------0---0---------------------------------------|
G-0---0---------------0---0---------------------------------------|
C-0---0---------------0---0---------------------------------------|

Guitar 2
D-----------------------------------------------------------------|
A-----------------------------------------------------------------|
F-----------------------------------------------------------------|
C-----------------------------------------------------------------|
G-5---5---5---5---5---5---5---5---5---5---5---5---5---5---5---5---|
C-----------------------------------------------------------------|

Guitar 3
D-----------------------------------------------------------------|
A-----------------------------------------------------------------|
F-7---7---------------7---7---------------------------------------|
C-7---7---------------7---7---------------------------------------|
G-5---5---------------5---5---------------------------------------|
C-----------------------------------------------------------------|

Guitar 1
D-----------------------------------------------------------------|
A-----------------------------------------------------------------|
F-----------------------------------------------------------------|
C-0---0---------------0---0---------------------------------------|
G-0---0---------------0---0---------------------------------------|
C-0---0---------------0---0---------------------------------------|

Guitar 2 (Gradually raise bends)
D-----------------------------------------------------------------|
A-----------------------------------------------------------------|
F-----------------------------------------------------------------|
C-----------------------------------------------------------------|
G-5---5---5---5---5---5---5---5---5---5---5---5b--5b--5b--5b--5b--|
C-----------------------------------------------------------------|

Guitar 3
D-----------------------------------------------------------------|
A-----------------------------------------------------------------|
F-7---7---------------7---7---------------------------------------|
C-7---7---------------7---7---------------------------------------|
G-5---5---------------5---5---------------------------------------|
C-----------------------------------------------------------------|

Guitar 1
D-----------------------------------------------------------------|
A-----------------------------------------------------------------|
F-----------------------------------------------------------------|
C-0---0---------------0---0---------------------------------------|
G-0---0---------------0---0---------------------------------------|
C-0---0---------------0---0---------------------------------------|

Guitar 2
D-----------------------------------------------------------------|
A-----------------------------------------------------------------|
F-----------------------------------------------------------------|
C-----------------------------------------------------------------|
G-5---5---5---5---5---5---5---5---5---5---5---5---5---5---5---5---|
C-----------------------------------------------------------------|

Guitar 3
D-----------------------------------------------------------------|
A-----------------------------------------------------------------|
F-7---7---------------7---7---------------------------------------|
C-7---7---------------7---7---------------------------------------|
G-5---5---------------5---5---------------------------------------|
C-----------------------------------------------------------------|

Guitar 1 (Gradually increase volume)
D-----------------------------------------------------------------|
A-----------------------------------------------------------------|
F-----------------------------------------------------------------|
C-0---0---0---0---0---0---0---0---0---0---0---0-------------------|
G-0---0---0---0---0---0---0---0---0---0---0---0-------------------|
C-0---0---0---0---0---0---0---0---0---0---0---0-------------------|
Pm.   .   .   .   .   .   .   .   .   .   .   .

Guitar 2 (Gradually raise bends)
D-----------------------------------------------------------------|
A-----------------------------------------------------------------|
F-----------------------------------------------------------------|
C-----------------------------------------------------------------|
G-5---5---5---5---5---5---5---5---5---5---5---5b--5b--5b--5b--5b--|
C-----------------------------------------------------------------|

Guitar 3 (Gradually increase volume)
D-----------------------------------------------------------------|
A-----------------------------------------------------------------|
F-7---7---7---7---7---7---7---7---7---7---7---7-------------------|
C-7---7---7---7---7---7---7---7---7---7---7---7-------------------|
G-5---5---5---5---5---5---5---5---5---5---5---5-------------------|
C-----------------------------------------------------------------|
Pm.   .   .   .   .   .   .   .   .   .   .   .

Interlude 2

Guitar 2
D-----------------------------------------------------------------|
A-----------------------------------------------------------------|
F-----------------------------------------------------------------|
C-----------------------------------------------------------------|
G-5---5---5---5---5---5---5---5---5---5---5---5---5---5---5---5---|
C-----------------------------------------------------------------|

Guitar 2
D-----------------------------------------------------------------|
A-----------------------------------------------------------------|
F-----------------------------------------------------------------|
C-----------------------------------------------------------------|
G-5---7---7---7---7---7---7---7---7---7---7---7---7---7---7---7---|
C-----------------------------------------------------------------|

Guitar 2
D-----------------------------------------------------------------|
A-----------------------------------------------------------------|
F-----------------------------------------------------------------|
C-----------------------------------------------------------------|
G-7---8---8---8---8---8---8---8---8---8---8---8---8---8---8---8---|
C-----------------------------------------------------------------|

Guitar 2
D-----------------------------------------------------------------|
A-----------------------------------------------------------------|
F-----------------------------------------------------------------|
C-----------------------------------------------------------------|
G-8---7---7---7---7---7---7---7---7---7---7---7---7---7---7---7---|
C-----------------------------------------------------------------|

Guitar 2
D-----------------------------------------------------------------|
A-----------------------------------------------------------------|
F-----------------------------------------------------------------|
C-----------------------------------------------------------------|
G-7---5---5---5---5---5---5---5---5---5---5---5---5---5---5---5---|
C-----------------------------------------------------------------|

Guitar 2
D-----------------------------------------------------------------|
A-----------------------------------------------------------------|
F-----------------------------------------------------------------|
C-----------------------------------------------------------------|
G-5---7---7---7---7---7---7---7---7---7---7---7---7---7---7---7---|
C-----------------------------------------------------------------|

Guitar 2
D-----------------------------------------------------------------|
A-----------------------------------------------------------------|
F-----------------------------------------------------------------|
C-----------------------------------------------------------------|
G-7---8---8---8---8---8---8---8---8---8---8---8---8---8---8---8---|
C-----------------------------------------------------------------|

Guitar 2
D-----------------------------------------------------------------|
A-----------------------------------------------------------------|
F-----------------------------------------------------------------|
C-----------------------------------------------------------------|
G-8---10--10--10--10--10--10--10--10--10--10--10--10--10--10--10--|
C-----------------------------------------------------------------|

Pre Guitar Solo (Drum Fill)

Guitar 2
D-------------------------------------------------------------------------------------------------|
A-------------------------------------------------------------------------------------------------|
F-------------------------------------------------------------------------------------------------|
C-------------------------------------------------------------------------------------------------|
G-10b~~~~~~~~~~~~~~~~~~~~~~~~~~~~~~~~~~~~~~~~~~~~~~~~~~~~~~~~~~~~~~~~~~~~~~~~~~~~~~~~~~~~~--------|
C-------------------------------------------------------------------------------------------------|

Guitar Solo (This is the exact replica of my guitar pro tab for the solo)

Guitar 1
D-------------------------------------------------------------------------------------------------|
A-------------------------------------------------------------------------------------------------|
F-------------------------------------------------------------------------------------------------|
C-------------------------------------------------------------------------------------------------|
G-------------------------------------------------------------------------------------------------|
C-0--0--0--0--0--0--0--0--0--0--0--0--0--0--0--0--0--0--0--0--0--0--0--0--0--0--0--0--0--0--0--0--|
Pm.  .  .  .  .  .  .  .  .  .  .  .  .  .  .  .  .  .  .  .  .  .  .  .  .  .  .  .  .  .
 .  .

Guitar 2
D-17-------------------------------------------------12-13-12-------13----15~~~~~~~~~~~~~~~~~~~~--|
A----15-------------15-17-18-17-15----------------------------15-14-------------------------------|
F-------14----14--------------------18------15-17-18----------------------------------------------|
C---------------------------------------19--------------------------------------------------------|
G-------------------------------------------------------------------------------------------------|
C-------------------------------------------------------------------------------------------------|

Guitar 3
D-------------------------------------------------------------------------------------------------|
A-------------------------------------------------------------------------------------------------|
F-14-------------------------------------------------9--10-9--------10----12~~~~~~~~~~~~~~~~~~~~--|
C----12-------------12-14-15-14-12----------------------------12-11-------------------------------|
G-------12----12--------------------16------13-15-16----------------------------------------------|
C---------------------------------------19--------------------------------------------------------|

Guitar 1
D-------------------------------------------------------------------------------------------------|
A-------------------------------------------------------------------------------------------------|
F-------------------------------------------------------------------------------------------------|
C-------------------------------------------------------------------------------------------------|
G-------------------------------------------------------------------------------------------------|
C-0--0--0--0--0--0--0--0--0--0--0--0--0--0--0--0--0--0--0--0--0--0--0--0--0--0--0--0--0--0--0--0--|
Pm.  .  .  .  .  .  .  .  .  .  .  .  .  .  .  .  .  .  .  .  .  .  .  .  .  .  .  .  .  .
 .  .

Guitar 2
D-------------------------------------------------------------------------------------------------|
A-------------------------------------------------------------------------------------------------|
F-14-12-10-10-12-12-12-12-15-14-12-12-14-14-14-14-17-15-14-14-15-15-15-15-19-17-15-15-17-17-17-17-|
C-------------------------------------------------------------------------------------------------|
G--------------------------------------------------------------------
4 comments total. Showing first comments.
-1 reply
norsvolos wrote on December 6 2010, 02:57 pm

this tab so kickass wish i could print it out school wonont let me

0 reply
norsvolos wrote on December 6 2010, 02:58 pm

this tab so kickass wish i could print it out school wonont let me

0 reply
lgunit wrote on January 17 2011, 08:58 pm

this tab kind of confuseing but over all great

I want to post or [tab]
guest
You may want to rate the tab now too:
select rating
Please do not post tabs as comments. Select "correction" instead!