Oops, an error
Loading. Please wait.

The Aftermath Tab

ver1
ver1

Intro

Whole song

More versions @911Tabs.com
368 views 1 this week
no commentswrite comment
1 2 3 4 5
accurate
x 3
add to favorites launch autoscroll
font size
0
reset
Autoscroll
+/-
esc
set tempo
stop
Contributor
Difficulty
Tuning
intermediate
C G C F A D
WARNING: You are trying to view
                                    content from Ultimate-Guitar.com
                                    in an unauthorized application,
                                    which is prohibited.

                                    Please use an official Ultimate
                                    Guitar Tabs application for iPhone,
                                    iPad or Android to access legitimate
                                    chords, guitar, bass, and drum tabs
                                    from Ultimate-Guitar.com database.

                                    Type "ultimate guitar tabs" in Apple
                                    App Store's or Android Market's
                                    search to find the application.
                        ..::Escape The Fate - The Aftermath G3::..
By : Satsana.
================================================================================
Tuning : Drop C
Lots of the tabs i found have mistakes, so i decided to just make my own.
================================================================================
 Intro
|----------------------------------------------------|
|-------------8~-6-8-6~--10~-8-10-10b11----8~-6-8-10-|
|-7~-5-7-5~------------------------------------------|
|----------------------------------------------------|
|----------------------------------------------------|
|----------------------------------------------------|
                                                               >>>>
|-------------------------------------------------------------------------|
|-6h8h10(x8)----8h10h11(x8)----10h11h13(x8)----11h13h15(x8)----15tr-15^17-|
|-------------------------------------------------------------------------|
|-------------------------------------------------------------------------|
|-------------------------------------------------------------------------|
|-------------------------------------------------------------------------|

________________________________________________________________________________
                                              ..

Verse
|--------------------------------------------------------|
|--------------------------------------------------------|
|--------------------------------------------------------|
|-0-0-0-0-0-----0-0-0-0-0-----8-8-8-8-8\----8-8-8-8-8\---|
|-0-0-0-0-0-----0-0-0-0-0-----8-8-8-8-8\----8-8-8-8-8\---|   
|-0-0-0-0-0-----0-0-0-0-0-----8-8-8-8-8\----8-8-8-8-8\---|x2


Verse Part 2                                              |-1st-time--|2nd-time|                  
|---------------------------------------------------------|-----------|-------||
|---------------------------------------------------------|-----------|-------||
|.---------7-------9-----------7---------9---------7------|-10-------.|10-----||
|.-7-7-7-7---7-7-7---7-7-7-7-7---7-7-7-7---7-7-7-7---7-7-7|----7-7-7-.|--8-8-8||
|---------------------------------------------------------|-----------|-------||
|---------------------------------------------------------|-----------|-------||
                                                                          
|------------------------------------------------------------------||
|------------------------------------------------------------------||
|.--------7-------9-----------7---------9---------7-------10------.||
|.8-8-8-8---8-8-8---8-8-8-8-8---8-8-8-8---8-8-8-8---8-8-8----8-8-8.||
|------------------------------------------------------------------||
|------------------------------------------------------------------||

Bridge
|------------------|
|------------------|
|------------------|
|--000-000-000-000-|
|--000-000-000-000-|
|--000-000-000-000-|

Pre Chourus
|------------------------------------------------------------------|
|------------------------------------------------------------------|
|--------------10-10-10-10/9-9-9----------------10-10-10-10/9-9-9--|
|-888-888-8-8--x--x--x--x--x-x-x---888-888-8-8--x--x--x--x--x-x-x--|
|-888-888-8-8--8--8--8--8-/7-7-7---888-888-8-8--8--8--8--8-/7-7-7--|
|-888-888-8-8----------------------888-888-8-8---------------------|

                      (bending)
|--------------------------------------------------|
|----------------------^--^--^---------------------|
|---------------15-15-15-15-15---------------------|
|-000-000-0-0---x--x--x--x--x----0002223335555555--|
|-000-000-0-0---13-13-13-13-13---0002223335555555--|
|-000-000-0-0--------------------0002223335555555--|

Chorus
Guitar 1 & 2:
|-------------------------------------------------|
|-------------------------------------------------|
|-3------5------7------------10101010109-9-9------|
|-3------5------7------7-----x-x-x-x-x-x-x-x------|
|-1(x16)-3(x16)-5(x16)-7-----8-8-8-8-8-7-7-7------|
|----------------------7(x8)----------------------|x2

Guitar 2 (start on 2nd chorus):
|----------------------------------------------|
|----------------------------------------------|
|-14p10--14p10--14p10--------10-12-14-12-10----|
|-------12-----12-----12-----------------------|
|----------------------------------------------|
|----------------------------------------------|

|----------------------------------------------|
|----------------------------------------------|
|-12p9---12p9---12p9---------9-10-12-10-9------|
|-----10-----10------10------------------------|
|----------------------------------------------|
|----------------------------------------------|

|------------------------------------------------------------------------|
|------------------------------------------------------------------------|
|-----9p7---9p7---10p7---10p7---9p7h10--12p9--12p9--12p9--12p9s15~-s14~--|
|---------7-----7-----7------7--------------10----10----10---------------|
|------------------------------------------------------------------------|
|------------------------------------------------------------------------|

                                           .. (go bck to verse)
===================================================================================

Post-Chorus Rythm
|----------------------------------------------------------------|
|----------------------------------------------------------------|
|----------------------------------------------------------------|
|-3-3-3-3-3-3-3-3-3-3-3-3-3-3-3-3-3--8-8--8-8--8-8--8-8--8-7-7-7-|
|-3-3-3-3-3-3-3-3-3-3-3-3-3-3-3-3-3--8-8--8-8--8-8--8-8--8-7-7-7-|
|-3-3-3-3-3-3-3-3-3-3-3-3-3-3-3-3-3--8-8--8-8--8-8--8-8--8-7-7-7-|

"Ohhhhhhhhhhhhhhhhhhhhhhhhhhhh..."
|-----------------|-----------------|-----------------|-----------------|
|-----------------|-----------------|-----------------|-----------------|
|-----------------|-----------------|-----------------|-----------------|
|-0-0-------------|-----------------|-----------------|-----------------|
|-0-0-------------|-----------------|-----------------|-----------------|  
|-0-0-0-0-0-0-0-0-|-0-0-0-0-0-0-0-0-|-0-0-0-0-0-0-0-0-|-0-0-0-0-0-0-0-0-|
      . . . . . .   . . . . . . . .   . . . . . . . .   . . . . . . . .
|-----------------|-----------------|-----------------|-----------------|
|-----------------|-----------------|-----------------|-----------------|
|-----------------|-----------------|-----------------|-----------------|
|-0-0-------------|-----------------|-----------------|-----------------|
|-0-0-------------|-----------------|-----------------|-----------------|  
|-0-0-0-0-0-0-0-0-|-0-0-0-0-0-0-0-0-|-0-0-0-0-0-0-0-0-|-0-0-0-0-0-0-0-0-|  
      . . . . . .   . . . . . . . .   . . . . . . . .   . . . . . . . .
|-----------------|-----------------|-----------------|-----------------|
|-----------------|-----------------|-----------------|-----------------|
|-----------------|-----------------|-----------------|-----------------|
|-0-0---------0-0-|-----------------|-0-0---------0-0-|-----------------|
|-0-0---------0-0-|-----------------|-0-0---------0-0-|-----------------|  
|-0-0-0-0-0-0-0-0-|-0-0-0-0-0-0-0-0-|-0-0-0-0-0-0-0-0-|-0-0-0-0-0-0-0-0-|
      . . . .       . . . . . . . .       . . . .       . . . . . . . .
|-----------------|-----------------|-----------------|-----------------|
|-----------------|-----------------|-----------------|-----------------|
|-----------------|-----------------|-----------------|-----------------|
|-0-0---------0-0-|-----------------|-----------------|-----------------|
|-0-0---------0-0-|-----------------|-----------------|-----------------|  
|-0-0-0-0-0-0-0-0-|-0-0-0-0-0-0-0-0-|-0-0-0-0-0-0-0-0-|-0-0-0-0-0-0-0-0-|
      . . . .       . . . . . . . .   . . . . . . . .   . . . . . . . .

"This is the last time I..."
|-----------------|-----------------|-----------------|-----------------|
|-----------------|-----------------|-----------------|-----------------|
|-----------------|-----------------|-----------------|-----------------|
|-----------------|-----------------|-----------------|-----------------|
|-----------------|-----------------|-----------------|-----------------|  
|-0-0-0-0-0-0-0-0-|-0-0-0-0-0-0-0-0-|-2-2-2-2-2-2-2-2-|-2-2-2-2-2-2-2-2-|
  . . . . . . . .   . . . . . . . .   . . . . . . . .   . . . . . . . .
|-----------------|-----------------|-----------------|-----------------|
|-----------------|-----------------|-----------------|-----------------|
|-----------------|-----------------|-----------------|-----------------|
|-----------------|-----------------|-----------------|-----------------|
|-----------------|-----------------|-----------------|-----------------|  
|-3-3-3-3-3-3-3-3-|-3-3-3-3-3-3-3-3-|-2-2-2-2-2-2-2-2-|-2-2-2-2-2-2-2-2-|
  . . . . . . . .   . . . . . . . .   . . . . . . . .   . . . . . . . .
|-----------------|-----------------|-----------------|-----------------|
|-----------------|-----------------|-----------------|-----------------|
|-----------------|-----------------|-----------------|-----------------|
|-----------------|-----------------|-----------------|-----------------|
|-----------------|-----------------|-----------------|-----------------|  
|-0-0-0-0-0-0-0-0-|-0-0-0-0-0-0-0-0-|-2-2-2-2-2-2-2-2-|-2-2-2-2-2-2-2-2-|
  . . . . . . . .   . . . . . . . .   . . . . . . . .   . . . . . . . .
|-----------------|-----------------|-----------------|-----------------|----|
|-----------------|-----------------|-----------------|-----------------|----|
|-----------------|-----------------|-----------------|-----------------|----|
|-----------------|-----------------|-----------------|-----------------|-5b-|
|-----------------|-----------------|-----------------|-----------------|-5b-|  
|-3-3-3-3-3-3-3-3-|-3-3-3-3-3-3-3-3-|-5-5-5-5-5-5-5-5-|-5-5-5-5-5-5-5-5-|-5b-|
  . . . . . . . .   . . . . . . . .   . . . . . . . .   . . . . . . . .

=================================================================================

SOLO
|--------------------------------------------------------------------|
|--------------------------------------------------------------------|
|-7p5h7-10p9p7--------------------------------10h12~-12~-------------|
|--------------10p8p7-----------------8h10h12------------------------|
|----------------------10p8p7-8h10h12--------------------------------|
|--------------------------------------------------------------------|

|------------------------------------------------------------------------|
|-10-10-7-999999--12-12-9-10101010--14-14-10-12121212-15-15-12-14141414--|
|------------------------------------------------------------------------|
|------------------------------------------------------------------------|
|------------------------------------------------------------------------|
|------------------------------------------------------------------------|

|-10h13-10----------13s15-12--------15s17-15-------------13-13-13-13-12-12-12-12-|
|----------11----11----------13--13----------18-17-15----------------------------|
|-------------10---------------12---------------------17-------------------------|
|--------------------------------------------------------------------------------|
|--------------------------------------------------------------------------------|
|--------------------------------------------------------------------------------|

|-9-----------------------------------------------------------|
|---13-11-10-------13-11-10---------11-10---------10-10b11r10-|
|------------12-10----------12-10-9-------12-10-9-------------|
|-------------------------------------------------------------|
|-------------------------------------------------------------|
|-------------------------------------------------------------|

|-------17----------------17----------------17-------------------|
|-13s15----15----------15----15----------15----15----------13b15-|
|-------------17p14h17----------17p14h17----------17p14h17-------|
|----------------------------------------------------------------|
|----------------------------------------------------------------|
|----------------------------------------------------------------|

|--------------------------------------------------------|
|----------15h17h18-20b22--18h20p18-17h18p17-15h17^18r17-|
|-14h15h17-----------------------------------------------|
|--------------------------------------------------------|
|--------------------------------------------------------|
|--------------------------------------------------------|

|-------------------------------------------------------------------------|
|-17h18p17p15-------------------------------------------------------------|
|-------------17p15p14----14h15p14----------------------------------------|
|----------------------17----------17p15p14-------14h15p14----------------|
|-------------------------------------------17p15----------17p15p13-15-13-|
|-------------------------------------------------------------------------|

(check out how many times by listening)
|-------------------------------------------------------------------|
|-------------------------------------------------------------------|
|-7p3t7p3t7p3..---9p5t9p5t9p5..---10p7t10p7t10..---12p9t12p9t12p9..-|
|-------------------------------------------------------------------|
|-------------------------------------------------------------------|
|-------------------------------------------------------------------|

|--------------------------------------|
|------------------------8-------8-10--|
|----7-9---7-9-10---9-10------10-------|
|-10-----------------------------------|
|--------------------------------------|
|--------------------------------------|

|------------------------------------------------------------------|
|------------------------------------------------------------------|
|----------------------------------------------7-----7-9--7-9-10---|
|----------------------7-----7-8--7-8-10--8-10----10---------------|
|---------7-8-10--8-10----10---------------------------------------|
|-8-10-12----------------------------------------------------------|

(check out how many times by listening)
|-t17p12t17p12yt17p12t17p12t17p12t17p12t17p12---|
|-----------------------------------------------|
|-----------------------------------------------|
|-----------------------------------------------|
|-----------------------------------------------|
|-----------------------------------------------|

|-t15p12t15p12t15p12t15p12t15p12t15p12----t12p8t12p8t12p8t12p8t 13131312~|
|------------------------------------------------------------------------|
|------------------------------------------------------------------------|
|------------------------------------------------------------------------|
|------------------------------------------------------------------------|
|------------------------------------------------------------------------|

|-17p13----------13-18p13-----------20p15------------------------------|
|-------15----15----------15----15---------17----------------17--------|
|----------14----------------14---------------17----------17---17------|
|------------------------------------------------17----17--------17----|
|---------------------------------------------------17-----------------|
|----------------------------------------------------------------------|

|-17p13----------13-18p13----------13-20p15----------15-20^22-|
|-------15----15----------15----15----------17----17----------|
|----------14----------------14----------------17-------------|
|-------------------------------------------------------------|
|-------------------------------------------------------------|
|-------------------------------------------------------------|

|----------12-13p12----------------12-13p12-----|
|-------11----------11----------11----------11--|
|----10----------------10-----10--------------10|
|-12-----------------------12-------------------|
|-----------------------------------------------|
|-----------------------------------------------|

--------------------------10----12----13-|
|-------------------11-------11----11----|
|--9---9-10----10------10----------------|
|8---8------12----12---------------------|
|----------------------------------------|
|----------------------------------------|

|-17p13-------13p12-------13p12-------12-12-13-15------17p13-------13p12----|
|-------15----------15----------15---------------------------15---------15--|
|----------14----------14----------14---------------------------14--------14|
|---------------------------------------------------------------------------|
|---------------------------------------------------------------------------|
|---------------------------------------------------------------------------|

13p12-------12-12-13-15--|
------15-----------------|
---------14--------------|
-------------------------|
-------------------------|

|-17-17-17-13-13-13-15-15-15-12-12-12--13-12-10--|
|------------------------------------------------|
|------------------------------------------------|
|------------------------------------------------|
|------------------------------------------------|
|------------------------------------------------|x2

|-10-10-10-12-12-12-13-13-13-17-17-17-20-20-20-20-20b---|
|-------------------------------------------------------|
|-------------------------------------------------------|
|-------------------------------------------------------|
|-------------------------------------------------------|
|-------------------------------------------------------|

|--15~~^------------------------------------------------|
|--------17~-18~----------------------------------------|
|-------------------------------------------------------|
|-------------------------------------------------------|
|-------------------------------------------------------|

===============================================================================
Pitch change:
                                                     |4th time                     |
Chorus                                               |(let them all ring)          |
|----------------------------------------------------|-----------------------------|
|----------------------------------------------------|-----------------------------|
|-4------6------8------------1111111111-12-12-12-----|-4-6-8---12-7-8--15-13-12-7-8|
|-4------6------8------8-----x-x-x-x-x--x--x--x--(x3)|-4-6-8-8-x--x-x--------------|
|-2(x16)-4(x16)-6(x16)-8-----9-9-9-9-9--10-10-10-----|-2-4-6-8-10-9-6--13-11-10-9-6|
|----------------------8(x8)-------------------------|-------8---------------------|
                                                          "...dis-a-ppear.." 
Guitar 2 (start on 2nd chorus):                                 "...lets just disappear.."

|-------------------------------------------|
|-------------------------------------------|
|-15p11---15p11--15p11----11-13-15-13-11----|
|-------13-----13-----13--------------------|
|-------------------------------------------|
|-------------------------------------------|

|----------------------------------------------|
|----------------------------------------------|
|-13p10---13p10---13p10----10-11-13-11-10------|
|------11------11------11----------------------|
|----------------------------------------------|
|----------------------------------------------|

|-----------------------------------------------------------------------------|
|-----------------------------------------------------------------------------|
|-----10p8--10p8---11p8--11p8---10p8h11--13p10--13p10---13p10---13p10s16~-s15~|
|----------8-----8-----8-----8----------------11-----11------11---------------|
|-----------------------------------------------------------------------------|
|-----------------------------------------------------------------------------|x3
===============================================================================
Satsana.
comments
We did not receive enough feedback on this tab! Please rate:
1 2 3 4 5
I want to post or [tab]
guest
You may want to rate the tab now too:
select rating
Please do not post tabs as comments. Select "correction" instead!