Oops, an error
Loading. Please wait.

The Aftermath The Guillotine Part 3 Tab

ver1
ver1

Intro

Whole song

Interactive

More versions @911Tabs.com
15,689 views 30 this week
3 commentsread comments
1 2 3 4 5
accurate
x 10
Autoscroll
+/-
esc
set tempo
stop
Difficulty
Tuning
advanced
C G C F A D
Hey! There's an official Ultimate Guitar app which is ideal
for learning songs when you're away from computer. Get the app
WARNING: You are trying to view
                                    content from Ultimate-Guitar.com
                                    in an unauthorized application,
                                    which is prohibited.

                                    Please use an official Ultimate
                                    Guitar Tabs application for iPhone,
                                    iPad or Android to access legitimate
                                    chords, guitar, bass, and drum tabs
                                    from Ultimate-Guitar.com database.

                                    Type "ultimate guitar tabs" in Apple
                                    App Store's or Android Market's
                                    search to find the application.
ESCAPE THE FATE - THE AFTERMATH (GUILLOTINE PT3)
Drop C Tuning

A quick note to say it's not perfect but i've got most parts fairly accurate. I 
have missed small sections, a tiny bit of the solo and the 

chorus riff so someone please tab them. Also the solo might be a bit all over the 
place on the neck, so you might want to sort that bit out.

But for now this is my contribution.

Ozzy

Email: azurefury@live.co.uk



Intro
|------------------------------------------------|
|------------8-6-8-6---10-8-10-10b11----8-6-8-10-|
|-7-5-7-5----------------------------------------|
|------------------------------------------------|
|------------------------------------------------|
|------------------------------------------------|

|--------------------------------------------------------------------------------------------|
|-6h8h10--x8----8h10h11--x8----10h11h13--x8----11h13h15--x8----15-15-15-15-15-15-15-15-15b17-|
|--------------------------------------------------------------(<<<<<<<>>>>>>>)-|
|--------------------------------------------------------------------------------------------|
|--------------------------------------------------------------------------------------------|
|--------------------------------------------------------------------------------------------|



VERSE RHYTHM
|--------------------------------------------------------|
|--------------------------------------------------------|
|--------------------------------------------------------|
|-0-0-0-0-0-----0-0-0-0-0-----8-8-8-8-8-----8-8-8-8-8----|
|-0-0-0-0-0-----0-0-0-0-0-----8-8-8-8-8-----8-8-8-8-8----|    X2
|-0-0-0-0-0-----0-0-0-0-0-----8-8-8-8-8-----8-8-8-8-8----|

VERSE LEAD (This is played over the second half of the verse)
|---------------------------------------|
|-------------------------------------6-| (Not accurate with the counting but close enough, 
|-5-5-5-7-5-9-5-5-5-5-7-5-9-5-5-7-5-5---|   you can figure the timing out yourself)
|---------------------------------------| 
|---------------------------------------| X4
|---------------------------------------|

PRECHORUS
|-------------------------------|
|-------------------------------|
|-------------------------------|
|-0-0-0---0-0-0---0-0-0---0-0-0-|
|-0-0-0---0-0-0---0-0-0---0-0-0-|
|-0-0-0---0-0-0---0-0-0---0-0-0-|

|----------------------------------------------------------------------------------|
|----------------------------------------------------------------------------------|
|------------------------10-10-10-10-9-9--------------------------10-10-10-10-9-9--|
|-8-8-8-8-8-8-8-8--8-8---x--x--x--x--x-x---8-8-8-8-8-8-8-8--8-8---x--x--x--x--x-x--|
|-8-8-8-8-8-8-8-8--8-8---8--8--8--8--7-7---8-8-8-8-8-8-8-8--8-8---8--8--8--8--7-7--|
|-8-8-8-8-8-8-8-8--8-8---------------------8-8-8-8-8-8-8-8--8-8--------------------|

|----------------------------------------------------------------------------------|
|----------------------------------------------------------------------------------|
|------------------------15-15-15-15-15-15-15-15-----------------------------------|
|-0-0-0-0-0-0-0-0--0-0---x--x--x--x--x--x--x--x----0-0-0-2-2-2-3-3-5-5-5-5-5-5-5-5-|
|-0-0-0-0-0-0-0-0--0-0---13-13-13-13-13-13-13-13---0-0-0-2-2-2-3-3-5-5-5-5-5-5-5-5-|
|-0-0-0-0-0-0-0-0--0-0-----------------------------0-0-0-2-2-2-3-3-5-5-5-5-5-5-5-5-|

CHORUS RHYTHM
|-----------------------------------------------------------------|
|-----------------------------------------------------------------|
|-3-3-3-3-3-3-3-3-3-3-3-3-3-3-3-3-5-5-5-5-5-5-5-5-5-5-5-5-5-5-5-5-|
|-3-3-3-3-3-3-3-3-3-3-3-3-3-3-3-3-5-5-5-5-5-5-5-5-5-5-5-5-5-5-5-5-|
|-1-1-1-1-1-1-1-1-1-1-1-1-1-1-1-1-3-3-3-3-3-3-3-3-3-3-3-3-3-3-3-3-|
|-----------------------------------------------------------------|

|---------------------------------------------------------------------|
|---------------------------------------------------------------------|
|-7-7-7-7-7-7-7-7-7-7-7-7-7-7-7-7-------------------10-10-10-10-9-9-9-|
|-7-7-7-7-7-7-7-7-7-7-7-7-7-7-7-7-7-7-7-7-7-7-7-7-7-x--x--x--x--x-x-x-|
|-5-5-5-5-5-5-5-5-5-5-5-5-5-5-5-5-7-7-7-7-7-7-7-7-7-8--8--8--8--7-7-7-| CHORUSX2
|-0-0-0-0-0-0-0-0-0-0-0-0-0-0-0-0-7-7-7-7-7-7-7-7-7-------------------|

CHORUS LEAD (This is played over the second half of the chorus)
|------------------------------------|
|-10-------8------5-----6-----8------|
|----10------9------7-----7-----9----| (NOT COMPLETE: I can't figure out the riff 
|-------12-----10-----7-----7-----10-|  but it uses those shapes)
|------------------------------------|
|------------------------------------|

VERSE 2 RHYTHM
|--------------------------------------------------------|
|--------------------------------------------------------|
|--------------------------------------------------------|
|-0-0-0-0-0-----0-0-0-0-0-----8-8-8-8-8-----8-8-8-8-8----|
|-0-0-0-0-0-----0-0-0-0-0-----8-8-8-8-8-----8-8-8-8-8----|    X2
|-0-0-0-0-0-----0-0-0-0-0-----8-8-8-8-8-----8-8-8-8-8----|

VERSE 2 LEAD (This is played over the second half of the verse)
|---------------------------------------|
|-------------------------------------6-| 
|-5-5-5-7-5-9-5-5-5-5-7-5-9-5-5-7-5-5---|  
|---------------------------------------| 
|---------------------------------------| X4
|---------------------------------------|

PRECHORUS
|-------------------------------|
|-------------------------------|
|-------------------------------|
|-0-0-0---0-0-0---0-0-0---0-0-0-|
|-0-0-0---0-0-0---0-0-0---0-0-0-|
|-0-0-0---0-0-0---0-0-0---0-0-0-|

|----------------------------------------------------------------------------------|
|----------------------------------------------------------------------------------|
|------------------------10-10-10-10-9-9--------------------------10-10-10-10-9-9--|
|-8-8-8-8-8-8-8-8--8-8---x--x--x--x--x-x---8-8-8-8-8-8-8-8--8-8---x--x--x--x--x-x--|
|-8-8-8-8-8-8-8-8--8-8---8--8--8--8--7-7---8-8-8-8-8-8-8-8--8-8---8--8--8--8--7-7--|
|-8-8-8-8-8-8-8-8--8-8---------------------8-8-8-8-8-8-8-8--8-8--------------------|

|----------------------------------------------------------------------------------|
|----------------------------------------------------------------------------------|
|------------------------15-15-15-15-15-15-15-15-----------------------------------|
|-0-0-0-0-0-0-0-0--0-0---x--x--x--x--x--x--x--x----0-0-0-2-2-2-3-3-5-5-5-5-5-5-5-5-|
|-0-0-0-0-0-0-0-0--0-0---13-13-13-13-13-13-13-13---0-0-0-2-2-2-3-3-5-5-5-5-5-5-5-5-|
|-0-0-0-0-0-0-0-0--0-0-----------------------------0-0-0-2-2-2-3-3-5-5-5-5-5-5-5-5-|

CHORUS RHYTHM PART 1
|-----------------------------------------------------------------|
|-----------------------------------------------------------------|
|-3-3-3-3-3-3-3-3-3-3-3-3-3-3-3-3-5-5-5-5-5-5-5-5-5-5-5-5-5-5-5-5-|
|-3-3-3-3-3-3-3-3-3-3-3-3-3-3-3-3-5-5-5-5-5-5-5-5-5-5-5-5-5-5-5-5-|
|-1-1-1-1-1-1-1-1-1-1-1-1-1-1-1-1-3-3-3-3-3-3-3-3-3-3-3-3-3-3-3-3-|
|-----------------------------------------------------------------|

|---------------------------------------------------------------------|
|---------------------------------------------------------------------|
|-7-7-7-7-7-7-7-7-7-7-7-7-7-7-7-7-------------------10-10-10-10-9-9-9-|
|-7-7-7-7-7-7-7-7-7-7-7-7-7-7-7-7-7-7-7-7-7-7-7-7-7-x--x--x--x--x-x-x-|
|-5-5-5-5-5-5-5-5-5-5-5-5-5-5-5-5-7-7-7-7-7-7-7-7-7-8--8--8--8--7-7-7-|
|-0-0-0-0-0-0-0-0-0-0-0-0-0-0-0-0-7-7-7-7-7-7-7-7-7-------------------|

|-----------------------------------------------------------------|
|-----------------------------------------------------------------|
|-3-3-3-3-3-3-3-3-3-3-3-3-3-3-3-3-5-5-5-5-5-5-5-5-5-5-5-5-5-5-5-5-|
|-3-3-3-3-3-3-3-3-3-3-3-3-3-3-3-3-5-5-5-5-5-5-5-5-5-5-5-5-5-5-5-5-|
|-1-1-1-1-1-1-1-1-1-1-1-1-1-1-1-1-3-3-3-3-3-3-3-3-3-3-3-3-3-3-3-3-|
|-----------------------------------------------------------------|

|---------------------------------------------------------------------|
|---------------------------------------------------------------------|
|-7-7-7-7-7-7-7-7-7-7-7-7-7-7-7-7-------------------------------------|
|-7-7-7-7-7-7-7-7-7-7-7-7-7-7-7-7-7-7-7-7-7-7-7-7-7-7-7-7-7-7-7-7-7-7-|
|-5-5-5-5-5-5-5-5-5-5-5-5-5-5-5-5-7-7-7-7-7-7-7-7-7-7-7-7-7-7-7-7-7-7-|
|-0-0-0-0-0-0-0-0-0-0-0-0-0-0-0-0-7-7-7-7-7-7-7-7-7-7-7-7-7-7-7-7-7-7-|

CHORUS LEAD (This is played over the second half of the chorus)
|------------------------------------|
|-10-------8------5-----6-----8------|
|----10------9------7-----7-----9----|
|-------12-----10-----7-----7-----10-|
|------------------------------------| (NOT COMPLETE: I can't figure out the riff 
|------------------------------------|  but it uses those shapes)

AFTER CHORUS RHYTHM
|----------------------------------------------------------------|
|----------------------------------------------------------------|
|----------------------------------------------------------------|
|-7-7-7-7-7-7-7-7-7-7-7-7-7-7-7-7-7--8-8--8-8--8-8--8-8--8-7-7-7-|
|-7-7-7-7-7-7-7-7-7-7-7-7-7-7-7-7-7--8-8--8-8--8-8--8-8--8-7-7-7-|
|-7-7-7-7-7-7-7-7-7-7-7-7-7-7-7-7-7--8-8--8-8--8-8--8-8--8-7-7-7-|


"OHHHHHHHHHHHHHHHHHHHHHHHHHHHHHHHHHHHHHHHHHHHHHHH..."
|-----------------|-----------------|-----------------|-----------------|
|-----------------|-----------------|-----------------|-----------------|
|-----------------|-----------------|-----------------|-----------------|
|-0-0-------------|-----------------|-----------------|-----------------|
|-0-0-------------|-----------------|-----------------|-----------------|  
|-0-0-0-0-0-0-0-0-|-0-0-0-0-0-0-0-0-|-0-0-0-0-0-0-0-0-|-0-0-0-0-0-0-0-0-|

|-----------------|-----------------|-----------------|-----------------|
|-----------------|-----------------|-----------------|-----------------|
|-----------------|-----------------|-----------------|-----------------|
|-0-0-------------|-----------------|-----------------|-----------------|
|-0-0-------------|-----------------|-----------------|-----------------|  
|-0-0-0-0-0-0-0-0-|-0-0-0-0-0-0-0-0-|-0-0-0-0-0-0-0-0-|-0-0-0-0-0-0-0-0-|  

|-----------------|-----------------|-----------------|-----------------|
|-----------------|-----------------|-----------------|-----------------|
|-----------------|-----------------|-----------------|-----------------|
|-0-0---------0-0-|-----------------|-0-0---------0-0-|-----------------|
|-0-0---------0-0-|-----------------|-0-0---------0-0-|-----------------|  
|-0-0-0-0-0-0-0-0-|-0-0-0-0-0-0-0-0-|-0-0-0-0-0-0-0-0-|-0-0-0-0-0-0-0-0-|

|-----------------|-----------------|-----------------|-----------------|
|-----------------|-----------------|-----------------|-----------------|
|-----------------|-----------------|-----------------|-----------------|
|-0-0---------0-0-|-----------------|-----------------|-----------------|
|-0-0---------0-0-|-----------------|-----------------|-----------------|  
|-0-0-0-0-0-0-0-0-|-0-0-0-0-0-0-0-0-|-0-0-0-0-0-0-0-0-|-0-0-0-0-0-0-0-0-|

"THIS IS THE LAST TIME I..."
|-----------------|-----------------|-----------------|-----------------|
|-----------------|-----------------|-----------------|-----------------|
|-----------------|-----------------|-----------------|-----------------|
|-----------------|-----------------|-----------------|-----------------|
|-----------------|-----------------|-----------------|-----------------|  
|-0-0-0-0-0-0-0-0-|-0-0-0-0-0-0-0-0-|-2-2-2-2-2-2-2-2-|-2-2-2-2-2-2-2-2-|

|-----------------|-----------------|-----------------|-----------------|
|-----------------|-----------------|-----------------|-----------------|
|-----------------|-----------------|-----------------|-----------------|
|-----------------|-----------------|-----------------|-----------------|
|-----------------|-----------------|-----------------|-----------------|  
|-3-3-3-3-3-3-3-3-|-3-3-3-3-3-3-3-3-|-2-2-2-2-2-2-2-2-|-2-2-2-2-2-2-2-2-|


|-----------------|-----------------|-----------------|-----------------|
|-----------------|-----------------|-----------------|-----------------|
|-----------------|-----------------|-----------------|-----------------|
|-----------------|-----------------|-----------------|-----------------|
|-----------------|-----------------|-----------------|-----------------|  
|-0-0-0-0-0-0-0-0-|-0-0-0-0-0-0-0-0-|-2-2-2-2-2-2-2-2-|-2-2-2-2-2-2-2-2-|

|-----------------|-----------------|-----------------|-----------------|---|
|-----------------|-----------------|-----------------|-----------------|---|
|-----------------|-----------------|-----------------|-----------------|---|
|-----------------|-----------------|-----------------|-----------------|-5-|
|-----------------|-----------------|-----------------|-----------------|-5-|  
|-3-3-3-3-3-3-3-3-|-3-3-3-3-3-3-3-3-|-5-5-5-5-5-5-5-5-|-5-5-5-5-5-5-5-5-|-5-|

SOLO RHYTHM

|-----------------|-----------------|-----------------|-----------------|
|-----------------|-----------------|-----------------|-----------------|
|-----------------|-----------------|-----------------|-----------------|
|-0-0-0-0-0-0-0-0-|-0-0-0-0-0-0-0-0-|-0-0-0-0-0-0-0-0-|-0-0-0-0-0-0-0-0-|
|-0-0-0-0-0-0-0-0-|-0-0-0-0-0-0-0-0-|-0-0-0-0-0-0-0-0-|-0-0-0-0-0-0-0-0-| 
|-0-0-0-0-0-0-0-0-|-0-0-0-0-0-0-0-0-|-0-0-0-0-0-0-0-0-|-0-0-0-0-0-0-0-0-|

|-----------------|-----------------|-----------------|-----------------|
|-----------------|-----------------|-----------------|-----------------|
|-----------------|-----------------|-----------------|-----------------|
|-8-8-8-8-8-8-8-8-|-8-8-8-8-8-8-8-8-|-8-8-8-8-8-8-8-8-|-8-8-8-8-8-8-8-8-|
|-8-8-8-8-8-8-8-8-|-8-8-8-8-8-8-8-8-|-8-8-8-8-8-8-8-8-|-8-8-8-8-8-8-8-8-|
|-8-8-8-8-8-8-8-8-|-8-8-8-8-8-8-8-8-|-8-8-8-8-8-8-8-8-|-8-8-8-8-8-8-8-8-|

|-----------------|-----------------|-----------------|-----------------|
|-----------------|-----------------|-----------------|-----------------|
|-----------------|-----------------|-----------------|-----------------|
|-0-0-0-0-0-0-0-0-|-0-0-0-0-0-0-0-0-|-0-0-0-0-0-0-0-0-|-0-0-0-0-0-0-0-0-|
|-0-0-0-0-0-0-0-0-|-0-0-0-0-0-0-0-0-|-0-0-0-0-0-0-0-0-|-0-0-0-0-0-0-0-0-| 
|-0-0-0-0-0-0-0-0-|-0-0-0-0-0-0-0-0-|-0-0-0-0-0-0-0-0-|-0-0-0-0-0-0-0-0-|

|-----------------|-----------------|-----------------|-----------------|
|-----------------|-----------------|-----------------|-----------------|
|-----------------|-----------------|-----------------|-----------------|
|-8-8-8-8-8-8-8-8-|-8-8-8-8-8-8-8-8-|-8-8-8-8-8-8-8-8-|-8-8-8-8-8-8-8-8-|
|-8-8-8-8-8-8-8-8-|-8-8-8-8-8-8-8-8-|-8-8-8-8-8-8-8-8-|-8-8-8-8-8-8-8-8-|
|-8-8-8-8-8-8-8-8-|-8-8-8-8-8-8-8-8-|-8-8-8-8-8-8-8-8-|-8-8-8-8-8-8-8-8-|

|-------------------------------|
|-------------------------------|
|-------------------------------|
|-0-0-0---0-0-0---0-0-0---0-0-0-|
|-0-0-0---0-0-0---0-0-0---0-0-0-|
|-0-0-0---0-0-0---0-0-0---0-0-0-| 

|----------------------------------------------------------------------------------|
|----------------------------------------------------------------------------------|
|----------------------------------------------------------------------------------|
|-8-8-8-8-8-8-8-8--8-8---------------------8-8-8-8-8-8-8-8--8-8--------------------|
|-8-8-8-8-8-8-8-8--8-8---------------------8-8-8-8-8-8-8-8--8-8--------------------|
|-8-8-8-8-8-8-8-8--8-8---------------------8-8-8-8-8-8-8-8--8-8--------------------|

|----------------------------------------------------------------------------------|
|----------------------------------------------------------------------------------|
|----------------------------------------------------------------------------------|
|-0-0-0-0-0-0-0-0--0-0---------------------0-0-0-0-0-0-0-0--0-0--------------------|
|-0-0-0-0-0-0-0-0--0-0---------------------0-0-0-0-0-0-0-0--0-0--------------------|
|-0-0-0-0-0-0-0-0--0-0---------------------0-0-0-0-0-0-0-0--0-0--------------------|

|----------------------------------------------------------------------------------|
|----------------------------------------------------------------------------------|
|----------------------------------------------------------------------------------|
|-8-8-8-8-8-8-8-8--8-8---------------------8-8-8-8-8-8-8-8--8-8--------------------|
|-8-8-8-8-8-8-8-8--8-8---------------------8-8-8-8-8-8-8-8--8-8--------------------|
|-8-8-8-8-8-8-8-8--8-8---------------------8-8-8-8-8-8-8-8--8-8--------------------|

|----------------------------------------------------------------------------------|
|----------------------------------------------------------------------------------|
|----------------------------------------------------------------------------------|
|-0-0-0-0-0-0-0-0--0-0---------------------0-0-0-0-0-0-0-0--0-0--------------------|
|-0-0-0-0-0-0-0-0--0-0---------------------0-0-0-0-0-0-0-0--0-0--------------------|
|-0-0-0-0-0-0-0-0--0-0---------------------0-0-0-0-0-0-0-0--0-0--------------------|

|--------------------------------------------------------------------|
|--------------------------------------------------------------------|
|--------------------------------------------------------------------|
|-7-7-7-3-3-3-5-5-5-2-2-2-2-2-2-2---7-7-7-3-3-3-5-5-5-2-2-2-2-2-2-2--|
|-7-7-7-3-3-3-5-5-5-2-2-2-2-2-2-2---7-7-7-3-3-3-5-5-5-2-2-2-2-2-2-2--|
|-7-7-7-3-3-3-5-5-5-2-2-2-2-2-2-2---7-7-7-3-3-3-5-5-5-2-2-2-2-2-2-2--|

|------------------------------------|
|------------------------------------|
|-------------------2-2-2-5-5-5-5--7-|
|-0-0-0-2-2-2-3-3-3-2-2-2-5-5-5-5--7-|
|-0-0-0-2-2-2-3-3-3-0-0-0-3-3-3-3--5-|
|-0-0-0-2-2-2-3-3-3------------------|

SOLO LEAD
|-------------------------------------------------------------|
|-------------------------------------------------------------|
|-?????????????????????????????????????????-------10h12-12----|
|-------------------------------------------------------------|
|-------------------------------------------------------------|
|-------------------------------------------------------------|

|-----------------------------------------------------|
|-10-10-7-9---12-12-9-10---14-14-10-12---15-15-12-14--|
|-----------------------------------------------------|
|-----------------------------------------------------|
|-----------------------------------------------------|
|-----------------------------------------------------|

|-10h13-10----------13s15-12-------------15s17-15-------------13-13-13-13-12-12-12-12-|
|----------11----11-------------13----13----------18-17-15-13-------------------------|
|-------------10-------------------12-------------------------------------------------|
|-------------------------------------------------------------------------------------|
|-------------------------------------------------------------------------------------|
|-------------------------------------------------------------------------------------|

|-9-----------------------------------------------------------|
|---13-11-10-------13-11-10---------11-10---------10-10b11r10-|
|------------12-10----------12-10-9-------12-10-9-------------|
|-------------------------------------------------------------|
|-------------------------------------------------------------|
|-------------------------------------------------------------|

|-------17----------------17----------------17-------------------|
|-13s15----15----------15----15----------15----15----------13b15-|
|-------------17p14h17----------17p14h17----------17p14h17-------|
|----------------------------------------------------------------|
|----------------------------------------------------------------|
|----------------------------------------------------------------|

|--------------------------------------------------------|
|----------15h17h18-20b22--18h20p18-17h18p17-15h17b18r17-|
|-14h15h17-----------------------------------------------|
|--------------------------------------------------------|
|--------------------------------------------------------|
|--------------------------------------------------------|

|-------------------------------------------------------------------------|
|-17h18p17p15-------------------------------------------------------------|
|-------------17p15p14----14h15p14----------------------------------------|
|----------------------17----------17p15p14-------14h15p14----------------|
|-------------------------------------------17p15----------17p15p13-15-13-|
|-------------------------------------------------------------------------|

|-------------------------------------------------------------------|
|-------------------------------------------------------------------|
|-7p3h7p3h7p3h7p3h7p3h7p3h7p3h7p3---9p5h9p5h9p5h9p5h9p5h9p5h9p5h9p5-|
|-------------------------------------------------------------------|
|-------------------------------------------------------------------|
|-------------------------------------------------------------------|

|-----------------------------------------------------------------------------------|
|-----------------------------------------------------------------------------------|
|-10p7h10p7h10p7h10p7h10p7h10p7h10p7h10p7---12p9h12p9h12p9h12p9h12p9h12p9h12p9h12p9-|
|-----------------------------------------------------------------------------------|
|-----------------------------------------------------------------------------------|
|-----------------------------------------------------------------------------------|

|--------------------------------------|
|-----------------------------------10-|
|----7-9---7-9-10---9-10-12---10-12----|
|-10-----------------------------------|
|--------------------------------------|
|--------------------------------------|

|-----------------------------------------------------------------------------------------|
|-----------------------------------------------------------------------------------------|
|-----------------------------------------------------------------------------------------|
|-----------------------------------------------------------------------------------------|
|-------?????????????????????????????????????????????????????????????????????-------------|
|-----------------------------------------------------------------------------------------|

|---------------------------------------------------------------------------------------|
|-10-10-10-10-10-10-10-10---------------------------------------------------------------|
|-------------------------12-12-12-12-12-12-12-12-9-9-9-9-9-9-9-9-10-10-10-10-10-10-9-9-|
|---------------------------------------------------------------------------------------|
|---------------------------------------------------------------------------------------|
|---------------------------------------------------------------------------------------|

|-17-13----------13-18-13----------13-20-15----------------------------|
|-------15----15----------15----15----------17----------------------17-|
|----------14----------------14----------------17----------------17----|
|-------------------------------------------------17----------17-------|
|----------------------------------------------------19-15-19----------|
|----------------------------------------------------------------------|

|-17-13----------13-18-13----------13-20-15----------15-20b22-|
|-------15----15----------15----15----------17----17----------|
|----------14----------------14----------------17-------------|
|-------------------------------------------------------------|
|-------------------------------------------------------------|
|-------------------------------------------------------------|


|----------12-13-12----------------12-13-12---------------------------------10----12----13-|
|-------11----------11----------11----------11------------------------11-------11----11----|
|----10----------------10----10----------------10---9---9-10----10-------10----------------|
|-12----------------------12----------------------8---8------12----12----------------------|
|------------------------------------------------------------------------------------------|
|------------------------------------------------------------------------------------------|

|-17-13-------13-12-------13-12-------12h13-13-15------17-13-------13-12-------|
|-------15----------15----------15---------------------------15----------15----|
|----------14----------14----------14---------------------------14----------14-|
|------------------------------------------------------------------------------|
|------------------------------------------------------------------------------|
|------------------------------------------------------------------------------|

13-12-------12h13-13-15-|
------15----------------|
---------14-------------|
------------------------|
------------------------|
------------------------|

|-17-17-17-13-13-13-15-15-15-12-12-12--13-12-10--17-17-17-13-13-13-15-15-15-12-12-12--13-12-10-|
|----------------------------------------------------------------------------------------------|
|----------------------------------------------------------------------------------------------|
|----------------------------------------------------------------------------------------------|
|----------------------------------------------------------------------------------------------|
|----------------------------------------------------------------------------------------------|

|-10-10-10-12-12-12-13-13-13-17-17-17-20-20-20-20-20b22-|
|-------------------------------------------------------|
|-------------------------------------------------------|
|-------------------------------------------------------|
|-------------------------------------------------------|
|-------------------------------------------------------|

KEY CHANGE CHORUS RHYTHM
|-----------------------------------------------------------------|
|-----------------------------------------------------------------|
|-4-4-4-4-4-4-4-4-4-4-4-4-4-4-4-4-6-6-6-6-6-6-6-6-6-6-6-6-6-6-6-6-|
|-4-4-4-4-4-4-4-4-4-4-4-4-4-4-4-4-6-6-6-6-6-6-6-6-6-6-6-6-6-6-6-6-|
|-2-2-2-2-2-2-2-2-2-2-2-2-2-2-2-2-4-4-4-4-4-4-4-4-4-4-4-4-4-4-4-4-|
|-----------------------------------------------------------------|

|-----------------------------------------------------------------|
|---------------------------------------------------7-7-7-7-6-6-6-|
|-8-8-8-8-8-8-8-8-8-8-8-8-8-8-8-8-3-3-3-3-3-3-3-3-3-x-x-x-x-x-x-x-|
|-8-8-8-8-8-8-8-8-8-8-8-8-8-8-8-8-3-3-3-3-3-3-3-3-3-4-4-4-4-3-3-3-|
|-6-6-6-6-6-6-6-6-6-6-6-6-6-6-6-6-1-1-1-1-1-1-1-1-1---------------|
|-----------------------------------------------------------------|

|-----------------------------------------------------------------|
|-----------------------------------------------------------------|
|-4-4-4-4-4-4-4-4-4-4-4-4-4-4-4-4-6-6-6-6-6-6-6-6-6-6-6-6-6-6-6-6-|
|-4-4-4-4-4-4-4-4-4-4-4-4-4-4-4-4-6-6-6-6-6-6-6-6-6-6-6-6-6-6-6-6-|
|-2-2-2-2-2-2-2-2-2-2-2-2-2-2-2-2-4-4-4-4-4-4-4-4-4-4-4-4-4-4-4-4-|
|-----------------------------------------------------------------|

|-----------------------------------------------------------------|
|---------------------------------------------------7-7-7-7-6-6-6-|
|-8-8-8-8-8-8-8-8-8-8-8-8-8-8-8-8-3-3-3-3-3-3-3-3-3-x-x-x-x-x-x-x-|
|-8-8-8-8-8-8-8-8-8-8-8-8-8-8-8-8-3-3-3-3-3-3-3-3-3-4-4-4-4-3-3-3-|
|-6-6-6-6-6-6-6-6-6-6-6-6-6-6-6-6-1-1-1-1-1-1-1-1-1---------------|
|-----------------------------------------------------------------|

|-----------------------------------------------------------------|
|-----------------------------------------------------------------|
|-4-4-4-4-4-4-4-4-4-4-4-4-4-4-4-4-6-6-6-6-6-6-6-6-6-6-6-6-6-6-6-6-|
|-4-4-4-4-4-4-4-4-4-4-4-4-4-4-4-4-6-6-6-6-6-6-6-6-6-6-6-6-6-6-6-6-|
|-2-2-2-2-2-2-2-2-2-2-2-2-2-2-2-2-4-4-4-4-4-4-4-4-4-4-4-4-4-4-4-4-|
|-----------------------------------------------------------------|

|-----------------------------------------------------------------|
|---------------------------------------------------7-7-7-7-6-6-6-|
|-8-8-8-8-8-8-8-8-8-8-8-8-8-8-8-8-3-3-3-3-3-3-3-3-3-x-x-x-x-x-x-x-|
|-8-8-8-8-8-8-8-8-8-8-8-8-8-8-8-8-3-3-3-3-3-3-3-3-3-4-4-4-4-3-3-3-|
|-6-6-6-6-6-6-6-6-6-6-6-6-6-6-6-6-1-1-1-1-1-1-1-1-1---------------|
|-----------------------------------------------------------------|

|-----------------------------------------------------------------|
|-----------------------------------------------------------------|
|-4-4-4-4-4-4-4-4-4-4-4-4-4-4-4-4-6-6-6-6-6-6-6-6-6-6-6-6-6-6-6-6-|
|-4-4-4-4-4-4-4-4-4-4-4-4-4-4-4-4-6-6-6-6-6-6-6-6-6-6-6-6-6-6-6-6-|
|-2-2-2-2-2-2-2-2-2-2-2-2-2-2-2-2-4-4-4-4-4-4-4-4-4-4-4-4-4-4-4-4-|
|-----------------------------------------------------------------|

|-----------------------------------------------------------------|---|
|---------------------------------------------------7-7-7-7-6-6-6-|---|
|-8-8-8-8-8-8-8-8-8-8-8-8-8-8-8-8-3-3-3-3-3-3-3-3-3-x-x-x-x-x-x-x-|-4-|
|-8-8-8-8-8-8-8-8-8-8-8-8-8-8-8-8-3-3-3-3-3-3-3-3-3-4-4-4-4-3-3-3-|-4-|
|-6-6-6-6-6-6-6-6-6-6-6-6-6-6-6-6-1-1-1-1-1-1-1-1-1---------------|-2-|
|-----------------------------------------------------------------|---|

KEY CHANGE CHORUS LEAD (This is played over the second half of the chorus)
|--------------------------------------|
|-11-------9-------6-----7-----9-------|
|----11------10------8-----8-----10----|
|-------13------11-----8-----8------11-|
|--------------------------------------| (NOT COMPLETE: I can't figure out the riff but
|--------------------------------------|it uses those shapes)
comments
print report bad tab
3 comments total.
0 reply
Simmji wrote on November 10 2010, 03:04 pm

Thankyou, i owe you a debt of gratitude :D

+3 reply
theonelink wrote on November 22 2010, 03:01 pm

for the verse lead
|---------------------------------------|
|---------------------------------------|
|------7--9----7--9----7--10------------|
|--7777-77-7777-77-7777-77-------x2-----|
|---------------------------------------|
|---------------------------------------|
.... .. .... .. .... ..

then
|---------------------------------------|
|---------------------------------------|
|------7--9----7--9----7--10------------|
|--8888-88-8888-88-8888-88-------x2-----|
|---------------------------------------|
|---------------------------------------|
.... .. .... .. .... ..

thats what im thinking?

0 reply
deathfromala wrote on March 23 2012, 02:10 am

officiLLY harder than this war is ours...?

I want to post or [tab]
guest
You may want to rate the tab now too:
select rating
Please do not post tabs as comments. Select "correction" instead!