Oops, an error
Loading. Please wait.

The Day I Left The Womb Tab

ver2
ver2

Whole song

Interactive

More versions @911Tabs.com
138,510 views 21 this week
23 commentsread comments
1 2 3 4 5
excellent!
x 31
Autoscroll
+/-
esc
set tempo
stop
Contributor
Hey! There's an official Ultimate Guitar app which is ideal
for learning songs when you're away from computer. Get the app
WARNING: You are trying to view
                                    content from Ultimate-Guitar.com
                                    in an unauthorized application,
                                    which is prohibited.

                                    Please use an official Ultimate
                                    Guitar Tabs application for iPhone,
                                    iPad or Android to access legitimate
                                    chords, guitar, bass, and drum tabs
                                    from Ultimate-Guitar.com database.

                                    Type "ultimate guitar tabs" in Apple
                                    App Store's or Android Market's
                                    search to find the application.
------------------------------------------------------------------------------------------|
THE DAY I LEFT THE WOMB - Escape The Fate
------------------------------------------------------------------------------------------|
Tabbed by: Jordan C

Email: j_little_legend@hotmail.com

Tuning: DGCFAD (Dropped a Whole Step)


                                  ~~~INTRO~~~ (0:00)
                                  (Play Twice!!)

                   d|-12----12----10----10----7----7----8----8----------|
                   A|----10----10----10----10---10---10---10---10-------|
       Guitar 1    F|---------------------------------------------------|
                   C|---------------------------------------------------|
                   G|---------------------------------------------------|
                   D|---------------------------------------------------|

                   d|-0---------------------------------3---------------|
                   A|-1---------------------------------1---------------|
       Guitar 2    F|-2---------------------------------2---------------|
(Listen To Song    C|-2---------------------------------2---------------|
  for Strumming    G|-0---------------------------------0---------------|
       Pattern)    D|-0---------------------------------0---------------|

                     (0:07)
                   d|-12----12----10----10----15----15----12----10-------|
                   A|----10----10----10----10----10----10----10----10----|
       Guitar 1    F|----------------------------------------------------|
                   C|----------------------------------------------------|
                   G|----------------------------------------------------|
                   D|----------------------------------------------------|

                   d|-0-----------------------------------3--------------|
                   A|-1-----------------------------------1--------------|
       Guitar 2    F|-0-----------------------------------0--------------|
                   C|-2-----------------------------------2--------------|
                   G|-3-----------------------------------3--------------|
                   D|-0-----------------------------------0--------------|


                                 ~~~VERSE 1~~~ (0:21)

                   d|----------------------------------------------------|
                   A|----------------------------------------------------|
       Guitar 1    F|----------------------------------------------------|
                   C|----------------------------------------------------|
                   G|----------------------------------------------------|
                   D|----------------------------------------------------|

                   d|-0-----------------------------------3--------------|
                   A|-1-----------------------------------1--------------|
       Guitar 2    F|-2-----------------------------------2--------------|
                   C|-2-----------------------------------2--------------|
                   G|-0-----------------------------------0--------------|
                   D|-0-----------------------------------0--------------|

                     (0:26)
                   d|----------------------------------------------------|
                   A|----------------------------------------------------|
       Guitar 1    F|----------------------------------------------------|
                   C|----------------------------------------------------|
                   G|----------------------------------------------------|
                   D|----------------------------------------------------|

                   d|-0--------------------------------------------------|
                   A|-1--------------------------------------------------|
       Guitar 2    F|-0--------------------------------------------------|
                   C|-2--------------------------------------------------|
                   G|-3--------------------------------------------------|
                   D|-0--------------------------------------------------|


                     (0:30)
                   d|----------------------------------------------------|
                   A|----------------------------------------------------|
       Guitar 1    F|----------------------------------------------------|
                   C|----------------------------------------------------|
                   G|----------------------------------------------------|
                   D|----------------------------------------------------|

                   d|-0-----------------------------------3--------------|
                   A|-1-----------------------------------1--------------|
       Guitar 2    F|-2-----------------------------------2--------------|
                   C|-2-----------------------------------2--------------|
                   G|-0-----------------------------------0--------------|
                   D|-0-----------------------------------0--------------|

                     (0:35)
                   d|----------------------------------------------------|
                   A|----------------------------------------------------|
       Guitar 1    F|----------------------------------------------------|
                   C|----------------------------------------------------|
                   G|----------------------------------------------------|
                   D|----------------------------------------------------|

                   d|-0-----------------------------------3--------------|
                   A|-1-----------------------------------1--------------|
       Guitar 2    F|-0-----------------------------------0--------------|
                   C|-2-----------------------------------2--------------|
                   G|-3-----------------------------------3--------------|
                   D|-0-----------------------------------0--------------|

                              Play INTRO one more time!!

                                 ~~~Verse 2~~~ (0:49)

                   d|----------------------------------------------------|
                   A|----------------------------------------------------|
       Guitar 1    F|----------------------------------------------------|
                   C|----------------------------------------------------|
                   G|----------------------------------------------------|
                   D|----------------------------------------------------|

                   d|-0-----------------------------------3--------------|
                   A|-1-----------------------------------1--------------|
       Guitar 2    F|-2-----------------------------------2--------------|
                   C|-2-----------------------------------2--------------|
                   G|-0-----------------------------------0--------------|
                   D|-0-----------------------------------0--------------|

                     (0:54)
                   d|----------------------------------------------------|
                   A|----------------------------------------------------|
       Guitar 1    F|----------------------------------------------------|
                   C|----------------------------------------------------|
                   G|----------------------------------------------------|
                   D|----------------------------------------------------|

                   d|-0--------------------------------------------------|
                   A|-1--------------------------------------------------|
       Guitar 2    F|-0--------------------------------------------------|
                   C|-2--------------------------------------------------|
                   G|-3--------------------------------------------------|
                   D|-0--------------------------------------------------|


                     (0:59)
                   d|----------------------------------------------------|
                   A|----------------------------------------------------|
       Guitar 1    F|----------------------------------------------------|
                   C|----------------------------------------------------|
                   G|----------------------------------------------------|
                   D|----------------------------------------------------|

                   d|-0-----------------------------------3--------------|
                   A|-1-----------------------------------1--------------|
       Guitar 2    F|-2-----------------------------------2--------------|
                   C|-2-----------------------------------2--------------|
                   G|-0-----------------------------------0--------------|
                   D|-0-----------------------------------0--------------|


                     (1:03)
                   d|----------------------------------------------------|
                   A|----------------------------------------------------|
       Guitar 1    F|----------------------------------------------------|
                   C|----------------------------------------------------|
                   G|----------------------------------------------------|
                   D|----------------------------------------------------|

                   d|-0-----------------------------------3--------------|
                   A|-1-----------------------------------3--------------|
       Guitar 2    F|-0-----------------------------------0--------------|
                   C|-2-----------------------------------0--------------|
                   G|-3-----------------------------------2--------------|
                   D|-0-----------------------------------3--------------|


                               ~~~Chorus~~~ (1:08)

                   d|-0---------------------------0----------------------|
                   A|-1---------------------------1----------------------|
    Guitar 1       F|-2---------------------------0----------------------|
      & Guitar 2   C|-2---------------------------2----------------------|
                   G|-0---------------------------3----------------------|
                   D|-0---------------------------0----------------------|


                    (1:17)
                   d|-1---------------------------3----------------------|
                   A|-1---------------------------3----------------------|
    Guitar 1       F|-2---------------------------0----------------------|
      & Guitar 2   C|-2---------------------------0----------------------|
                   G|-3---------------------------2----------------------|
                   D|-1---------------------------3----------------------|


                                    ~~~Bridge~~~ (1:27)

                   d|--0----0----0----0----0----0----0----0----0----0-----|
                   A|---1----1----1----1----1----1----1----1----1----1----|
       Guitar 1    F|----2----2----2----2---------2----2----2----2--------|
                   C|-----------------------------------------------------|
                   G|-----------------------------------------------------|
                   D|-----------------------------------------------------|

                   D|-0----------------------0-------------------------------|
                   A|-1----------------------1-------------------------------|
       Guitar 2    F|-2----------------------2-------------------------------|
 (One strum each   C|-2----------------------2-------------------------------|
  cept' the last   G|-0----------------------0-------------------------------|
  C, which builds  D|-0----------------------0-------------------------------|
       up.)

                     (1:32)
                   d|---0----0----0----0----0----0----0----0----0---------|
                   A|----1----1----1----1----1----1----1----1----1--------|
       Guitar 1    F|-----2----2----2----2---------2----2----2----2-------|
                   C|-----------------------------------------------------|
                   G|-----------------------------------------------------|
                   D|-----------------------------------------------------|

                   d|-0----------------------0----------------------------|
                   A|-1----------------------1----------------------------|
       Guitar 2    F|-0----------------------0----------------------------|
                   C|-2----------------------2----------------------------|
                   G|-3----------------------3----------------------------|
                   D|-0----------------------0----------------------------|

                                  ~~~Verse 3~~~
                                 Same as Verse 2!!


                                 ~~~Last Chorus~~~

                     (1:58)
                   d|-15----15----12----10----15----15----12----10--------|
                   A|----10----10----10----10----10----10----10----10-----|
       Guitar 1    F|-----------------------------------------------------|
                   C|-----------------------------------------------------|
                   G|-----------------------------------------------------|
                   D|-----------------------------------------------------|

                   d|-0---------------------------------------------------|
                   A|-1---------------------------------------------------|
       Guitar 2    F|-2---------------------------------------------------|
                   C|-2---------------------------------------------------|
                   G|-0---------------------------------------------------|
                   D|-0---------------------------------------------------|

                     (2:03)
                   d|-12----12----10----10----15----15----12----10--------|
                   A|----10----10----10----10----10----10----10----10-----|
       Guitar 1    F|-----------------------------------------------------|
                   C|-----------------------------------------------------|
                   G|-----------------------------------------------------|
                   D|-----------------------------------------------------|

                   d|-0---------------------------------------------------|
                   A|-1---------------------------------------------------|
       Guitar 2    F|-0---------------------------------------------------|
                   C|-2---------------------------------------------------|
                   G|-3---------------------------------------------------|
                   D|-0---------------------------------------------------|


                    (2:07)
                   d|-12----12----10----10----15----15----12----10--------|
                   A|----10----10----10----10----10----10----10----10-----|
       Guitar 1    F|-----------------------------------------------------|
                   C|-----------------------------------------------------|
                   G|-----------------------------------------------------|
                   D|-----------------------------------------------------|

                   d|-1---------------------------------------------------|
                   A|-1---------------------------------------------------|
       Guitar 2    F|-2---------------------------------------------------|
                   C|-2---------------------------------------------------|
                   G|-3---------------------------------------------------|
                   D|-1---------------------------------------------------|


                    (2:12)
                   d|-12----12----10----10----15----15----12----10----10--|
                   A|----10----10----10----10----10----10----10----10-----|
       Guitar 1    F|-----------------------------------------------------|
                   C|-----------------------------------------------------|
                   G|-----------------------------------------------------|
                   D|-----------------------------------------------------|

                   d|-3---------------------------------------------------|
                   A|-3---------------------------------------------------|
       Guitar 2    F|-0---------------------------------------------------|
                   C|-0---------------------------------------------------|
                   G|-2---------------------------------------------------|
                   D|-3---------------------------------------------------|


                                     (2:16)
                                    d|--0--
                                    A|--1--
                    And Finish On   F|--2--
                                    C|--2--
                                    G|--0--
                                    D|--0--


Thank You, Please Rate
============================================================================
comments
print report bad tab
23 comments total. Showing first comments. show 1 bad comment
+3 reply
the.deceived. wrote on July 21 2007, 09:43 am

awsum tab, good job 5 *'s

+3 reply
wongtong wrote on February 1 2008, 03:37 am

It does visual.
Maybe you have the tuning wrong?
Make sure it's one step down for EACH STRING.

I want to post or [tab]
guest
You may want to rate the tab now too:
select rating
Please do not post tabs as comments. Select "correction" instead!