Oops, an error
Loading. Please wait.

The Flood Bass Tab

ver1
ver1
More versions @911Tabs.com
15,370 views 15 this week
no commentswrite comment
1 2 3 4 5
accurate
x 7
Autoscroll
+/-
esc
set tempo
stop
Contributor
Difficulty
Tuning
intermediate
C G C F A D
WARNING: You are trying to view
                                    content from Ultimate-Guitar.com
                                    in an unauthorized application,
                                    which is prohibited.

                                    Please use an official Ultimate
                                    Guitar Tabs application for iPhone,
                                    iPad or Android to access legitimate
                                    chords, guitar, bass, and drum tabs
                                    from Ultimate-Guitar.com database.

                                    Type "ultimate guitar tabs" in Apple
                                    App Store's or Android Market's
                                    search to find the application.
----------------------------------------------------------------------------
                             The Flood - Escape the Fate
----------------------------------------------------------------------------

Original Contributor: Bassface01
New Contributor: Teh D Bot
Original Tab at Bottom

Intro 
F|---------------------------------------------------------------------------------|
C|---------------------------------------------------------------------------------|
G|-2-r-2-r-2-2-2-0---0-0-0-0-0---0---0-0-0-0-0-------------------------------------|
C|-----------------------------------------------3---3-3-3-3-3---3---3-3-3-3-3---0-|
   1 + 2 + 3 + 4 + 1 + 2 + 3 + 4 + 1 + 2 + 3 + 4 + 1 + 2 + 3 + 4 + 1 + 2 + 3 + 4 +

F|-----------------------------------------------------------------|
C|-----------------------------------------------------------------|
G|-------------------------------2---2-2-2-2-2-2-2-2-r-2-r-2-2-2-0-|
C|---0-0-0-0-0---0---0-0-0-0-0-------------------------------------|
   1 + 2 + 3 + 4 + 1 + 2 + 3 + 4 + 1 + 2 + 3 + 4 + 1 + 2 + 3 + 4 +

Verse 0:12
F|-----------------------------------------------------------------|
C|-----------------------------------------------------------------|
G|---0-0-0-0-0-0-0-0-0-0-0-0-0-0-----------------------------------|
C|-------------------------------3---3-3-3-3-3-3-3-3-3-3-3-3-3-3-0-|
   1 + 2 + 3 + 4 + 1 + 2 + 3 + 4 + 1 + 2 + 3 + 4 + 1 + 2 + 3 + 4 +

F|-----------------------------------------------------------------|
C|-----------------------------------------------6---6-6-6-6-6-6---|
G|-------------------------------2---2-2-2-2-2-2-----------------0-|
C|---0-0-0-0-0-0-0-0-0-0-0-0-0-0-----------------------------------|
   1 + 2 + 3 + 4 + 1 + 2 + 3 + 4 + 1 + 2 + 3 + 4 + 1 + 2 + 3 + 4 +

0:22
F|-----------------------------------------------------------------|
C|-----------------------------------------------------------------|
G|-----0-r-----0-r-----0-r-----0-----------------------------------|
C|-------------------------3-5---3-----3-r-----3-r-----3-r-0-2-3-0-|
   1 + 2 + 3 + 4 + 1 + 2 + 3 + 4 + 1 + 2 + 3 + 4 + 1 + 2 + 3 + 4 +

F|-----------------------------------------------------------------|
C|-----------------------------------------------6-6-6-6-6-6-6-6---|
G|-------------------------------2-----2-2-2-2-2-----------------5-|
C|-----0-r-----0-r-----0-r-0-0-0-----------------------------------|
   1 + 2 + 3 + 4 + 1 + 2 + 3 + 4 + 1 + 2 + 3 + 4 + 1 + 2 + 3 + 4 +

Pre Chorus 0:33
F|-----------------------------------------------------------------|
C|-----------------------------------------------5-r-5-r-6-r-6-r---|
G|---5-5-5-5-5-5-5-5-5-5-5-5--7--8---8-8-8-8-8-8-----------------0-|
C|-----------------------------------------------------------------|
   1 + 2 + 3 + 4 + 1 + 2 + Triplet 1 + 2 + 3 + 4 + 1 + 2 + 3 + 4 +

Chorus 0:37
F|-----------------------------------------------------------------|
C|-----------------------------------------------------------------|
G|---0-0-0-0-0-0-0-0-0-0-0-0-0-0-3---3-3-3-3-3-3-3-3-3-3-3-3-3-3---|
C|---------------------------------------------------------------3-|
   1 + 2 + 3 + 4 + 1 + 2 + 3 + 4 + 1 + 2 + 3 + 4 + 1 + 2 + 3 + 4 +

F|-----------------------------------------------------------------|
C|-----------------------------------------------------------------|
G|-------------------------------7---7-7-7-7-7-7-7-7-7-7-7-7-7-7-7-|
C|---3-3-3-3-3-3-3-3-3-3-3-3-3-3-----------------------------------|
   1 + 2 + 3 + 4 + 1 + 2 + 3 + 4 + 1 + 2 + 3 + 4 + 1 + 2 + 3 + 4 +

0:48
F|-----------------------------------------------------------------|
C|-----------------------------------------------------------------|
G|-0-0-0---0-0-0---0-0-0-0-0-0-0-3---3-3-3-3-3-3-3-3-3-3-3---------|
C|---------------------------------------------------------2-2-2-3-|
   1 + 2 + 3 + 4 + 1 + 2 + 3 + 4 + 1 + 2 + 3 + 4 + 1 + 2 + 3 + 4 +

F|-----------------------------------------------------------------|
C|-----------------------------------------------------------------|
G|-------------------------------7---7-7-7-7-7-7-7-7-\-----------0-|
C|---3-3-3-3-3-3-3-3-3-3-3-3-3-3-----------------------------------|
   1 + 2 + 3 + 4 + 1 + 2 + 3 + 4 + 1 + 2 + 3 + 4 + 1 + 2 + 3 + 4 +

Interlude 0:58
F|-----------------------------------------------------------------|
C|-----------------------------------------------------------------|
G|---0-0-0-0-0---0---0-0-0-0-0-------------------------------------|
C|-------------------------------3-3-3-3-3-3-3-3-3-3-3-3-3-3-3-3-0-|
   1 + 2 + 3 + 4 + 1 + 2 + 3 + 4 + 1 + 2 + 3 + 4 + 1 + 2 + 3 + 4 +

F|-----------------------------------------------------------------|
C|-----------------------------------------------------------------|
G|-------------------------------2---2-2-2-2-2-2-2-7-r-5-r-3-3-5-0-|
C|---0-0-0-0-0-0-0-0-0-0-0-0-0-0-----------------------------------|
   1 + 2 + 3 + 4 + 1 + 2 + 3 + 4 + 1 + 2 + 3 + 4 + 1 + 2 + 3 + 4 +

Verse
F|-----------------------------------------------------------------|
C|-----------------------------------------------------------------|
G|---0-0-0-0-0-0-0-0-0-0-0-0-0-0-8---8-8-8-8-8-8-8-8-8-8-8-8-8-8-5-|
C|-----------------------------------------------------------------|
   1 + 2 + 3 + 4 + 1 + 2 + 3 + 4 + 1 + 2 + 3 + 4 + 1 + 2 + 3 + 4 +

F|-----------------------------------------------------------------|
C|-----------------------------------------------6---6-6-6-9-6---7-|
G|---5-5-5-5-5-5-5-5-5-5-5-5-5-5-2---2-2-2-2-2-2-------------------|
C|-----------------------------------------------------------------|
   1 + 2 + 3 + 4 + 1 + 2 + 3 + 4 + 1 + 2 + 3 + 4 + 1 + 2 + 3 + 4 +

1:19
F|-----------------------------------------------------------------|
C|-----------------------------------------------------------------|
G|-----0-r-----0-r-----0-r-0-0-0-----------------------------------|
C|-------------------------------3---333-333-333-333-333-333-333-0-|
   1 + 2 + 3 + 4 + 1 + 2 + 3 + 4 + 1 + 2 + 3 + 4 + 1 + 2 + 3 + 4 +

F|-----------------------------------------------------------------|
C|-----------------------------------------------6-----6-6-6-6-6---|
G|-------------------------2-----2-----2-2-2-2-2-----------------5-|
C|-----0-r-----0-r-----0-r---3-0-----------------------------------|
   1 + 2 + 3 + 4 + 1 + 2 + 3 + 4 + 1 + 2 + 3 + 4 + 1 + 2 + 3 + 4 +

Pre Chorus 1:29
F|-----------------------------------------------------------------|
C|-----------------------------------------------------------------|
G|---5-5-5-5-5-5-5-5-5-5-5-5--7--8---8-8-8-8-8-8-----------------0-|
C|-----------------------------------------------2-r-3-r-5-r-6-r---|
   1 + 2 + 3 + 4 + 1 + 2 + Triplet 1 + 2 + 3 + 4 + 1 + 2 + 3 + 4 +

Chorus 1:33
F|-----------------------------------------------------------------|
C|-----------------------------------------------------------------|
G|---0-0-0-0-0-0-0-0-0-0-0-0-0-0-3---3-3-3-3-3-3-3-3-3-3-3-3-3-3---|
C|---------------------------------------------------------------3-|
   1 + 2 + 3 + 4 + 1 + 2 + 3 + 4 + 1 + 2 + 3 + 4 + 1 + 2 + 3 + 4 +

F|--------------------------------------------------------------------|
C|-------------------------------------------------10---9---10---10---|
G|-------------------------------7---7-7-7-7-7-7-7----7---7----7----7-|
C|---3-3-3-3-3-3-3-3-3-3-3-3-3-3--------------------------------------|
   1 + 2 + 3 + 4 + 1 + 2 + 3 + 4 + 1 + 2 + 3 + 4 + 1  + 2 + 3  + 4  +

1:44
F|-----------------------------------------------------------------|
C|-----------------------------------------------------------------|
G|-0-0-0-0-0-0-0-0-0-0-0-0-----2-3---3-3-3-3-3-3-3-3-3-3-3-3-3-3---|
C|-------------------------3-5-----------------------------------3-|
   1 + 2 + 3 + 4 + 1 + 2 + 3 + 4 + 1 + 2 + 3 + 4 + 1 + 2 + 3 + 4 +

F|-----------------------------------------------------------------|
C|-----------------------------------------------------------------|
G|-------------------------------7---7-7-7-7-7-7-7-7-\-------------|
C|---3-3-3-3-3-3-3-3-3-3-3-3-3-3---------------------------------7-|
   1 + 2 + 3 + 4 + 1 + 2 + 3 + 4 + 1 + 2 + 3 + 4 + 1 + 2 + 3 + 4 +

Interlude 1:54
F|-----------------------------------------------------------------|
C|-----------------------------------------------------------------|
G|-----------------------------------------------------------------|
C|-\---\---\---\-------------------------------------------------7-|
   1 + 2 + 3 + 4 + 1 + 2 + 3 + 4 + 1 + 2 + 3 + 4 + 1 + 2 + 3 + 4 +

F|-------------------------------------------------------------------------|
C|-------------------------------------------------------------------------|
G|-------------------------------------------------------------------------|
C|-\---\---\-----7-\---\---\-----7-\---\---\-----7-r-7-r-7-r-\-----------7-|
   1 + 2 + 3 + 4 + 1 + 2 + 3 + 4 + 1 + 2 + 3 + 4 + 1 + 2 + 3 + 4 + 5 + 6 + 

Bridge 2:05
F|--------------------------------------------------------5----------|
C|o-----------------------------------------------------------6-----o|
G|o-----------------------------------------------3---7-------------o|x3
C|--\---000-000---7-\---000-000---7-\---000-000-------------------7--|
    1 + 2 + 3 + 4 + 1 + 2 + 3 + 4 + 1 + 2 + 3 + 4 + 1 + 2 + 3 + 4 +

F|-------------------------------------------------------5---------|
C|-----------------------------------------------------------6-----|
G|-----------------------------------------------3---7-----------3-|
C|-\---000-000---7-\---000-000---7-\---000-000---------------------|
   1 + 2 + 3 + 4 + 1 + 2 + 3 + 4 + 1 + 2 + 3 + 4 + 1 + 2 + 3 + 4 +

F|-------5---------------5-----------------------------------------|
C|-----------6---------------6-------------------------------------|
G|---7-----------3---7-----------------------------------------3-r-|
C|---------------------------------6-------------------------------|
   1 + 2 + 3 + 4 + 1 + 2 + 3 + 4 + 1 + 2 + 3 + 4 + 1 + 2 + 3 + 4 +

F|-------------------------------------------------|
C|-------------------------------------------------|
G|-3-r-3-5---------------------------------------3-|
C|-----------7-\-----------------------------------|
   1 + 2 + 3 + 4 + 1 + 2 + 3 + 4 + 1 + 2 + 3 + 4 + 

2:35
F|-----------------------------------------------------------------------------------------|
C|-----------------------------------------------------------------------------------------|
G|---3-3-3-3-3-3/15-15-15-15-15-15-15-15---------------------------------7---7-7-7-7-7-7-7-|
C|---------------------------------------3---3-r-------------------5-3-3-------------------|
   1 + 2 + 3 + 4 +  1  +  2  +  3  +  4  + 1 + 2 + 3 + 4 + 1 + 2 + 3 + 4 + 1 + 2 + 3 + 4 +

1 bar rest

Chorus 2:43
F|-----------------------------------------------------------------|
C|-----------------------------------------------------5---5-3-2---|
G|-0-0-0-0-0-0-0-0-0-0-0-0-0-0-0-3---3-3-3-3-3-3-3-3-3---3---------|
C|---------------------------------------------------------------3-|
   1 + 2 + 3 + 4 + 1 + 2 + 3 + 4 + 1 + 2 + 3 + 4 + 1 + 2 + 3 + 4 +

F|-------------------------------------------------------------------|
C|-------------------------------------------------10-9-7---7-9-10---|
G|-------------------------------7---7-7-7-7-7-7-7--------7--------0-|
C|---3-3-3-3-3-3-3-3-3-3-3-3-3-3-------------------------------------|
   1 + 2 + 3 + 4 + 1 + 2 + 3 + 4 + 1 + 2 + 3 + 4 + 1  + 2 + 3 + 4  +

2:52
F|-------------------------------------------------5-5-------------|
C|-----------------------------------------------------5---2---2-3-|
G|---0-0-0-0-0-0-0-------------2-3---3-3-3-3-3-3-3-------3---3-----|
C|-----------------6-6-6-6-3-5-------------------------------------|
   1 + 2 + 3 + 4 + 1 + 2 + 3 + 4 + 1 + 2 + 3 + 4 + 1 + 2 + 3 + 4 +

F|--------------------------------------------------------------------|
C|---3-3-3-2-2-2-2---------------------------------10---9---10-9-7----|
G|-----------------5-5-5-5-3-3-3-7---7-7-7-7-7-7-7----7---7--------10-|
C|--------------------------------------------------------------------|
   1 + 2 + 3 + 4 + 1 + 2 + 3 + 4 + 1 + 2 + 3 + 4 + 1  + 2 + 3  + 4 +

3:03
F|-----------------------------------------------5---5-5-5-5-5-----|
C|-----------------------------------------------------------------|
G|-0-0-0---0-----0---0-0---0-3-5-3---3-3---3-3-3---------------3---|
C|---------------------------------------------------------------3-|
   1 + 2 + 3 + 4 + 1 + 2 + 3 + 4 + 1 + 2 + 3 + 4 + 1 + 2 + 3 + 4 +

F|-----------------------------------------------------------------|
C|-----------------------------------------------------------------|
G|---------------0---0-0---3-3-3-7---7-7-7-7-7-7-7-7-r-------------|
C|---3-3---5-5-5-------------------------------------------------7-|
   1 + 2 + 3 + 4 + 1 + 2 + 3 + 4 + 1 + 2 + 3 + 4 + 1 + 2 + 3 + 4 +

Outro 3:13
F|-------------------------------------------------------5---------|
C|-----------------------------------------------------------6-----|
G|-----------------------------------------------3---7-------------|
C|-\---\---\-----7-\---\---\-----7-\---\---\---------------------7-|
   1 + 2 + 3 + 4 + 1 + 2 + 3 + 4 + 1 + 2 + 3 + 4 + 1 + 2 + 3 + 4 +

F|-------------------------------------------------------5---------|
C|-----------------------------------------------------------6-----|
G|-----------------------------------------------3---7-----------3-|
C|-\---\---\-----7-\---\---\-----7-\---\---\-----------------------|
   1 + 2 + 3 + 4 + 1 + 2 + 3 + 4 + 1 + 2 + 3 + 4 + 1 + 2 + 3 + 4 +

F|-------5---------------5---------------5-r-----------------------|
C|-----------6---------------6---------------6-r-------------------|
G|---7-----------3---7-----------3-r-7-r---------------------------|
C|-----------------------------------------------------------------|
   1 + 2 + 3 + 4 + 1 + 2 + 3 + 4 + 1 + 2 + 3 + 4 + 1 + 2 + 3 + 4 +
Tabbed by Dave Vucko

=========================================================================

Tabbed By : bassface01
e-mail: guneagleluke@charter.net

Tuning: Dropped C CGCF

Intro:
F|---------------------------------------------------------------------|
C|---------------------------------------------------------------------|
G|------------------------------------------------22222222222222-2-2-2-|
C|777777777777777733333333333333330000000000000000---------------------|

Verse:
F|------------------------------------------------------------------|
C|------------------------------------------------------------------|
G|------------------------------------------------2222222222222222--|
C|777777777777777733333333333333330000000000000000------------------|

F|------------------------------------------------------------------------|
C|------------------------------------------------------------------------|
G|-----------------------------------------------2222222222222222777777777|
C|-7---7---7---7---3---3---3----3--0---0---0---0--------------------------|

Pre-Chorus:
F|-----------------------------------------|
C|-----------------------------------------|
G|555555557777777788883333/15151515--------|
C|-----------------------------------------|

Chorus:
F|------------------------------------|
C|------------------------------------| X2
G|--------33333333--------------------|
C|77777777--------3333333322222222----|

Break:
F|---------------------------------------------|
C|---------------------------------------------|
G|12-------12--------12-------12-12-12---------|
C|---------------------------------------------|

G|--------------------------------------------------|
D|-------------------------------------------10-----|
A|12-000-000--12-000-000--12-000-000------7-----11--| X4
E|------------------------------------10------------|

G|--------------------------|
D|--------10----------------|
A|-----7-----11-------------| X3
E|-10-----------------------|

Ending:
G|--------------------------------------------------|
D|-------------------------------------------10-----|
A|12-000-000--12-000-000--12-000-000------7-----11--| X2
E|------------------------------------10------------|

G|--------------------------|
D|--------10----------------|
A|-----7-----11-------------| 
E|-10-----------------------|




| /  slide up
| \  slide down
| h  hammer-on
| p  pull-off
| ~  vibrato
| +  harmonic
| x  Mute note
============================================================================
comments
print report bad tab
I want to post or [tab]
guest
You may want to rate the tab now too:
select rating
Please do not post tabs as comments. Select "correction" instead!