Oops, an error
Loading. Please wait.

The Flood Tab

ver3
ver3
More versions @911Tabs.com
27,309 views 9 this week
3 commentsread comments
1 2 3 4 5
accurate
x 7
Autoscroll
+/-
esc
set tempo
stop
Contributor
Difficulty
Tuning
intermediate
C G C F A D
WARNING: You are trying to view
                                    content from Ultimate-Guitar.com
                                    in an unauthorized application,
                                    which is prohibited.

                                    Please use an official Ultimate
                                    Guitar Tabs application for iPhone,
                                    iPad or Android to access legitimate
                                    chords, guitar, bass, and drum tabs
                                    from Ultimate-Guitar.com database.

                                    Type "ultimate guitar tabs" in Apple
                                    App Store's or Android Market's
                                    search to find the application.
-------------------------------------------------------------------------------
			     The Flood - Escape the fate
-------------------------------------------------------------------------------
Tabbed by: Optimus Dattum
Email: yellow_dude13@hotmail.com

PIAZ KITEJIIII?!?!?
thanks to ETF <3

Arranged for 1 guitar
Brian has put in some other guitar layers, but i decided to tab the main part. 
Let me know if anythings wrong
ENJOY!

Tuning:Drop c
                                             
D|---------------------------------------------------------------------------|
A|---------------------------------------------------------------------------|
F|---------------------------------------------------------------------------|
C|----4--4--444-----------7------------------7-------------------------------|
G|----2--2--222-----------7----0h3h7p3-------7----0h3h7p3--------------------|
C|\-----------------------7------------------7-------------------------------|
 Pick scrape	             

D|---------------------------------------------------------------------------|
A|---------------------------------------------------------------------------|
F|----------4-44-------------------------------------------------------------|
C|--3-3-----6-66---4^-----------------0-----------------0--------------------|
G|--3-3-----3-33----------------------0---0h3h7p3-------0---0h3h7p3----------|
C|--3-3-----3-33------------12\-------0-----------------0--------------------|
                                                            

D|---------------------------------------------------------------------------|
A|---------------------------------------------------------------------------|
F|---------------------------------------------------------------------------|
C|---------------------------------------------------------------------------|
G|--222222-22-222------------------------------------------------------------|
C|---------------------------------------------------------------------------|

Verse
     pm............................................
D|---------------------------------------------------------------------------|
A|---------------------------------------------------------------------------|
F|---------------------------------------------------------------------------|
C|---7--7777-7777-7777------------3--3333-3333-3333--------------------------|
G|---7--7777-7777-7777------------3--3333-3333-3333--------------------------|
C|---7--7777-7777-7777------------3--3333-3333-3333--------------------------|
 
    pm...............
D|---------------------------------------------------------------------------|
A|---------------------------------------------------------------------------|
F|---------------------------------------------------------------------------|
C|---0--0000-0000-0000---------222222----11 11 11 11 11 11-------------------|
G|---0--0000-0000-0000-------------------------------------------------------|
C|---0--0000-0000-0000-------------------------------------------------------|

    pm...................................
D|---------------------------------------------------------------------------|
A|---------------------------------------------------------------------------|
F|------9-9-9-7779-9-9------------------1010109-9-9-101010-------------------|
C|-7----101010999101010--3-3-3-3--3-0---121212121212121212-------------------|
G|-7---------------------3-3-3-3--3-0----------------------------------------|
C|-7---------------------3-3-3-3--3-0----------------------------------------|

D|---------------------------------------------------------------------------|
A|---------------------------------------------------------------------------|
F|---------------------------------------------------------------------------|
C|---------------------------------------------------------------------------|
G|--222222--11 11 11 11-11-11------------------------------------------------|
C|---------------------------------------------------------------------------|



      pm.......      ......
D|---------------------------------------------------------------------------|
A|---------------------------------------------------------------------------|
F|---------------------------------------------------------------------------|
C|--0-000000000--023-333333----55-66-----------------------------------------|
G|--0-000000000--023-333333----55-66-----------------------------------------|
C|--0-000000000--023-333333----55-66-----------------------------------------|

Chourse

D|---------------------------------------------------------------------------|
A|---------------------------------------------------------------------------|
F|--------------------555555555555-------------------------------------------|
C|--777777777777------555555555555-----333333333333----222222222-------------|
G|--777777777777------333333333333-----333333333333----222222222-------------|
C|--777777777777-----------------------333333333333----222222222-------------|

D|---------------------------------------------------------------------------|
A|---------------------------------------------------------------------------|
F|--------------------555555555555-------------------------------------------|
C|--777777777777------555555555555-----333333333333----222222222-------------|
G|--777777777777------333333333333-----333333333333----222222222-------------|
C|--777777777777-----------------------333333333333----222222222-------------|



D|---------------------------------------------------------------------------|
A|---------------------------------------------------------------------------|
F|---------------------------------------------------------------------------|
C|---7-----------------7-----------------------------------------------------|
G|---7----0h3h7p3------7------0h3h7p3----------------------------------------|
C|---7-----------------7-----------------------------------------------------|
			    	

D|---------------------------------------------------------------------------|
A|---------------------------------------------------------------------------|
F|---------4-44--------------------------------------------------------------|
C|--3-3----6-66---4^-----------------0----------------0----------------------|
G|--3-3----3-33----------------------0----0h3h7p3-----0----0h3h7p3-----------|
C|--3-3----3-33------------12\-------0----------------0----------------------|

D|---------------------------------------------------------------------------|
A|---------------------------------------------------------------------------|
F|---------------------------------------------------------------------------|
C|---------------------------------------------------------------------------|
G|--222222-22-222------------------------------------------------------------|
C|---------------------------------------------------------------------------|


Verse2
   pm...............................................
D|---------------------------------------------------------------------------|
A|---------------------------------------------------------------------------|
F|---------------------------------------------------------------------------|
C|---7--7777-7777-7777------------3--3333-3333-3333--------------------------|
G|---7--7777-7777-7777------------3--3333-3333-3333--------------------------|
C|---7--7777-7777-7777------------3--3333-3333-3333--------------------------|

   pm.................
D|---------------------------------------------------------------------------|
A|---------------------------------------------------------------------------|
F|---------------------------------------------------------------------------|
C|---0--0000-0000-0000---------222222----11 11 11 11 11 11-------------------|
G|---0--0000-0000-0000-------------------------------------------------------|
C|---0--0000-0000-0000-------------------------------------------------------|

    pm...................................
D|---------------------------------------------------------------------------|
A|---------------------------------------------------------------------------|
F|---9-9-9-7779-9-9------------------------------------1010109-9-9-101010----|
C|-7-101010999101010--7-3-------------------------3-0--121212121212121212----|
G|-7------------------7-3-------------------------3-0------------------------|
C|-7------------------7-3-3-333-3-333-3-333-3-333-3-0------------------------|
                          d dud d dud d dud d dud

D|---------------------------------------------------------------------------|
A|---------------------------------------------------------------------------|
F|---------------------------------------------------------------------------|
C|---------------------------------------------------------------------------|
G|--222222--11 11 11 11-11-11------------------------------------------------|
C|---------------------------------------------------------------------------|
      pm........        .......
D|---------------------------------------------------------------------------|
A|---------------------------------------------------------------------------|
F|---------------------------------------------------------------------------|
C|----0-000000000--023--3333333-----2356-------------------------------------|
G|----0-000000000--023--3333333-----2356-------------------------------------|
C|----0-000000000--023--3333333-----2356-------------------------------------|

Chourse

D|---------------------------------------------------------------------------|
A|---------------------------------------------------------------------------|
F|--------------------555555555555-------------------------------------------|
C|--777777777777------555555555555-----333333333333----222222222-------------|
G|--777777777777------333333333333-----333333333333----222222222-------------|
C|--777777777777-----------------------333333333333----222222222-------------|

D|---------------------------------------------------------------------------|
A|---------------------------------------------------------------------------|
F|--------------------555555555555-------------------------------------------|
C|--777777777777------555555555555-----333333333333----222222222-------------|
G|--777777777777------333333333333-----333333333333----222222222-------------|
C|--777777777777-----------------------333333333333----222222222-------------|

D|---------------------------------------------------------------------------|
A|---------------------------------------------------------------------------|
F|------------------------------------------------------------5--------------|
C|---7~-----------------7~-------------7~------------------------6-----------|
G|-------000-000-0---------000-000-0-------000-000-0---3--7------------------|
C|---------------------------------------------------------------------------|
         dud dud d         dud dud d       dud dud d

                                                     pm.....
D|---------------------------------------------------------------------------|
A|---------------------------------------------------------------------------|
F|---------------------------------------------------------------------------|
C|---7~---------------7~-------------7~----------------7-7-7-----------------|
G|-------000-000-0--------000-000-0------000-000-0-----7-7-7-----------------|
C|-----------------------------------------------------7-7-7-----------------|
         dud dud d        dud dud d      dud dud d

4x times
D|---------------------------------------------------------------------------|
A|---------------------------------------------------------------------------|
F|------------------------------------------------------------5--------------|
C|---7~-----------------7~-------------7~------------------------6-----------|
G|-------000-000-0---------000-000-0-------000-000-0---3--7------------------|
C|---------------------------------------------------------------------------|
         dud dud d         dud dud d       dud dud d

D|---------------------------------------------------------------------------|
A|---------------------------------------------------------------------------|
F|---------5---------------5------------5------------------------------------|
C|------------6---------------6------------6---------------------------------|
G|---3--7-------------3--7---------3--7------------3h7p3h7p3h7p3h7p3h7p3h7---|
C|---------------------------------------------------------------------------|

D|---------------------------------------------------------------------------|
A|---------------------------------------------------------------------------|
F|---------------------------------------------------------------------------|
C|--44-444-------7\----------------------------------------------------------|
G|--22 222-------7\----------------------------------------------------------|
C|---------------7\----------------------------------------------------------|

I Feel the pressure....                              pm...
D|---------------------------------------------------------------------------|
A|---------------------------------------------------------------------------|
F|------------------------5--5-5-5-5-5-555-----------------------------------|
C|------------------------5--5-5-5-5-5-555-------3-----000----2~-------------|
G|------------------------3--3-3-3-3-3-333-------3-----000----2~-------------|
C|-----------------------------------------------3-----000----2~-\-----------|
                                                                 Pick scrape  

4x times
D|---------------------------------------------------------------------------|
A|---------------------------------------------------------------------------|
F|--------------------555555555555-------------------------------------------|
C|--777777777777------555555555555-----333333333333----222222222-------------|
G|--777777777777------333333333333-----333333333333----222222222-------------|
C|--777777777777-----------------------333333333333----222222222-------------|



D|---------------------------------------------------------------------------|
A|---------------------------------------------------------------------------|
F|------------------------------------------------------------5--------------|
C|---7~-----------------7~-------------7~------------------------6-----------|
G|-------000-000-0---------000-000-0-------000-000-0---3--7------------------|
C|---------------------------------------------------------------------------|
         dud dud d         dud dud d       dud dud d
D|---------------------------------------------------------------------------|
A|---------------------------------------------------------------------------|
F|------------------------------------------------------------5--------------|
C|---7~-----------------7~-------------7~------------------------6-----------|
G|-------000-000-0---------000-000-0-------000-000-0---3--7------------------|
C|---------------------------------------------------------------------------|
         dud dud d         dud dud d       dud dud d


pm                               pm........
D|---------------------------------------------------------------------------|
A|---------------------------------------------------------------------------|
F|---------5---------------5------------5------------------------------------|
C|------------6---------------6------------6---------------------------------|
G|---3--7-------------3--7---------3--7--------------------------------------|
C|---------------------------------------------------------------------------|




| d  down pick
| u  up pick
| .  Palm Mute
| /  slide up
| \  slide down
| h  hammer-on
| p  pull-off
| ~  vibrato
| +  harmonic
| x  Mute note
===============================================================================
comments
print report bad tab
3 comments total.
0 reply
punkboi1992 wrote on September 19 2008, 07:51 pm

Probably the best so far, but not all right

+4 reply
mcr6100 wrote on September 24 2008, 12:36 pm

i think the part where it goes
D|-------------------------------------------------------------------
A|-------------------------------------------------------------------
F|---------5---------------5------------5---------------------------
C|------------7---------------7------------7-------------------------
G|---3--7-------------3--7---------3--7----------------------------
C|----------------------------------------------------------------

the 7's on the C string should be 6's to me it sounds better that way

other than that its pretty good

0 reply
Optimus Dattum wrote on September 25 2008, 12:20 pm

i know, i tried to update the tab. The verse timing should be different and the c string should be 6. But UG didn't approve my update =/

I want to post or [tab]
guest
You may want to rate the tab now too:
select rating
Please do not post tabs as comments. Select "correction" instead!