Oops, an error
Loading. Please wait.

Theres No Sympathy For The Dead Bass Tab

ver1
ver1
More versions @911Tabs.com
10,299 views 9 this week
no commentswrite comment
1 2 3 4 5
worth learning
x 3
Autoscroll
+/-
esc
set tempo
stop
Contributor
Hey! There's an official Ultimate Guitar app which is ideal
for learning songs when you're away from computer. Get the app
WARNING: You are trying to view
                                    content from Ultimate-Guitar.com
                                    in an unauthorized application,
                                    which is prohibited.

                                    Please use an official Ultimate
                                    Guitar Tabs application for iPhone,
                                    iPad or Android to access legitimate
                                    chords, guitar, bass, and drum tabs
                                    from Ultimate-Guitar.com database.

                                    Type "ultimate guitar tabs" in Apple
                                    App Store's or Android Market's
                                    search to find the application.
F||------------|---------------------------|---------------------------|
C||------------|---------------------------|---------------------------|
G||------------|---------------------------|---------------------------|
C||--0-0-0-0-0-|--0--------------0-0-0-0-0-|--0--------------0-0-0-0-0-|


---------------------------------|-------------------------------|
---------------------------------|-------------------------3-2---|
------8--8-7---3---3-5-----------|------8--8-7---3---3-5-------3-|
--0--------------------0-0-0-0-0-|--0----------------------------|


-----------------------------|-----------------------------|
-----------------------------|-----------------------------|
-----------------------------|--1--1--1-1---3---3--3-3-3-3-|
--0--0--0-0---0---0--0-0-0-0-|-----------------------------|


-----------------------------|-----------------------------|
-----------------------------|-----------------------------|
-----------------------------|--1--1--1-1---3---3--3-3-3-3-|
--0--0--0-0---0---0--0-0-0-0-|-----------------------------|


-----------------------------|-----------------------------|
-----------------------------|-----------------------------|
-----------------------------|--1--1--1-1---3---3--3-3-3-3-|
--0--0--0-0---0---0--0-0-0-0-|-----------------------------|

  
-----------------------------|--------------------------------|
-----------------------------|--------------------------------|
-----------------------------|--1--1--1-1---------------------|
--0--0--0-0---0---0--0-0-0-0-|--------------0-0-0-0-5--0-0-3--|


--------------------------------|--------------------------------|
--------------------------------|--------------------------------|
--------------------------------|--------------------------------|
--0--0-0-0-0-0-0-0-0-0-0-0-0--3-|--L--3-3-3-3-3-3-3-3-3-3-3--3-8-|

 
--------------------------------|--------------------------------|
--------------------------------|--------------------------------|
--------------------------------|--------------------------------|
--L--8-8-8-8-8-8-8-8-8-8-8-8--5-|--L--5-5-5-5-5-7--L-7-7-7-7-7-0-|



--------------------------------|--------------------------------|
--------------------------------|--------------------------------|
--------------------------------|--------------------------------|
--L--0-0-0-0-0-0-0-0-0-0-0-0--3-|--L--3-3-3-3-3-3-3-3-3-3-3-3--8-|


--------------------------------|--------------------------------|
--------------------------------|--------------------------------|
--------------------------------|--------------------------------|
--L--8-8-8-8-8-8-8-8-8-8-8-8--5-|--L--5-5-5-5-5-7--L-7-7-7-7-7-8-|


  
-------------------|--------------------------|
-------------------|--------------------------|
-------------------|--------------------------|
--L----------------|--L------------8-10-10-10-|


---------------------------------------|---------------------------------------|
---------------------------------------|---------------------------------------|
---------------------------------------|---------------------------------------|
--0-0-0-0-0-0------0-0-0-0-0-0-0-0-0-0-|--0-0-0-0-0-0------0-0-0-0-0-0-0-0-0-0-|


-------------------|-----------------------|
-------------------|-----------------------|
--1----------------|--L------------1-3-3-3-|
-------------------|-----------------------|


---------------------------------------|---------------------------------------|
---------------------------------------|---------------------------------------|
---------------------------------------|---------------------------------------|
--0-0-0-0-0-0------0-0-0-0-0-0-0-0-0-0-|--0-0-0-0-0-0------0-0-0-0-0-0-0-0-0-0-|


----------------------------------|----------------------------------|
----------------------------------|----------------------------------|
--0-0-0-0-0-0-0-0-0-0-0-0-0-0-0-0-|--1-1-1-1-1-1-1-1-1-1-1-1-1-3-3-3-|
----------------------------------|----------------------------------|

  
----------------------------------|----------------------------------|
----------------------------------|------------------7-5-----5-------|
--0-0-0-0-0-0-0-0-0-0-0-0-0-0-0-0-|--1-1-1-1-1-1-1-1-----8-7---8-7-5-|
----------------------------------|----------------------------------|


----------------------------------|---------------------------------|
----------------------------------|---------------------------------|
--L-5-5-5-5-0---1---1-1-1-1-1-1-1-|----------------3--3-3-3-1-0---5-|
----------------------------------|--3---3-3-3-3-3------------------|


----------------------------------|---------------------------------|
----------------------------------|---------------------------------|
--L-5-5-5-5-0---1---1-1-1-1-1-1-1-|----------------3--3-3-3-1-0---5-|
----------------------------------|--3---3-3-3-3-3------------------|


----------------------------------|---------------------------------|
----------------------------------|---------------------------------|
--L-5-5-5-5-0---1---1-1-1-1-1-1-1-|----------------3--3-3-3-1-0---5-|
----------------------------------|--3---3-3-3-3-3------------------|

   
----------------------------------|--------------------------------|
----------------------------------|--------------------------------|
--L-5-5-5-5-0---1---1-1-1-1-1-1-1-|----------------3--3-3-3-1-0----|
----------------------------------|--3---3-3-3-3-3-----------------|





----------------------------------|----------------------------------|
----------------------------------|----------------------------------|
--1-1-1-1-1-1-1-1-1-1-1-1-1-1-1-1-|--3-3-3-3-3-3-3-3-3-3-3-3-3-3-3-3-|
----------------------------------|----------------------------------|


-----------------------------|-----------------------------|
-----------------------------|-----------------------------|
-----------------------------|--1--1--1-1---3---3--3-3-3-3-|
--0--0--0-0---0---0--0-0-0-0-|-----------------------------|

   
-----------------------------|--------------------------------|
-----------------------------|--------------------------------|
-----------------------------|--1--1--1-1---------------------|
--0--0--0-0---0---0--0-0-0-0-|--------------0-0-0-0-5--0-0-3--|


-------------------------------------------|----------------------------------|
-------------------------------------------|----------------------------------|
-----------------------------------0-------|------------------1-0-----0-------|
--0----------0-0-0-0-0-0-0-0-2-3-5---5-3-2-|--0-0-0-0-0-0-0-0-----5-3---5-3-2-|


--------------------------------------|----------------------------------|
--------------------------------------|----------------------------------|
--------------------------------------|----------------------------------|
--8-8-8-8-8-8-8-8-L-12-12-12-12-8-8-8-|--5-5-5-5-5-5-5-5-7-7-7-7-7-7-7-7-|

  
--------------------------------|--------------------------------|
--------------------------------|--------------------------------|
--------------------------------|--------------------------------|
--0--0-0-0-0-0-0-0-0-0-0-0-0--3-|--L--3-3-3-3-3-3-3-3-3-3-3--3-8-|

  
--------------------------------|--------------------------------|
--------------------------------|--------------------------------|
--------------------------------|--------------------------------|
--L--8-8-8-8-8-8-8-8-8-8-8-8--5-|--L--5-5-5-5-5-7--L-7-7-7-7-7-8-|


-------------------|--------------------------|
-------------------|--------------------------|
-------------------|--------------------------|
--L----------------|--L------------8-10-10-10-|


---------------------------------------|---------------------------------------|
---------------------------------------|---------------------------------------|
---------------------------------------|---------------------------------------|
--0-0-0-0-0-0------0-0-0-0-0-0-0-0-0-0-|--0-0-0-0-0-0------0-0-0-0-0-0-0-0-0-0-|


  
-------------------|-----------------------|
-------------------|-----------------------|
--1----------------|--L------------1-3-3-3-|
-------------------|-----------------------|





---------------------------------------|---------------------------------------|
---------------------------------------|---------------------------------------|
---------------------------------------|---------------------------------------|
--0-0-0-0-0-0------0-0-0-0-0-0-0-0-0-0-|--0-0-0-0-0-0------0-0-0-0-0-0-0-0-0-0-|


  
----------------------------------|----------------------------------|
----------------------------------|----------------------------------|
--0-0-0-0-0-0-0-0-0-0-0-0-0-0-0-0-|--1-1-1-1-1-1-1-1-1-1-1-1-1-3-3-3-|
----------------------------------|----------------------------------|


----------------------------------|----------------------|
----------------------------------|----------------------|
--0-0-0-0-0-0-0-0-0-0-0-0-0-0-0-0-|--1--------L------L-5-|
----------------------------------|----------------------|


----------------------------------|---------------------------------|
----------------------------------|---------------------------------|
--L-5-5-5-5-0---1---1-1-1-1-1-1-1-|----------------3--3-3-3-1-0---5-|
----------------------------------|--3---3-3-3-3-3------------------|


----------------------------------|---------------------------------|
----------------------------------|---------------------------------|
--L-5-5-5-5-0---1---1-1-1-1-1-1-1-|----------------3--3-3-3-1-0---5-|
----------------------------------|--3---3-3-3-3-3------------------|



----------------------------------|---------------------------------|
----------------------------------|---------------------------------|
--L-5-5-5-5-0---1---1-1-1-1-1-1-1-|----------------3--3-3-3-1-0---5-|
----------------------------------|--3---3-3-3-3-3------------------|


----------------------------------|--------------------------------|
----------------------------------|--------------------------------|
--L-5-5-5-5-0---1---1-1-1-1-1-1-1-|----------------3--3-3-3-1-0----|
----------------------------------|--3---3-3-3-3-3-----------------|

  
----------------------------------|----------------------------------|
----------------------------------|----------------------------------|
--1-1-1-1-1-1-1-1-1-1-1-1-1-1-1-1-|--3-3-3-3-3-3-3-3-3-3-3-3-3-3-3-3-|
----------------------------------|----------------------------------|

  
----------------------------------|---------------------------------|
----------------------------------|---------------------------------|
--L-5-5-5-5-0---1---1-1-1-1-1-1-1-|----------------3--3-3-3-1-0---5-|
----------------------------------|--3---3-3-3-3-3------------------|


----------------------------------|---------------------------------|
----------------------------------|---------------------------------|
--L-5-5-5-5-0---1---1-1-1-1-1-1-1-|----------------3--3-3-3-1-0---5-|
----------------------------------|--3---3-3-3-3-3------------------|




----------------------------------|---------------------------------|
----------------------------------|---------------------------------|
--L-5-5-5-5-0---1---1-1-1-1-1-1-1-|----------------3--3-3-3-1-0---5-|
----------------------------------|--3---3-3-3-3-3------------------|


----------------------------------|---------------------------------|
----------------------------------|---------------------------------|
--L-5-5-5-5-0---1---1-1-1-1-1-1-1-|----------------3--3-3-3-1-0---5-|
----------------------------------|--3---3-3-3-3-3------------------|


----------------------------------|---------------------------------|
----------------------------------|---------------------------------|
--L-5-5-5-5-5---3---3-3-3-3-3-3-1-|--L-1-1-1-1-1---3--3-3-3-3-3-3-5-|
----------------------------------|---------------------------------|

  
----------------------------------|----------------------------------|
----------------------------------|----------------------------------|
--L-5-5-5-5-5-5-5-3-3-3-3-3-3-3-3-|--1-1-1-1-1-1-1-1-1-1-1-1-1-1-1-1-|
----------------------------------|----------------------------------|


----------------------------------|--7-7-7-7-7-7-7-7-7-7-7-7-7-7-7-7-|
----------------------------------|----------------------------------|
--3-3-3-3-3-3-3-3-3-3-3-3-3-3-3-3-|----------------------------------|
----------------------------------|----------------------------------|


--5-5-5-5-5-5-5-5-5-5-5-5-5-5-5-5-|--9-9-9-9-9-9-9-9-9-9-9-9-9-9-9-9-|
----------------------------------|----------------------------------|
----------------------------------|----------------------------------|
----------------------------------|----------------------------------|



--10-10-10-10-10-10-10-10-10-10-10-10-10-10-10-10-|
--------------------------------------------------|
--------------------------------------------------|
--------------------------------------------------|


--------------------------------------------------|
--------------------------------------------------|
--------------------------------------------------|
--12-12-12-12-12-12-12-12-12-12-12-12-12-12-12-12-|


--------------------------------------------------|
--------------------------------------------------|
--------------------------------------------------|
--10-10-10-10-10-10-10-10-10-10-10-10-10-10-10-10-|

  
----------------------------------|------------------------------------------|
----------------------------------|------------------------------------------|
----------------------------------|------------------------------------------|
--3-3-3-3-3-3-3-3-3-3-3-3-3-3-3-3-|--8-8-8-8-8-8-8-8-10-10-10-10-10-10-10-10-|




--------------------------------------------------|
--------------------------------------------------|
--------------------------------------------------|
--12-12-12-12-12-12-12-12-12-12-12-12-12-12-12-12-|


--------------------------------------------------|
--------------------------------------------------|
--------------------------------------------------|
--10-10-10-10-10-10-10-10-10-10-10-10-10-10-10-10-|

  
----------------------------------|------------------------------------------|
----------------------------------|------------------------------------------|
----------------------------------|------------------------------------------|
--3-3-3-3-3-3-3-3-3-3-3-3-3-3-3-3-|--8-8-8-8-8-8-8-8-10-10-10-10-0-0-0-0-0-0-|

  
----------------------------------|----------------------------------|
----------------------------------|----------------------------------|
--8-8-8-8-8-8-8-8-8-8-8-8-8-8-8-8-|--7-7-7-7-7-7-7-7-7-7-7-7-7-7-7-7-|
----------------------------------|----------------------------------|


----------------------------------|--------------------------------------|
----------------------------------|--------------------------------------|
----------------------------------|--5-5-5-5-5-5-5-5-7-7-7-7-------------|
--7-7-7-7-7-7-7-7-7-7-7-7-7-7-7-7-|--------------------------0-0-0-0-0-0-|


----------------------------------|----------------------------------|
----------------------------------|----------------------------------|
--8-8-8-8-8-8-8-8-8-8-8-8-8-8-8-8-|--7-7-7-7-7-7-7-7-7-7-7-7-7-7-7-7-|
----------------------------------|----------------------------------|


----------------------------------|--------------------------------------|
----------------------------------|--------------------------------------|
----------------------------------|--5-5-5-5-5-5-5-5-7-7-7-7-------------|
--7-7-7-7-7-7-7-7-7-7-7-7-7-7-7-7-|--------------------------0-0-0-0-0-0-|


----------------------------------|----------------------------------|
----------------------------------|----------------------------------|
--8-8-8-8-8-8-8-8-8-8-8-8-8-8-8-8-|--7-7-7-7-7-7-7-7-7-7-7-7-7-7-7-7-|
----------------------------------|----------------------------------|


----------------------------------|--------------------------------------|
----------------------------------|--------------------------------------|
----------------------------------|--5-5-5-5-5-5-5-5-7-7-7-7-------------|
--7-7-7-7-7-7-7-7-7-7-7-7-7-7-7-7-|--------------------------0-0-0-0-0-0-|


----------------------------------|----------------------------------|
----------------------------------|----------------------------------|
--8-8-8-8-8-8-8-8-8-8-8-8-8-8-8-8-|--7-7-7-7-7-7-7-7-7-7-7-7-7-7-7-7-|
----------------------------------|----------------------------------|

----------------------------------|--------------------------------------|
----------------------------------|--------------------------------------|
----------------------------------|--5-5-5-5-5-5-5-5-7-7-7-7-------------|
--7-7-7-7-7-7-7-7-7-7-7-7-7-7-7-7-|--------------------------0-0-0-0-0-0-|


----------------------------------|----------------------------------|
----------------------------------|----------------------------------|
--8-8-8-8-8-8-8-8-8-8-8-8-8-8-8-8-|--7-7-7-7-7-7-7-7-7-7-7-7-7-7-7-7-|
----------------------------------|----------------------------------|


----------------------------------|--------------------------------------|
----------------------------------|--------------------------------------|
----------------------------------|--5-5-5-5-5-5-5-5-7-7-7-7-------------|
--7-7-7-7-7-7-7-7-7-7-7-7-7-7-7-7-|--------------------------0-0-0-0-0-0-|

                 
-------------------|-------------------|-------------------|
-------------------|-------------------|-------------------|
-------------------|-------------------|-------------------|
--0----------------|--L----------------|--L----------------|


  W                  
-------------------||
-------------------||
-------------------||
--L----------------||




Tablature Legend
----------------
L - tied note
x - dead note
g - grace note
(n) - ghost note
> - accentuded note
NH - natural harmonic
AH - artificial harmonic
TH - tapped harmonic
SH - semi harmonic
PH - pitch harmonic
h - hammer on
p - pull off
b - bend
br - bendRelease
pb - preBend
pbr - preBendRelease
brb - bendReleaseBend
\n/ - tremolo bar dip
\n - tremolo bar dive
-/n - tremolo bar Release up
/n\ - tremolo bar inverted dip
/n - tremolo bar return
-\n - tremolo bar Release down
S - shift slide
s - legato slide
/ -  slide into from below or out of upwards
\ -  slide into from above or out of downwards
~ - vibrato
W - wide vibrato
tr - trill
TP - tremolo picking
T - tapping
S - slap
P - pop
< - fade in
^ - brush up
v - brush down
comments
We did not receive enough feedback on this tab! Please rate:
print report bad tab
1 2 3 4 5
I want to post or [tab]
guest
You may want to rate the tab now too:
select rating
Please do not post tabs as comments. Select "correction" instead!