Oops, an error
Loading. Please wait.

Theres No Sympathy For The Dead Tab

ver1
ver1

Intro

Solo

Whole song

More versions @911Tabs.com
47,733 views 51 this week
12 commentsread comments
1 2 3 4 5
accurate
x 8
Autoscroll
+/-
esc
set tempo
stop
Contributor
WARNING: You are trying to view
                                    content from Ultimate-Guitar.com
                                    in an unauthorized application,
                                    which is prohibited.

                                    Please use an official Ultimate
                                    Guitar Tabs application for iPhone,
                                    iPad or Android to access legitimate
                                    chords, guitar, bass, and drum tabs
                                    from Ultimate-Guitar.com database.

                                    Type "ultimate guitar tabs" in Apple
                                    App Store's or Android Market's
                                    search to find the application.
There's No Sympathy For The Dead                         
Escape The Fate
Track 1



     PM PM PM PM PM                         PM PM PM PM PM  
     T  T  S  S  S     E.  E  S S S S S S S T  T  S  S  S   
D||-----------------|--------------------------------------|
A||-----------------|--------------------------------------|
F||-----------------|--------------------------------------|
C||-----------------|--0---3--3-2--------------------------|
G||--0--0--0--0--0--|--0------------3---3-5-0--0--0--0--0--|
C||--0--0--0--0--0--|--0--------------------0--0--0--0--0--|


                       PM PM PM PM PM                         PM PM PM PM PM  
  E.  E  S S S S S S S T  T  S  S  S     E.  E  S S S S S S S T  T  S  S  S   
--------------------------------------|--------------------------------------|
--------------------------------------|--------------------------------------|
--------------------------------------|--------------------------------------|
--0---3--3-2--------------------------|--0---3--3-2--------------------------|
--0------------3---3-5-0--0--0--0--0--|--0------------3---3-5-0--0--0--0--0--|
--0--------------------0--0--0--0--0--|--0--------------------0--0--0--0--0--|


                                        PM                     
  E.  E  S S S S S S S S S S S    E  E  S  S S E.  E  S S S S  
-------------------------------|------------------------------|
-------------------------------|------------------------------|
-------------------------------|------------------------------|
--0---3--3-2-------------3-2---|--0--0-----0---0---0--0-0-0-0-|
--0------------3---3-5-------3-|--0--0--0--0---0---0--0-0-0-0-|
--0----------------------------|--0--0--0--0---0---0--0-0-0-0-|


        PM                             PM                     
  E  E  S  S S E.  E  S S S S    E  E  S  S S E.  E  S S S S  
------------------------------|------------------------------|
------------------------------|------------------------------|
--3--3-----3---5---5--5-5-5-5-|------------------------------|
--3--3--3--3---5---5--5-5-5-5-|--0--0-----0---0---0--0-0-0-0-|
--1--1--1--1---3---3--3-3-3-3-|--0--0--0--0---0---0--0-0-0-0-|
------------------------------|--0--0--0--0---0---0--0-0-0-0-|


        PM                             PM                     
  E  E  S  S S E.  E  S S S S    E  E  S  S S E.  E  S S S S  
------------------------------|------------------------------|
------------------------------|------------------------------|
--3--3-----3---5---5--5-5-5-5-|------------------------------|
--3--3--3--3---5---5--5-5-5-5-|--0--0-----0---0---0--0-0-0-0-|
--1--1--1--1---3---3--3-3-3-3-|--0--0--0--0---0---0--0-0-0-0-|
------------------------------|--0--0--0--0---0---0--0-0-0-0-|


        PM                             PM                     
  E  E  S  S S E.  E  S S S S    E  E  S  S S E.  E  S S S S  
------------------------------|------------------------------|
------------------------------|------------------------------|
--3--3-----3---5---5--5-5-5-5-|------------------------------|
--3--3--3--3---5---5--5-5-5-5-|--0--0-----0---0---0--0-0-0-0-|
--1--1--1--1---3---3--3-3-3-3-|--0--0--0--0---0---0--0-0-0-0-|
------------------------------|--0--0--0--0---0---0--0-0-0-0-|


        PM     PM PM PM PM    PM PM     
  E  E  S  S S T  T  S  S  E  S  S  E   
---------------------------------------|
---------------------------------------|
--3--3-----3---------------------------|
--3--3--3--3---------------5--------3--|
--1--1--1--1---0--0--0--0--5--0--0--3--|
---------------0--0--0--0--5--0--0--3--|


     PM PM PM PM PM PM PM PM PM PM PM        
  E  S  S  S  S  S  S  S  S  S  S  S  S S S  
--------------------------------------------|
--------------------------------------------|
--------------------------------------------|
--0-----------------------------------0---3-|
--0--0--0--0--0--0--0--0--0--0--0--0--0---3-|
--0--0--0--0--0--0--0--0--0--0--0--0--0---3-|


     PM PM PM PM PM PM PM PM PM PM PM        
  E  S  S  S  S  S  S  S  S  S  S  S  S S S  
--------------------------------------------|
--------------------------------------------|
--------------------------------------------|
--L-----------------------------------3---8-|
--L--3--3--3--3--3--3--3--3--3--3--3--3---8-|
--L--3--3--3--3--3--3--3--3--3--3--3--3---8-|


     PM PM PM PM PM PM PM PM PM PM PM        
  E  S  S  S  S  S  S  S  S  S  S  S  S S S  
--------------------------------------------|
--------------------------------------------|
--------------------------------------------|
--L-----------------------------------8---5-|
--L--8--8--8--8--8--8--8--8--8--8--8--8---5-|
--L--8--8--8--8--8--8--8--8--8--8--8--8---5-|


     PM PM PM PM PM      PM PM PM PM PM    
  E  S  S  S  S  S  E  S S  S  S  S  S  S  
------------------------------------------|
------------------------------------------|
------------------------------------------|
--L-----------------7--L----------------0-|
--L--5--5--5--5--5--7--L-7--7--7--7--7--0-|
--L--5--5--5--5--5--7--L-7--7--7--7--7--0-|


     PM PM PM PM PM PM PM PM PM PM PM        
  E  S  S  S  S  S  S  S  S  S  S  S  S S S  
--------------------------------------------|
--------------------------------------------|
--------------------------------------------|
--L-----------------------------------0---3-|
--L--0--0--0--0--0--0--0--0--0--0--0--0---3-|
--L--0--0--0--0--0--0--0--0--0--0--0--0---3-|


     PM PM PM PM PM PM PM PM PM PM PM        
  E  S  S  S  S  S  S  S  S  S  S  S  S S S  
--------------------------------------------|
--------------------------------------------|
--------------------------------------------|
--L-----------------------------------3---8-|
--L--3--3--3--3--3--3--3--3--3--3--3--3---8-|
--L--3--3--3--3--3--3--3--3--3--3--3--3---8-|


     PM PM PM PM PM PM PM PM PM PM PM        
  E  S  S  S  S  S  S  S  S  S  S  S  S S S  
--------------------------------------------|
--------------------------------------------|
--------------------------------------------|
--L-----------------------------------8---5-|
--L--8--8--8--8--8--8--8--8--8--8--8--8---5-|
--L--8--8--8--8--8--8--8--8--8--8--8--8---5-|


     PM PM PM PM PM      PM PM PM PM PM                        
  E  S  S  S  S  S  E  S S  S  S  S  S  S    W                 
------------------------------------------|-------------------|
------------------------------------------|-------------------|
------------------------------------------|-------------------|
--L-----------------7--L----------------8-|--L----------------|
--L--5--5--5--5--5--7--L-7--7--7--7--7--8-|--L----------------|
--L--5--5--5--5--5--7--L-7--7--7--7--7--8-|--L----------------|


  H.           S  S  S  S  
--------------------------|
--------------------------|
--------------------------|
--L------------8-10-10-10-|
--L------------8-10-10-10-|
--L------------8-10-10-10-|


  PM PM PM PM PM PM      PM PM PM PM PM PM PM PM PM PM  
  T  T  S  S  S  S  Q    T  T  S  S  T  T  S  T  T  S   
-------------------------------------------------------|
-------------------------------------------------------|
-------------------------------------------------------|
-------------------------------------------------------|
--0--0--0--0--0--0-------0--0--0--0--0--0--0--0--0--0--|
--0--0--0--0--0--0-------0--0--0--0--0--0--0--0--0--0--|


  PM PM PM PM PM PM      PM PM PM PM PM PM PM PM PM PM                      
  T  T  S  S  S  S  Q    T  T  S  S  T  T  S  T  T  S     W                 
-------------------------------------------------------|-------------------|
-------------------------------------------------------|-------------------|
-------------------------------------------------------|--3----------------|
-------------------------------------------------------|--3----------------|
--0--0--0--0--0--0-------0--0--0--0--0--0--0--0--0--0--|--1----------------|
--0--0--0--0--0--0-------0--0--0--0--0--0--0--0--0--0--|-------------------|


                          PM PM PM PM PM PM      PM PM PM PM PM PM PM PM PM PM  
  H.           S S S S    T  T  S  S  S  S  Q    T  T  S  S  T  T  S  T  T  S   
-----------------------|-------------------------------------------------------|
-----------------------|-------------------------------------------------------|
--L------------3-5-5-5-|-------------------------------------------------------|
--L------------3-5-5-5-|-------------------------------------------------------|
--L------------1-3-3-3-|--0--0--0--0--0--0-------0--0--0--0--0--0--0--0--0--0--|
-----------------------|--0--0--0--0--0--0-------0--0--0--0--0--0--0--0--0--0--|


  PM PM PM PM PM PM      PM PM PM PM PM PM PM PM PM PM  
  T  T  S  S  S  S  Q    T  T  S  S  T  T  S  T  T  S   
-------------------------------------------------------|
-------------------------------------------------------|
-------------------------------------------------------|
-------------------------------------------------------|
--0--0--0--0--0--0-------0--0--0--0--0--0--0--0--0--0--|
--0--0--0--0--0--0-------0--0--0--0--0--0--0--0--0--0--|


  S S S S S S S S S S S S S S S S    S S S S S S S S S S S S S S S S  
----------------------------------|----------------------------------|
----------------------------------|----------------------------------|
--2-2-2-2-2-2-2-2-2-2-2-2-2-2-2-2-|--3-3-3-3-3-3-3-3-3-3-3-3-3-5-5-5-|
--2-2-2-2-2-2-2-2-2-2-2-2-2-2-2-2-|--3-3-3-3-3-3-3-3-3-3-3-3-3-5-5-5-|
--0-0-0-0-0-0-0-0-0-0-0-0-0-0-0-0-|--1-1-1-1-1-1-1-1-1-1-1-1-1-3-3-3-|
----------------------------------|----------------------------------|


  S S S S S S S S S S S S S S S S    S S S S S S S S S S S S S S S   S  
----------------------------------|------------------------------------|
----------------------------------|------------------------------------|
--2-2-2-2-2-2-2-2-2-2-2-2-2-2-2-2-|--3-3-3-3-3-3-3-3----------------17-|
--2-2-2-2-2-2-2-2-2-2-2-2-2-2-2-2-|--3-3-3-3-3-3-3-3-7-5-----5-------x-|
--0-0-0-0-0-0-0-0-0-0-0-0-0-0-0-0-|--1-1-1-1-1-1-1-1-----8-7---8-7~-15-|
----------------------------------|------------------------------------|


  S  S  S  S  S  S S  E   S  S  S  S  S  S  S  
----------------------------------------------|
----------------------------------------------|
--L-17-17-17--x-14---15--15-15-15-15-15-15-15-|
-----x--x--x--x--x----x---x--x--x--x--x--x--x-|
--L-15-15-15--x-12---13--13-13-13-13-13-13-13-|
----------------------------------------------|


   S  S  S  S  S  S S S S S S S S S S  S  
-----------------------------------------|
-----------------------------------------|
--10-10-10-10-10-12---9-L-9-9-9-9-9-9-17-|
---x--x--x--x--x--x---x---x-x-x-x-x-x--x-|
---8--8--8--8--8-10---7-L-7-7-7-7-7-7-15-|
-----------------------------------------|


   E   S  S  S  S S  E   S  S  S  S  S  S  S  
---------------------------------------------|
---------------------------------------------|
---L--17-17--x-14---15--15-15-15-15-15-15-15-|
-------x--x--x--x----x---x--x--x--x--x--x--x-|
---L--15-15--x-12---13--13-13-13-13-13-13-13-|
---------------------------------------------|


   E   S  S  S  S S  S S  S  S  S  S  S  S  S  
----------------------------------------------|
----------------------------------------------|
--14--14-14-14-15---12-L-12-12-12-12-12-12-17-|
---x---x--x--x--x----x----x--x--x--x--x--x--x-|
--12--12-12-12-13---10-L-10-10-10-10-10-10-15-|
----------------------------------------------|


   E   S  S  S  S S  E   S  S  S  S  S  S  S  
---------------------------------------------|
---------------------------------------------|
---L--17-17--x-14---15--15-15-15-15-15-15-15-|
-------x--x--x--x----x---x--x--x--x--x--x--x-|
---L--15-15--x-12---13--13-13-13-13-13-13-13-|
---------------------------------------------|


   S  S  S  S  S  S S S S S S S S S S  S  
-----------------------------------------|
-----------------------------------------|
--10-10-10-10-10-12---9-L-9-9-9-9-9-9-17-|
---x--x--x--x--x--x---x---x-x-x-x-x-x--x-|
---8--8--8--8--8-10---7-L-7-7-7-7-7-7-15-|
-----------------------------------------|


   E   S  S  S  S S  E   S  S  S  S  S  S  S  
---------------------------------------------|
---------------------------------------------|
---L--17-17--x-14---15--15-15-15-15-15-15-15-|
-------x--x--x--x----x---x--x--x--x--x--x--x-|
---L--15-15--x-12---13--13-13-13-13-13-13-13-|
---------------------------------------------|


   E   S  S  S  S S  S S  S  S  S  S  S  S  S  
----------------------------------------------|
----------------------------------------------|
--14--14-14-14-15---12-L-12-12-12-12-12-12-12-|
---x---x--x--x--x----x----x--x--x--x--x--x--x-|
--12--12-12-12-13---10-L-10-10-10-10-10-10-10-|
----------------------------------------------|


   S  S S S  S  S S S  S  S S S  S  S S S  
------------------------------------------|
------------------------------------------|
--10-10-9-9-10-10-9-9-10-10-9-9-10-10-9-9-|
---x--x-x-x--x--x-x-x--x--x-x-x--x--x-x-x-|
---8--8-7-7--8--8-7-7--8--8-7-7--8--8-7-7-|
------------------------------------------|


   S  S  S  S  S  S  S  S  S  S  S  S  S  S  S  S  
--------------------------------------------------|
--------------------------------------------------|
--12-12-10-10-12-12-10-10-12-12-10-10-12-12-10-10-|
---x--x--x--x--x--x--x--x--x--x--x--x--x--x--x--x-|
--10-10--8--8-10-10--8--8-10-10--8--8-10-10--8--8-|
--------------------------------------------------|


        PM                             PM                     
  E  E  S  S S E.  E  S S S S    E  E  S  S S E.  E  S S S S  
------------------------------|------------------------------|
------------------------------|------------------------------|
------------------------------|--3--3-----3---5---5--5-5-5-5-|
--0--0-----0---0---0--0-0-0-0-|--3--3--3--3---5---5--5-5-5-5-|
--0--0--0--0---0---0--0-0-0-0-|--1--1--1--1---3---3--3-3-3-3-|
--0--0--0--0---0---0--0-0-0-0-|------------------------------|


        PM                             PM     PM PM PM PM    PM PM     
  E  E  S  S S E.  E  S S S S    E  E  S  S S T  T  S  S  E  S  S  E   
------------------------------|---------------------------------------|
------------------------------|---------------------------------------|
------------------------------|--3--3-----3---------------------------|
--0--0-----0---0---0--0-0-0-0-|--3--3--3--3---------------5--------3--|
--0--0--0--0---0---0--0-0-0-0-|--1--1--1--1---0--0--0--0--5--0--0--3--|
--0--0--0--0---0---0--0-0-0-0-|---------------0--0--0--0--5--0--0--3--|


  W                   W                   W                   W                 
-------------------|-------------------|-------------------|-------------------|
-------------------|-------------------|-------------------|-------------------|
-------------------|-------------------|-------------------|-------------------|
-------------------|-------------------|-------------------|-------------------|
-------------------|-------------------|-------------------|-------------------|
-------------------|-------------------|-------------------|-------------------|


     PM PM PM PM PM PM PM PM PM PM PM        
  E  S  S  S  S  S  S  S  S  S  S  S  S S S  
--------------------------------------------|
--------------------------------------------|
--------------------------------------------|
--0-----------------------------------0---3-|
--0--0--0--0--0--0--0--0--0--0--0--0--0---3-|
--0--0--0--0--0--0--0--0--0--0--0--0--0---3-|


     PM PM PM PM PM PM PM PM PM PM PM        
  E  S  S  S  S  S  S  S  S  S  S  S  S S S  
--------------------------------------------|
--------------------------------------------|
--------------------------------------------|
--L-----------------------------------3---8-|
--L--3--3--3--3--3--3--3--3--3--3--3--3---8-|
--L--3--3--3--3--3--3--3--3--3--3--3--3---8-|


     PM PM PM PM PM PM PM PM PM PM PM        
  E  S  S  S  S  S  S  S  S  S  S  S  S S S  
--------------------------------------------|
--------------------------------------------|
--------------------------------------------|
--L-----------------------------------8---5-|
--L--8--8--8--8--8--8--8--8--8--8--8--8---5-|
--L--8--8--8--8--8--8--8--8--8--8--8--8---5-|


     PM PM PM PM PM      PM PM PM PM PM                        
  E  S  S  S  S  S  E  S S  S  S  S  S  S    W                 
------------------------------------------|-------------------|
------------------------------------------|-------------------|
------------------------------------------|-------------------|
--L-----------------7--L----------------8-|--L----------------|
--L--5--5--5--5--5--7--L-7--7--7--7--7--8-|--L----------------|
--L--5--5--5--5--5--7--L-7--7--7--7--7--8-|--L----------------|


  H.           S  S  S  S  
--------------------------|
--------------------------|
--------------------------|
--L------------8-10-10-10-|
--L------------8-10-10-10-|
--L------------8-10-10-10-|


  PM PM PM PM PM PM      PM PM PM PM PM PM PM PM PM PM  
  T  T  S  S  S  S  Q    T  T  S  S  T  T  S  T  T  S   
-------------------------------------------------------|
-------------------------------------------------------|
-------------------------------------------------------|
-------------------------------------------------------|
--0--0--0--0--0--0-------0--0--0--0--0--0--0--0--0--0--|
--0--0--0--0--0--0-------0--0--0--0--0--0--0--0--0--0--|


  PM PM PM PM PM PM      PM PM PM PM PM PM PM PM PM PM                      
  T  T  S  S  S  S  Q    T  T  S  S  T  T  S  T  T  S     W                 
-------------------------------------------------------|-------------------|
-------------------------------------------------------|-------------------|
-------------------------------------------------------|--3----------------|
-------------------------------------------------------|--3----------------|
--0--0--0--0--0--0-------0--0--0--0--0--0--0--0--0--0--|--1----------------|
--0--0--0--0--0--0-------0--0--0--0--0--0--0--0--0--0--|-------------------|


                          PM PM PM PM PM PM      PM PM PM PM PM PM PM PM PM PM  
  H.           S S S S    T  T  S  S  S  S  Q    T  T  S  S  T  T  S  T  T  S   
-----------------------|-------------------------------------------------------|
-----------------------|-------------------------------------------------------|
--L------------3-5-5-5-|-------------------------------------------------------|
--L------------3-5-5-5-|-------------------------------------------------------|
--L------------1-3-3-3-|--0--0--0--0--0--0-------0--0--0--0--0--0--0--0--0--0--|
-----------------------|--0--0--0--0--0--0-------0--0--0--0--0--0--0--0--0--0--|


  PM PM PM PM PM PM      PM PM PM PM PM PM PM PM PM PM  
  T  T  S  S  S  S  Q    T  T  S  S  T  T  S  T  T  S   
-------------------------------------------------------|
-------------------------------------------------------|
-------------------------------------------------------|
-------------------------------------------------------|
--0--0--0--0--0--0-------0--0--0--0--0--0--0--0--0--0--|
--0--0--0--0--0--0-------0--0--0--0--0--0--0--0--0--0--|


  S S S S S S S S S S S S S S S S    S S S S S S S S S S S S S S S S  
----------------------------------|----------------------------------|
----------------------------------|----------------------------------|
--2-2-2-2-2-2-2-2-2-2-2-2-2-2-2-2-|--3-3-3-3-3-3-3-3-3-3-3-3-3-5-5-5-|
--2-2-2-2-2-2-2-2-2-2-2-2-2-2-2-2-|--3-3-3-3-3-3-3-3-3-3-3-3-3-5-5-5-|
--0-0-0-0-0-0-0-0-0-0-0-0-0-0-0-0-|--1-1-1-1-1-1-1-1-1-1-1-1-1-3-3-3-|
----------------------------------|----------------------------------|


  S S S S S S S S S S S S S S S S    S S S S S S S S Q    E.   S  
----------------------------------|------------------------------|
----------------------------------|------------------------------|
--2-2-2-2-2-2-2-2-2-2-2-2-2-2-2-2-|--3------------------------17-|
--2-2-2-2-2-2-2-2-2-2-2-2-2-2-2-2-|--3-------------------------x-|
--0-0-0-0-0-0-0-0-0-0-0-0-0-0-0-0-|--1------------------------15-|
----------------------------------|------------------------------|


  S  S  S  S  S  S S  E   S  S  S  S  S  S  S  
----------------------------------------------|
----------------------------------------------|
--L-17-17-17--x-14---15--15-15-15-15-15-15-15-|
-----x--x--x--x--x----x---x--x--x--x--x--x--x-|
--L-15-15-15--x-12---13--13-13-13-13-13-13-13-|
----------------------------------------------|


   S  S  S  S  S  S S S S S S S S S S  S  
-----------------------------------------|
-----------------------------------------|
--10-10-10-10-10-12---9-L-9-9-9-9-9-9-17-|
---x--x--x--x--x--x---x---x-x-x-x-x-x--x-|
---8--8--8--8--8-10---7-L-7-7-7-7-7-7-15-|
-----------------------------------------|


   E   S  S  S  S S  E   S  S  S  S  S  S  S  
---------------------------------------------|
---------------------------------------------|
---L--17-17--x-14---15--15-15-15-15-15-15-15-|
-------x--x--x--x----x---x--x--x--x--x--x--x-|
---L--15-15--x-12---13--13-13-13-13-13-13-13-|
---------------------------------------------|


   E   S  S  S  S S  S S  S  S  S  S  S  S  S  
----------------------------------------------|
----------------------------------------------|
--14--14-14-14-15---12-L-12-12-12-12-12-12-17-|
---x---x--x--x--x----x----x--x--x--x--x--x--x-|
--12--12-12-12-13---10-L-10-10-10-10-10-10-15-|
----------------------------------------------|


   E   S  S  S  S S  E   S  S  S  S  S  S  S  
---------------------------------------------|
---------------------------------------------|
---L--17-17--x-14---15--15-15-15-15-15-15-15-|
-------x--x--x--x----x---x--x--x--x--x--x--x-|
---L--15-15--x-12---13--13-13-13-13-13-13-13-|
---------------------------------------------|


   S  S  S  S  S  S S S S S S S S S S  S  
-----------------------------------------|
-----------------------------------------|
--10-10-10-10-10-12---9-L-9-9-9-9-9-9-17-|
---x--x--x--x--x--x---x---x-x-x-x-x-x--x-|
---8--8--8--8--8-10---7-L-7-7-7-7-7-7-15-|
-----------------------------------------|


   E   S  S  S  S S  E   S  S  S  S  S  S  S  
---------------------------------------------|
---------------------------------------------|
---L--17-17--x-14---15--15-15-15-15-15-15-15-|
-------x--x--x--x----x---x--x--x--x--x--x--x-|
---L--15-15--x-12---13--13-13-13-13-13-13-13-|
---------------------------------------------|


   E   S  S  S  S S  S S  S  S  S  S  S  S  S  
----------------------------------------------|
----------------------------------------------|
--14--14-14-14-15---12-L-12-12-12-12-12-12-12-|
---x---x--x--x--x----x----x--x--x--x--x--x--x-|
--12--12-12-12-13---10-L-10-10-10-10-10-10-10-|
----------------------------------------------|


   S  S  S  S  S  S  S  S  S  S  S  S  S  S  S  S  
--------------------------------------------------|
--------------------------------------------------|
--10-10-10-10-12-12-12-12-14-14-14-14-15-15-15-15-|
---x--x--x--x--x--x--x--x--x--x--x--x--x--x--x--x-|
---8--8--8--8-10-10-10-10-12-12-12-12-13-13-13-13-|
--------------------------------------------------|


   S  S  S  S  S  S  S  S  S  S  S  S  E  E   
---------------------------------------------|
---------------------------------------------|
--17-17-17-17-19-19-19-19-22-22-22-22-21-----|
---x--x--x--x--x--x--x--x--x--x--x--x--x-----|
--15-15-15-15-17-17-17-17-20-20-20-20-19-----|
---------------------------------------------|


   E    E   S S S E  S  S S T   T  T  S  S.  
--------------------------------------------|
--10---10--------------10---8h-10p-8--------|
--12b---L--10-9----------------------10p-9--|
------------------8--8----8-----------------|
--------------------------------------------|
--------------------------------------------|


   S   S  E   T   T  T  S   E.    T   T   T   T  T   T   T  T  S  S. 
---------------------------------12h-13p-12p-10---------------------|
------------------------------------------------13p-12p-10----------|
---------10~--9h-10p-9-------------------------------------12-10-12-|
--10h-12---------------12p-10~--------------------------------------|
--------------------------------------------------------------------|
--------------------------------------------------------------------|


   E   S  S  T   T   T  S  E   S  S  S  T   T   T  S   S  S  
------------15h-17p-15-----------20----17h-18p-17-----------|
--10--10-10------------17-18--18----18------------20p-18-18-|
------------------------------------------------------------|
------------------------------------------------------------|
------------------------------------------------------------|
------------------------------------------------------------|


   S  T   T   S  T   T   S  T  T  S  Q      Q      T   T   
---------------------------17-18-20-20b----20~----17h-18h-|
---L-18h-19p-18-18h-20p-18--------------------------------|
----------------------------------------------------------|
----------------------------------------------------------|
----------------------------------------------------------|
----------------------------------------------------------|


   T  T   T   T  T   T   T  T   T  T   T   T   T  T   T   T  T  T   T  T   T  T 
--17---------------------------------------------22p-20p-18----20p-18--------18-
-----20p-18p-17------------17h-18-18h-20p-18p-17------------22--------22p-20----
----------------17s-15s-17------------------------------------------------------
--------------------------------------------------------------------------------
--------------------------------------------------------------------------------
--------------------------------------------------------------------------------


   T  T  T  T  S  S  S  Q.       Q     S     H          H          
-----------------------------------------|------------------------|
--18-17----------------15-------15-----L-|--15---------17---------|
--------19-17-15-17-15-17b------17~----L-|--17b--------19b--------|
-----------------------------------------|------------------------|
-----------------------------------------|------------------------|
-----------------------------------------|------------------------|


   H          H          
-------------22---------|
--18---------24b--------|
--20b-------------------|
------------------------|
------------------------|
------------------------|


   S  S  S  S  T   T   S   S  E   S  S  S  T   T   S  S   S  
------------------------------------15----13h-15p-13--------|
--15-15-17-15-17h-18p-17p-15-------------------------17h-18-|
-----------------------------17--17----17-------------------|
------------------------------------------------------------|
------------------------------------------------------------|
------------------------------------------------------------|


   S  S  S  S  T   T   S  S  E   S  S  S  T   T   S  S  S  
--------17----15h-17p-15-----------17---------------------|
-------------------------18-17-----------18h-20p-18----17-|
--15-15----15-------------------15----15------------17----|
----------------------------------------------------------|
----------------------------------------------------------|
----------------------------------------------------------|


   E   S  S  T   T   S   S  E   S  S  S  T   T   S  S   S  
----------------------------------15----------------------|
--15--15-15-17h-18p-17p-15--------------18h-20p-18-17h-18-|
---------------------------17--17----17-------------------|
----------------------------------------------------------|
----------------------------------------------------------|
----------------------------------------------------------|


   S  S  S  S  T   T   S  S  E   S  S  S  T   T   S  S  S  
--------17----15h-17p-15-----------17----15h-17p-15-------|
-------------------------18-17----------------------18-17-|
--15-15----15-------------------15----15------------------|
----------------------------------------------------------|
----------------------------------------------------------|
----------------------------------------------------------|


   T  T  T  T  T  T  T  T  T  T  T  T  T  T  T  T   T   S  T   T   S  S   S  S  
-----------------------------------------------17h-18p-17-------------------20-2
--18-18-18-18-18-18-18-18-20-20-20-20-20-20-20------------20p-18p-17------------
---------------------------------------------------------------------19p-17-----
--------------------------------------------------------------------------------
--------------------------------------------------------------------------------
--------------------------------------------------------------------------------


  PM PM PM PM PM PM PM PM PM PM PM PM PM PM PM PM  
  S  S  S  S  S  S  S  S  S  S  S  S  S  S  S  S   
--L--L--L--L--L--L--------------------------------|
--------------------------------------------------|
--7--7--7--7--7--7--7--7--7--7--7--7--7--7--7--7--|
--------------------------------------------------|
--------------------------------------------------|
--------------------------------------------------|


  PM PM PM PM PM PM PM PM PM PM PM PM PM PM PM PM  
  S  S  S  S  S  S  S  S  S  S  S  S  S  S  S  S   
--------------------------------------------------|
--------------------------------------------------|
--5--5--5--5--5--5--5--5--5--5--5--5--5--5--5--5--|
--------------------------------------------------|
--------------------------------------------------|
--------------------------------------------------|


  PM PM PM PM PM PM PM PM PM PM PM PM PM PM PM PM  
  S  S  S  S  S  S  S  S  S  S  S  S  S  S  S  S   
--------------------------------------------------|
--------------------------------------------------|
--9--9--9--9--9--9--9--9--9--9--9--9--9--9--9--9--|
--------------------------------------------------|
--------------------------------------------------|
--------------------------------------------------|


   PM PM PM PM PM PM PM PM PM PM PM PM PM PM PM    
   S  S  S  S  S  S  S  S  S  S  S  S  S  S  S  S  
--------------------------------------------------|
--------------------------------------------------|
--10-10-10-10-10-10-10-10-10-10-10-10-10-10-10-10-|
--------------------------------------------------|
--------------------------------------------------|
--------------------------------------------------|


   PM PM PM PM PM PM PM PM PM PM PM PM PM PM PM PM 
   S  S  S  S  S  S  S  S  S  S  S  S  S  S  S  S  
--------------------------------------------------|
--------------------------------------------------|
--------------------------------------------------|
--------------------------------------------------|
--------------------------------------------------|
--12-12-12-12-12-12-12-12-12-12-12-12-12-12-12-12-|


   PM PM PM PM PM PM PM PM PM PM PM PM PM PM PM PM 
   S  S  S  S  S  S  S  S  S  S  S  S  S  S  S  S  
--------------------------------------------------|
--------------------------------------------------|
--------------------------------------------------|
--------------------------------------------------|
--------------------------------------------------|
--10-10-10-10-10-10-10-10-10-10-10-10-10-10-10-10-|


  PM PM PM PM PM PM PM PM PM PM PM PM PM PM PM PM  
  S  S  S  S  S  S  S  S  S  S  S  S  S  S  S  S   
--------------------------------------------------|
--------------------------------------------------|
--------------------------------------------------|
--------------------------------------------------|
--------------------------------------------------|
--3--3--3--3--3--3--3--3--3--3--3--3--3--3--3--3--|


  PM PM PM PM PM PM PM PM  PM PM PM PM PM PM PM PM 
  S  S  S  S  S  S  S  S   S  S  S  S  S  S  S  S  
--------------------------------------------------|
--------------------------------------------------|
--------------------------------------------------|
--------------------------------------------------|
--------------------------------------------------|
--8--8--8--8--8--8--8--8--10-10-10-10-10-10-10-10-|


   PM PM PM PM PM PM PM PM PM PM PM PM PM PM PM PM 
   S  S  S  S  S  S  S  S  S  S  S  S  S  S  S  S  
--------------------------------------------------|
--------------------------------------------------|
--------------------------------------------------|
--------------------------------------------------|
--------------------------------------------------|
--12-12-12-12-12-12-12-12-12-12-12-12-12-12-12-12-|


   PM PM PM PM PM PM PM PM PM PM PM PM PM PM PM PM 
   S  S  S  S  S  S  S  S  S  S  S  S  S  S  S  S  
--------------------------------------------------|
--------------------------------------------------|
--------------------------------------------------|
--------------------------------------------------|
--------------------------------------------------|
--10-10-10-10-10-10-10-10-10-10-10-10-10-10-10-10-|


  PM PM PM PM PM PM PM PM PM PM PM PM          
  S  S  S  S  S  S  S  S  S  S  S  S  S S S S  
----------------------------------------------|
----------------------------------------------|
----------------------------------------------|
----------------------------------------------|
----------------------------------------------|
--3--3--3--3--3--3--3--3--3--3--3--3--3-3-3-3-|


                              PM PM PM PM PM PM  
  S S S S S S S S  S  S  S  S T  T  S  T  T  S   
------------------------------------------------|
------------------------------------------------|
------------------------------------------------|
------------------------------------------------|
------------------------------------------------|
--8-8-8-8-8-8-8-8-10-10-10-10-0--0--0--0--0--0--|


   S  S  S  S  S  S  S  S  S  S  S  S  S  S  S  S  
--------------------------------------------------|
--------------------------------------------------|
--19-19-19-19-19-19-19-19-19-19-19-19-19-19-19-19-|
---x--x--x--x--x--x--x--x--x--x--x--x--x--x--x--x-|
--17-17-17-17-17-17-17-17-17-17-17-17-17-17-17-17-|
--------------------------------------------------|


   S  S  S  S  S  S  S  S  S  S  S  S  S  S  S  S  
--------------------------------------------------|
--------------------------------------------------|
--17-17-17-17-17-17-17-17-17-17-17-17-17-17-17-17-|
---x--x--x--x--x--x--x--x--x--x--x--x--x--x--x--x-|
--15-15-15-15-15-15-15-15-15-15-15-15-15-15-15-15-|
--------------------------------------------------|


   S  S  S  S  S  S  S  S  S  S  S  S  S  S  S  S  
--------------------------------------------------|
--------------------------------------------------|
--22-22-22-22-22-22-22-22-22-22-22-22-22-22-22-22-|
---x--x--x--x--x--x--x--x--x--x--x--x--x--x--x--x-|
--20-20-20-20-20-20-20-20-20-20-20-20-20-20-20-20-|
--------------------------------------------------|


                                      PM PM PM PM PM PM  
   S  S  S  S  S  S  S  S  S  S  S  S T  T  S  T  T  S   
--------------------------------------------------------|
--------------------------------------------------------|
--15-15-15-15-15-15-15-15-17-17-17-17-------------------|
---x--x--x--x--x--x--x--x--x--x--x--x-------------------|
--13-13-13-13-13-13-13-13-15-15-15-15-------------------|
--------------------------------------0--0--0--0--0--0--|


   S  S  S  S  S  S  S  S  S  S  S  S  S  S  S  S  
--------------------------------------------------|
--------------------------------------------------|
--19-19-19-19-19-19-19-19-19-19-19-19-19-19-19-19-|
---x--x--x--x--x--x--x--x--x--x--x--x--x--x--x--x-|
--17-17-17-17-17-17-17-17-17-17-17-17-17-17-17-17-|
--------------------------------------------------|


   S  S  S  S  S  S  S  S  S  S  S  S  S  S  S  S  
--------------------------------------------------|
--------------------------------------------------|
--17-17-17-17-17-17-17-17-17-17-17-17-17-17-17-17-|
---x--x--x--x--x--x--x--x--x--x--x--x--x--x--x--x-|
--15-15-15-15-15-15-15-15-15-15-15-15-15-15-15-15-|
--------------------------------------------------|


   S  S  S  S  S  S  S  S  S  S  S  S  S  S  S  S  
--------------------------------------------------|
--------------------------------------------------|
--22-22-22-22-22-22-22-22-22-22-22-22-22-22-22-22-|
---x--x--x--x--x--x--x--x--x--x--x--x--x--x--x--x-|
--20-20-20-20-20-20-20-20-20-20-20-20-20-20-20-20-|
--------------------------------------------------|


                                      PM PM PM PM PM PM  
   S  S  S  S  S  S  S  S  S  S  S  S T  T  S  T  T  S   
--------------------------------------------------------|
--------------------------------------------------------|
--15-15-15-15-15-15-15-15-17-17-17-17-------------------|
---x--x--x--x--x--x--x--x--x--x--x--x-------------------|
--13-13-13-13-13-13-13-13-15-15-15-15-------------------|
--------------------------------------0--0--0--0--0--0--|


   S  S  S  S  S  S  S  S  S  S  S  S  S  S  S  S  
--------------------------------------------------|
--------------------------------------------------|
--19-19-19-19-19-19-19-19-19-19-19-19-19-19-19-19-|
---x--x--x--x--x--x--x--x--x--x--x--x--x--x--x--x-|
--17-17-17-17-17-17-17-17-17-17-17-17-17-17-17-17-|
--------------------------------------------------|


   S  S  S  S  S  S  S  S  S  S  S  S  S  S  S  S  
--------------------------------------------------|
--------------------------------------------------|
--17-17-17-17-17-17-17-17-17-17-17-17-17-17-17-17-|
---x--x--x--x--x--x--x--x--x--x--x--x--x--x--x--x-|
--15-15-15-15-15-15-15-15-15-15-15-15-15-15-15-15-|
--------------------------------------------------|


   S  S  S  S  S  S  S  S  S  S  S  S  S  S  S  S  
--------------------------------------------------|
--------------------------------------------------|
--10-10-10-10-10-10-10-10-10-10-10-10-10-10-10-10-|
---x--x--x--x--x--x--x--x--x--x--x--x--x--x--x--x-|
---8--8--8--8--8--8--8--8--8--8--8--8--8--8--8--8-|
--------------------------------------------------|


                                      PM PM PM PM PM PM  
   S  S  S  S  S  S  S  S  S  S  S  S T  T  S  T  T  S   
--------------------------------------------------------|
--------------------------------------------------------|
--15-15-15-15-15-15-15-15-17-17-17-17-------------------|
---x--x--x--x--x--x--x--x--x--x--x--x-------------------|
--13-13-13-13-13-13-13-13-15-15-15-15-------------------|
--------------------------------------0--0--0--0--0--0--|


  S S S S S S S S S S S S S S S S    S S S S S S S S S S S S S S S S  
----------------------------------|----------------------------------|
----------------------------------|----------------------------------|
--7-7-7-7-7-7-7-7-7-7-7-7-7-7-7-7-|--5-5-5-5-5-5-5-5-5-5-5-5-5-5-5-5-|
--7-7-7-7-7-7-7-7-7-7-7-7-7-7-7-7-|--5-5-5-5-5-5-5-5-5-5-5-5-5-5-5-5-|
--5-5-5-5-5-5-5-5-5-5-5-5-5-5-5-5-|--3-3-3-3-3-3-3-3-3-3-3-3-3-3-3-3-|
----------------------------------|----------------------------------|


  S S S S S S S S S S S S S S S S  
----------------------------------|
----------------------------------|
----------------------------------|
--3-3-3-3-3-3-3-3-3-3-3-3-3-3-3-3-|
--3-3-3-3-3-3-3-3-3-3-3-3-3-3-3-3-|
--3-3-3-3-3-3-3-3-3-3-3-3-3-3-3-3-|


                              PM PM PM PM PM PM  
  S S S S S S S S  S  S  S  S T  T  S  T  T  S   
------------------------------------------------|
------------------------------------------------|
--3-3-3-3-3-3-3-3-17-17-17-17-------------------|
--3-3-3-3-3-3-3-3--x--x--x--x-------------------|
--1-1-1-1-1-1-1-1-15-15-15-15-------------------|
------------------------------0--0--0--0--0--0--|


  S S S S S S S S S S S S S S S S    S S S S S S S S S S S S S S S S  
----------------------------------|----------------------------------|
----------------------------------|----------------------------------|
--7-7-7-7-7-7-7-7-7-7-7-7-7-7-7-7-|--5-5-5-5-5-5-5-5-5-5-5-5-5-5-5-5-|
--7-7-7-7-7-7-7-7-7-7-7-7-7-7-7-7-|--5-5-5-5-5-5-5-5-5-5-5-5-5-5-5-5-|
--5-5-5-5-5-5-5-5-5-5-5-5-5-5-5-5-|--3-3-3-3-3-3-3-3-3-3-3-3-3-3-3-3-|
----------------------------------|----------------------------------|


                                                             PM PM PM PM PM PM  
  S S S S S S S S S S S S S S S S    S S S S S S S S S S S S T  T  S  T  T  S   
----------------------------------|--------------------------------------------|
----------------------------------|--------------------------------------------|
----------------------------------|--3-3-3-3-3-3-3-3-5-5-5-5-------------------|
--3-3-3-3-3-3-3-3-3-3-3-3-3-3-3-3-|--3-3-3-3-3-3-3-3-5-5-5-5-------------------|
--3-3-3-3-3-3-3-3-3-3-3-3-3-3-3-3-|--1-1-1-1-1-1-1-1-3-3-3-3-------------------|
--3-3-3-3-3-3-3-3-3-3-3-3-3-3-3-3-|--------------------------0--0--0--0--0--0--|


  W                   W                   W                 
-------------------|-------------------|-------------------|
-------------------|-------------------|-------------------|
-------------------|-------------------|-------------------|
--0----------------|--L----------------|--L----------------|
--0----------------|--L----------------|--L----------------|
--0----------------|--L----------------|--L----------------|


  W                  
-------------------||
-------------------||
-------------------||
--L----------------||
--L----------------||
--L----------------||




Duration Legend
---------------
W - whole
H - half
Q - quarter
E - 8th
S - 16th
T - 32nd
X - 64th
. - note dotted
|-n-|  - n-tuplets


Tablature Legend
----------------
L - tied note
x - dead note
g - grace note
(n) - ghost note
> - accentuded note
NH - natural harmonic
AH - artificial harmonic
TH - tapped harmonic
SH - semi harmonic
PH - pitch harmonic
h - hammer on
p - pull off
b - bend
br - bendRelease
pb - preBend
pbr - preBendRelease
brb - bendReleaseBend
\n/ - tremolo bar dip
\n - tremolo bar dive
-/n - tremolo bar Release up
/n\ - tremolo bar inverted dip
/n - tremolo bar return
-\n - tremolo bar Release down
S - shift slide
s - legato slide
/ -  slide into from below or out of upwards
\ -  slide into from above or out of downwards
~ - vibrato
W - wide vibrato
tr - trill
TP - tremolo picking
T - tapping
S - slap
P - pop
< - fade in
^ - brush up
v - brush down
12 comments total. Showing first comments.
0 reply
lassise wrote on August 20 2007, 03:12 am

section names would be nice

0 reply
Griff_Kid wrote on September 3 2007, 08:30 am

would be better if it was layed out neater

0 reply
shugo449 wrote on September 24 2007, 09:49 pm

amazing

I want to post or [tab]
guest
You may want to rate the tab now too:
select rating
Please do not post tabs as comments. Select "correction" instead!