Oops, an error
Loading. Please wait.

Theres No Sympathy For The Dead Tab

ver2
ver2

Intro

Solo

Whole song

More versions @911Tabs.com
47,684 views 9 this week
10 commentsread comments
1 2 3 4 5
excellent!
x 11
Autoscroll
+/-
esc
set tempo
stop
Contributor
Tuning
C G C F A D
Hey! There's an official Ultimate Guitar app which is ideal
for learning songs when you're away from computer. Get the app
WARNING: You are trying to view
                                    content from Ultimate-Guitar.com
                                    in an unauthorized application,
                                    which is prohibited.

                                    Please use an official Ultimate
                                    Guitar Tabs application for iPhone,
                                    iPad or Android to access legitimate
                                    chords, guitar, bass, and drum tabs
                                    from Ultimate-Guitar.com database.

                                    Type "ultimate guitar tabs" in Apple
                                    App Store's or Android Market's
                                    search to find the application.
----------------------------------------------------------------------------
Theres No Sympathy For The Dead  - Escape The Fate
----------------------------------------------------------------------------

Tabbed By:Eric Hernandez
Email:bfmv702@yahoo.com

Tuning:Drop C

[Intro]
D|-----------------|--------------------------------------|------------------------------|
A|-----------------|--------------------------------------|------------------------------|
F|-----------------|--------------------------------------|------------------------------|
C|-----------------|--0---3--3-2--------------------------|--0---3--3-2------------------|
G|--0--0--0--0--0--|--0------------3---3-5-0--0--0--0--0--|--0------------3---3-5--------|
C|--0--0--0--0--0--|--0--------------------0--0--0--0--0--|--0---------------------------|

D|-----------------|--------------------------------------|------------------------------|
A|-----------------|--------------------------------------|------------------------------|
F|-----------------|--------------------------------------|------------------------------|
C|-----------------|--0---7--7-5--------------------------|--0---7--7-5------------7-5---|
G|--0--0--0--0--0--|--0------------5---5-7-0--0--0--0--0--|--0------------5---5-7------7-|
C|--0--0--0--0--0--|--0--------------------0--0--0--0--0--|--0---------------------------|

[Guitar 1]
D|----------------------------------|----------------------------|
A|----------------------------------|----------------------------|
F|--9-----10----5~---17----14--15---|-7s-10----12----15----14----|
C|--x(x5)-x(x5)-x----x(x5)-x---x(x5)|-x--x(x3)-x(x3)-x(x5)-x(x3)-|
G|--7-----8-----3~---15----12--13---|-5s-8-----10----13----12----|
C|----------------------------------|----------------------------|

[Guitar 2]
D|---------------------------------------------------------------|
A|---------------------------------------------------------------|
F|---------3-----5-----------------------------------------------|
C|--0------3(x4)-5(x6)-------------------------------------------| 
G|--0(x10)-1-----3-----------------------------------------------|
C|--0------------------------------------------------------------|

[Guitar 1]
D|---------------------------------------------------------------|
A|--------------------------------------------5--6--8------------|
F|--------------------------------------5--7---------------------|
C|-----------5--5--7--5--------5--8--7---------------------------| 
G|--5--7--8--------------8--7------------------------------------|
C|---------------------------------------------------------------|

D|-----------------------------------|---------------------------|
A|-----------------------------------|---------------------------|
F|--------------------12-------14-15-|-14----14----14------------|
C|--12-12-12-12-15-12----15-12-------|----15----12----15-12-15---| 
G|-----------------------------------|---------------------------|
C|-----------------------------------|---------------------------|

D|-----------------------------------|---------------------------|
A|-----------------------------------|---------------------------|
F|-----------14--------14-12---------|--------------12-----------|
C|--12--12--------12----------15-14--|-12-15-12-15------15-14----| 
G|-----------------------------------|---------------------------|
C|-----------------------------------|---------------------------|

D|-----------------------------------|---------------------------|
A|-----------------------------------|---------------------------|
F|--------------------12-------14-15-|-14----14----14------------|
C|--12-12-12-12-15-12----15-12-------|----15----12----15-12-15---| 
G|-----------------------------------|---------------------------|
C|-----------------------------------|---------------------------|

D|-----------------------------------|---------------------------|
A|-----------------------------------|---------------------------|
F|---------14------14--15--12--------|---------------------------|
C|--12-12------12--------------15--12|---------8*---------7*-----| 
G|-----------------------------------|-0-0-0-0----0-0-0-0--------|
C|-----------------------------------|-0-0-0-0----0-0-0-0--------|

[Verse 1]
D|----------------------------|---------------------------|
A|----------------------------|---------------------------|
F|----------------------------|---------------------------|
C|--0-----------------------0-|-3-----------------------3-|
G|--0-0-0-0-0-0-0-0-0-0-0-0-0-|-3-3-3-3-3-3-3-3-3-3-3-3-3-|
C|--0-0-0-0-0-0-0-0-0-0-0-0-0-|-3-3-3-3-3-3-3-3-3-3-3-3-3-|

D|----------------------------|---------------|--------------|
A|----------------------------|---------------|--------------|
F|----------------------------|---------------|--------------|
C|--8-----------------------8-|-5-----------5-|-7-----------7|
G|--8-8-8-8-8-8-8-8-8-8-8-8-8-|-5-5-5-5-5-5-5-|-7-7-7-7-7-7-7|
C|--8-8-8-8-8-8-8-8-8-8-8-8-8-|-5-5-5-5-5-5-5-|-7-7-7-7-7-7-7|

[Guitar 2]
D|-------------------------------|
A|--6--6--6--6--8--6--6--6--6--8-|
F|--7--7--7--7--7--7--7--7--7--7-|
C|--0--0--0--0--0--0--0--0--0--0-|
G|-------------------------------|
C|-------------------------------|

[Chorus]
D|-------------------------------------------------------|
A|-------------------------------------------------------|
F|-------------------------------------------------------|
C|--8~----8-10-10-10-------------------------------------| 
G|--8~----8-10-10-10-------------------------------------|
C|--8~----8-10-10-10-------------------------------------|

D|-------------------------------------------------------|
A|-------------------------------------------------------|
F|-------------------------------------------------------|
C|-------------------------------------------------------|
G|--0--0--0--0--0--0-------0--0--0--0--0--0--0--0--0--0--|
C|--0--0--0--0--0--0-------0--0--0--0--0--0--0--0--0--0--|
              
D|-------------------------------------------------------|
A|-------------------------------------------------------|
F|-------------------------------------------------------|
C|-------------------------------------------------------|
G|--0--0--0--0--0--0-------0--0--0--0--0--0--0--0--0--0--|
C|--0--0--0--0--0--0-------0--0--0--0--0--0--0--0--0--0--|

D|-------------------------------------------------------|
A|-------------------------------------------------------|
F|-------------------------------------------------------|
C|--8~----8-10-10-10-------------------------------------| 
G|--8~----8-10-10-10-------------------------------------|
C|--8~----8-10-10-10-------------------------------------|

D|-------------------------------------------------------|
A|-------------------------------------------------------|
F|-------------------------------------------------------|
C|-------------------------------------------------------|
G|--0--0--0--0--0--0-------0--0--0--0--0--0--0--0--0--0--|
C|--0--0--0--0--0--0-------0--0--0--0--0--0--0--0--0--0--|
              
D|-------------------------------------------------------|
A|-------------------------------------------------------|
F|-------------------------------------------------------|
C|-------------------------------------------------------|
G|--0--0--0--0--0--0-------0--0--0--0--0--0--0--0--0--0--|
C|--0--0--0--0--0--0-------0--0--0--0--0--0--0--0--0--0--|

D|----------------------------------|----------------------------------|
A|----------------------------------|----------------------------------|
F|--2-2-2-2-2-2-2-2-2-2-2-2-2-2-2-2-|--3-3-3-3-3-3-3-3-3-3-3-3-3-5-5-5-|
C|--2-2-2-2-2-2-2-2-2-2-2-2-2-2-2-2-|--3-3-3-3-3-3-3-3-3-3-3-3-3-5-5-5-|
G|--0-0-0-0-0-0-0-0-0-0-0-0-0-0-0-0-|--1-1-1-1-1-1-1-1-1-1-1-1-1-3-3-3-|
C|----------------------------------|----------------------------------|

D|----------------------------------|------------------------------------|
A|----------------------------------|------------------------------------|
F|--2-2-2-2-2-2-2-2-2-2-2-2-2-2-2-2-|--3-3-3-3-3-3-3-3-------------------|
C|--2-2-2-2-2-2-2-2-2-2-2-2-2-2-2-2-|--3-3-3-3-3-3-3-3-7-5-----5---------|
G|--0-0-0-0-0-0-0-0-0-0-0-0-0-0-0-0-|--1-1-1-1-1-1-1-1-----8-7---8-7~----|
C|----------------------------------|------------------------------------|

[Verse 2]
D|--------------------------------|--------------------------------------|
A|--------------------------------|--------------------------------------|
F|--17----14-15----10----12-9-----|--17----14-15----14----15-12----------|
C|--x(x3)-x--x(x8)-x(x5)-x--x(x7)-|--x(x3)-x--x(x8)-x(x4)-x--x(x7)-------| 
G|--15----12-13----8-----10-7-----|--15----12-13----12----13-10----------|
C|--------------------------------|--------------------------------------|

D|--------------------------------------------------|
A|--------------------------------------------------|
F|--10-10-9-9-10-10-9-9-10-10-9-9-10-10-9-9---------|
C|--x--x-x-x--x--x-x-x--x--x-x-x--x--x-x-x----------|
G|--8--8-7-7--8--8-7-7--8--8-7-7--8--8-7-7----------|
C|--------------------------------------------------|

D|--------------------------------------------------|
A|--------------------------------------------------|
F|--12-12-10-10-12-12-10-10-12-12-10-10-12-12-10-10-|
C|--x--x--x--x--x--x--x--x--x--x--x--x--x--x--x--x--|
G|--10-10--8--8-10-10--8--8-10-10--8--8-10-10--8--8-|
C|--------------------------------------------------|

D|--------------------------------------------------|
A|--------------------------------------------------|
F|---------3-----5----------------------------------|
C|--0------3(x4)-5(x6)------------------------------| 
G|--0(x10)-1-----3----------------------------------|
C|--0-----------------------------------------------|

D|--------------------------------------------------|
A|--------------------------------------------------|
F|--------------------------------------------------|
C|-----------8*---------7*--------------------------| 
G|---0-0-0-0----0-0-0-0-----------------------------|
C|---0-0-0-0----0-0-0-0-----------------------------|

[Repeat Verse 1]

[Repeat Chorus]

[Repeat Verse 2]

[Guitar 1]
D|----------------------------------------------------------|
A|----------------------------------------------------------|
F|--5-----2-3-----------5-2-------------------------------------------|
C|--5(x3)-2-3(x4)-3-----5-2(x5)---------------------------------------| 
G|--3-----0-1-----3(x3)-3-0-------------------------------------------|
C|----------------3------------------------------------------------|

[Guitar 2][Solo]
D|---------------------------------------------------------------------------|
A|-10-------------10---8h10p8------------------------------------------------|
F|-12b14-10-9-----------------10p9-------10-9h10p9---------------------------|
C|------------8-8----8-------------10h12-----------12p10---------------------|
G|---------------------------------------------------------------------------|
C|---------------------------------------------------------------------------|

D|---12h13p12p10----------------------17-15h17p15----------20-17h18p17-------|
A|---------------13p12p10----------10-------------17h18-18-------------20p18-|
F|------------------------12-10-12-------------------------------------------|
C|-10------------------------------------------------------------------------|
G|---------------------------------------------------------------------------|
C|---------------------------------------------------------------------------|

D|----------------------------17h18h20b22p20-17h18p17------------------------|
A|-18-18b19r18-18h20p18-18h20-------------------------20p18p17----------17h18|
F|-------------------------------------------------------------17\15/17------|
C|---------------------------------------------------------------------------|
G|---------------------------------------------------------------------------|
C|---------------------------------------------------------------------------|

D|-------------22p20p18----20p18-------18------------------------------------|
A|-18h20p18p17----------22-------22p20----22p20p18h22p20p18p17---------------|
F|---------------------------------------------------------------------------|
C|---------------------------------------------------------------------------|
G|---------------------------------------------------------------------------|
C|---------------------------------------------------------------------------|

D|-18p17----------------------------------------------------20b22~-----------|
A|-------20p18p17----------------------15~----17~----18~---------------------|
F|----------------19p17-17p15-17b18r17-18b19~-20b21~-21b22~------------------|
C|---------------------------------------------------------------------------|
G|---------------------------------------------------------------------------|
C|---------------------------------------------------------------------------|

D|-------------------------------15----12h13p12----12------------------------|
A|-15-15-17-15-17h18p17p15-13-13----13----------15---------------------------|
D|---------------------------------------------------------------------------|
C|---------------------------------------------------------------------------|
G|---------------------------------------------------------------------------|
C|---------------------------------------------------------------------------|

D|----19----17h19p17----------19----17h19p17---------------------------------|
A|-------------------20p19-------------------19h20---------------------------|
F|-17----17----------------17----17------------------------------------------|
C|---------------------------------------------------------------------------|
G|---------------------------------------------------------------------------|
C|---------------------------------------------------------------------------|

D|-------------------------------15----12h13p12----12------------------------|
A|-15-15-17-15-17h18p17p15-13-13----13----------15---------------------------|
F|---------------------------------------------------------------------------|
C|---------------------------------------------------------------------------|
G|---------------------------------------------------------------------------|
C|---------------------------------------------------------------------------|

D|----19----17h19p17----------19----17h19p17---------------------------------|
A|-------------------20p19-------------------20p19---------------------------|
F|-17----17----------------17----17------------------------------------------|
C|---------------------------------------------------------------------------|
G|---------------------------------------------------------------------------|
C|---------------------------------------------------------------------------|

D|---------------------------------------------------------------------------|
A|-18-(pick 8 times)-20-(pick another 8 times)-------------------------------|
F|---------------------------------------------------------------------------|
C|---------------------------------------------------------------------------|
G|---------------------------------------------------------------------------|
C|---------------------------------------------------------------------------|

D|-17h18p17-------------20-20b22~~~~-----------------------------------------|
A|----------20-18-17---------------------------------------------------------|
F|-------------------19------------------------------------------------------|
C|---------------------------------------------------------------------------|
G|---------------------------------------------------------------------------|
C|---------------------------------------------------------------------------|

D|----------------------------------------------------------|
A|----------------------------------------------------------|
F|--7(x16)-5(x16)-9(x16)-10(x16)-910b-----------------------|
C|----------------------------------------------------------| 
G|----------------------------------------------------------|
C|----------------------------------------------------------|

[Guitar 1]
D|-----------------------------------------------------------------------------------------------|
A|-----------------------------------------------------------------------------------------------|
F|--7-7-9-9-10-10-9-7-----7-7-9-9-10-10-9-7------9-9-10-10-12-12-10-9-------9-9-10-10-12-12-10-9-|
C|--------------------xxx-------------------xxx------------------------xxx-----------------------|
G|-----------------------------------------------------------------------------------------------|
C|-----------------------------------------------------------------------------------------------|

D|--------------------------------------------------------------|
A|--------------------------------------------------------------|
F|-------12-10-9------------------------------------------------|
C|---------------12-10-9----------------------------------------| 
G|-----------------------12-10-9--------------------------------|
C|-------------------------------13-11-9------------------------|

[Guitar 2]
D|--------------------------------------------------------------|
A|--------------------------------------------------------------|
F|--------------------------------------------------------------|
C|--------------------------------------------------------------| 
G|--------------------------------------------------------------|
C|--12(x16)-10(x16)-3(x16)-8(x8)-10(x4)-0(x6)-------------------|

[Breakdown]
D|----------------------------------------------------------|
A|----------------------------------------------------------|
F|--10----9-----14----17------------------------------------|
C|--x(x8)-x(x8)-x(x8)-x(x8)---------------------------------| 
G|--8-----7-----12----15----0-0-0-0-------------------------|
C|--------------------------0-0-0-0-------------------------|

[Outro]
D|----------------------------------------------------------|
A|----------------------------------------------------------|
F|--10~----10-9~----9-14~-----14-15~---17~------------------|
C|----------------------------------------------------------| 
G|----------------------------------------------------------|
C|----------------------------------------------------------|



comments
print report bad tab
10 comments total. Showing first comments.
+1 reply
sab_guitarist17 wrote on December 8 2008, 10:08 pm

you updated it!!!!

thank you even though i figured this out by ear a while back its still good to have

0 reply
blakiss wrote on December 26 2008, 08:19 pm

what about the fill before the 2nd chorus? did you not tab it or am I Just blind?

0 reply
shadowsv3nom wrote on January 1 2009, 07:16 pm

You fixed the breakdown but the chorus goes like this:

D|----------------------------------------|--------------------------------------------|
A|----------------------------------------|--------------------------------------------|
F|--17----9-10----10----10/12--9----------|--17----9-10----14----14/16--9--------------|
C|--x(x2)-x--x(x8)-x(x2)-x--x--x-(x3)--xxx|--x(x2)-x--x(x8)-x(x2)-x--x--x---(x3)--xxx--|
G|--15----7--8-----8-----8--10-7-------xxx|--15----7--8----12----12/14--7---------xxx--|
C|-------------------------------------xxx|---------------------------------------xxx--|
Do that twice then you move to:

D|---------------------------------------------------------|
A|---------------------------------------------------------|
F|--10-10-9-9-10-10-9-9-10-10-9-9-10-10-9-9-12-12-10-7-9---|
C|---x--x-x-x--x--x-x-x--x--x-x-x--x--x-x-x--x--x--x-x-x---|
G|---8--8-7-7--8--8-7-7--8--8-7-7--8--8-7-7-10-10--8-5-7---|
C|---------------------------------------------------------|

I want to post or [tab]
guest
You may want to rate the tab now too:
select rating
Please do not post tabs as comments. Select "correction" instead!