Oops, an error
Loading. Please wait.

This War Is Ours Tab

ver1
ver1

Intro

Album

Whole song

Interactive

More versions @911Tabs.com
19,273 views 30 this week
no commentswrite comment
1 2 3 4 5
excellent!
x 4
add to favorites launch autoscroll
font size
0
reset
Autoscroll
+/-
esc
set tempo
stop
Contributor
Difficulty
advanced
WARNING: You are trying to view
                                    content from Ultimate-Guitar.com
                                    in an unauthorized application,
                                    which is prohibited.

                                    Please use an official Ultimate
                                    Guitar Tabs application for iPhone,
                                    iPad or Android to access legitimate
                                    chords, guitar, bass, and drum tabs
                                    from Ultimate-Guitar.com database.

                                    Type "ultimate guitar tabs" in Apple
                                    App Store's or Android Market's
                                    search to find the application.
                 ESCAPE THE FATE - THIS WAR IS OURS



Track Listing
1. We Won't Back Down
2. On To The Next One
3. Ashley
4. Something
5. The Flood
6. Let It Go
7. You Are So Beautiful
8. This War Is Ours (The Guillotine Part II)
9. 10 Miles Wide
10. Harder Than You Know
11. Its Just Me







1. We Wont Back Down:

verse
D---------------------------------------------------------------------------|
A---------------------------------------------------------------------------|
F--7-77s5-7--3--10-9-2-6----------------------------------------------------|
C--7-77s5-7--3--10-9-2-6-----repeat 2x--------------------------------------|
G--5-55s3-5--1---8-7-0-4----------------------------------------------------|
C---------------------------------------------------------------------------|

verse pt.2
D-------------------------------------------------|-------------------------|
A-------------------------------------------------|-------------------------|
F--7-77s5-7-777-----------33333-------------------|-3--5--5-6---------------|
C--7-77s5-7-777-----------33333----------repeat 2x|-3--5--5-6---------------|
G--5-55s3-5-555-8p7-3-0-1-11111-8-7-0-4-----------|-1--3--3-4---------------|
C-------------------------------------------------|-------------------------|
            mmm           mmmmm

chorus
D---------------------------------------------------------------------------|
A---------------------------------------------------------------------------|
F--7-77-777-777-777-101010101010101099999999-333-333-333-333-2-22-222-6-66--|
C--7-77-777-777-777-101010101010101099999999-333-333-333-333-2-22-222-6-66--|
G--5-55-555-555-555--8-8-8-8-8-8-8-877777777-111-111-111-111-0-00-000-4-44--|
C---------------------------------------------------------------------------|

D-----|---------------------------------------------------------------------|
A-----|---------------------------------------------------------------------|
F--666|-7-77s5-7--3--10-9-2-6---repeat 4x-----------------------------------|
C--666|-7-77s5-7--3--10-9-2-6-----------------------------------------------|
G--444|-5-55s3-5--1---8-7-0-4-----------------------------------------------|
C-----|---------------------------------------------------------------------|


verse
D------------------------------------------------|--------------------------|
A------------------------------------------------|--------------------------|
F--7-77s5-7-777777777-3-33333-10-9-2-6-----------|-3-33-3-3-3-3-33-5-55-5-5-|
C--7-77s5-7-777777777-3-33333-10-9-2-6--repeat 2x|-3-33-3-3-3-3-33-5-55-5-5-|
G--5-55s3-5-555555555-1-11111--8-7-0-4-----------|-1-11-1-1-1-1-11-3-33-3-3-|
C------------------------------------------------|--------------------------|
            mmmmmmmmm   mmmmm

D---------------------------------------------------------------------------|
A---------------------------------------------------------------------------|
F--5--6---------------------------------------------------------------------|
C--5--6---------------------------------------------------------------------|
G--3--4---------------------------------------------------------------------|
C---------------------------------------------------------------------------|

chorus
D---------------------------------------------------------------------------|
A---------------------------------------------------------------------------|
F--7-77-777-777-777-101010101010101099999999-333-333-333-333-2-22-222-6-66--|
C--7-77-777-777-777-101010101010101099999999-333-333-333-333-2-22-222-6-66--|
G--5-55-555-555-555--8-8-8-8-8-8-8-877777777-111-111-111-111-0-00-000-4-44--|
C---------------------------------------------------------------------------|

D---------------|-----------------------------------------------------------|
A---------------|-----------------------------------------------------------|
F--666----------|-----------------------------------------------------------|
C--666-repeat 2x|-2-22-2-2-6-6-66-6-7---------------------------------------|
G--444----------|-0-00-0-0-4-4-44-4-5---------------------------------------|
C---------------|-----------------------------------------------------------|

verse(solo)
D---------------------------------------------------------------------------|
A---------------------------------------------------------------------------|
F--7-77s5-7--3--10-9-2-6----------------------------------------------------|
C--7-77s5-7--3--10-9-2-6-----repeat 2x--------------------------------------|
G--5-55s3-5--1---8-7-0-4----------------------------------------------------|
C---------------------------------------------------------------------------|

verse pt.2(solo)
D-------------------------------------------------|-------------------------|
A-------------------------------------------------|-------------------------|
F--7-77s5-7-777-----------33333-------------------|-3--5--5-6---------------|
C--7-77s5-7-777-----------33333----------repeat 2x|-3--5--5-6---------------|
G--5-55s3-5-555-8p7-3-0-1-11111-8-7-0-4-----------|-1--3--3-4---------------|
C-------------------------------------------------|-------------------------|
            mmm           mmmmm


chorus
D---------------------------------------------------------------------------|
A---------------------------------------------------------------------------|
F--7-77-777-777-777-101010101010101099999999-333-333-333-333-2-22-222-6-66--|
C--7-77-777-777-777-101010101010101099999999-333-333-333-333-2-22-222-6-66--|
G--5-55-555-555-555--8-8-8-8-8-8-8-877777777-111-111-111-111-0-00-000-4-44--|
C---------------------------------------------------------------------------|

D---------------|-----------------------------------------------------------|
A---------------|-----------------------------------------------------------|
F--666----------|-----------------------------------------------------------|
C--666-repeat 2x|-2-22-2-2-6-6-66-6-7---------------------------------------|
G--444----------|-0-00-0-0-4-4-44-4-5---------------------------------------|
C---------------|-----------------------------------------------------------|

outro
D-------------------------------------------------|-------------------------|
A-------------------------------------------------|-------------------------|
F--7-77s5-7-777-----------33333-------------------|-7-77s5-7----------------|
C--7-77s5-7-777-----------33333----------repeat 2x|-7-77s5-7----------------|
G--5-55s3-5-555-8p7-3-0-1-11111-8-7-0-4-----------|-5-55s3-5----------------|
C-------------------------------------------------|-------------------------|



















2. On To The Next One:

-Intro/Riff-

D |-----------------------------------------------------|
A |-----------------------------------------------------|
F |-----------------------------------------------------|
C |-----------------------------------------------------|
G |---5-----5--5h7---4----4p0----5-----5--------4----7--|
C |0-----0---------0----0-----3-----3-----3p2-0----0----|
                   *    *                     *    *

Play that a few times, then this...

D |--------------------------------------------------------|
A |---------------------------------------6p5---5--6p5-----|
F |------------------------------------7------6---------7--|
C |---------------------------------3----------------------|
G |---5-----5--5h7---4----4p0----5-------------------------|
C |0-----0---------0----0-----3----------------------------|
                   *    *                     *

The first verse is all just the main riff played all palm muted.

-Pre Chorus/Chorus Rhythm-

D |-------------------------------------------|
A |-------------------------------------------|
F |-------------x-3--5--5--5--5--5-6--6--6-9--|
C |8\--8\--8\---x-3--5--5--5--5--5-6--6--6-9--|
G |8\--8\--8\---x-1--3--3--3--3--3-4--4--4-7--|
C |8\--8\--8\---x-----------------------------|


D |-------------------1------------------------|
A |6--------6-6--6--6-1--5--------5-5--5--5-8--|
F |5--------5-5--5--5-3--5--------5-6--6--6-9--|
C |3--------3-3--3--3-3--5--------5-5--5--5-9--|
G |3--------3-3--3--3-1--3--------3-4--4--4-7--|
C |3--------3-3--3--3--------------------------|\
                                                  >x2
D |--------------------------------------------|/
A |6--------6-6--6--6-6--6--------6-6--6--6-6--|
F |7--------7-7--7--7-7--6--------6-6--6--6-6--|
C |7--------7-7--7--7-7--6--------6-6--6--6-6--|
G |5--------5-5--5--5-5--4--------4-4--4--4-4--|
C |--------------------------------------------|

Goes back into the main riff, then...

-Verse 2-

Clean part

D |--------------------------------------|
A |------6--5---------------6--8---------|
F |---7------------------7---------------|
C |7------------------7------------------|
G |--------------------------------------|
C |--------------------------------------|


D |---------5------------------6---------|
A |------6------------------7------------|
F |---7------------------7---------------|
C |7------------------7------------------|
G |--------------------------------------|
C |--------------------------------------|


Distortion

D |----------------------------------|
A |----------------------------------|
F |----------------------------------|
C |0---0---0--------3---3---2--------|
G |0---0---0---0/7--3---3---2---0/7--|
C |0---0---0---0/7--3---3---2---0/7--|
               *                *

D |----------------------------------|
A |----------------------------------|
F |----------------------------------|
C |0---0---0-------------------------|
G |0---0---0---0/7-------------------|
C |0---0---0---0/7-------------------|
               *

 
Play the Pre-Chorus/Chorus again, and hold on the last chord for one more
repeat. The solo is just the main riff palm muted over and over.


-Bridge-

D |--------------------------------------------------------|
A |--------------------------------------------------------|
F |--------------------------------------------------------|
C |8--8--8--8--8--8--8--8--10--10--10--10--10--10--10--10--|
G |8--8--8--8--8--8--8--8--10--10--10--10--10--10--10--10--|
C |8--8--8--8--8--8--8--8--10--10--10--10--10--10--10--10--|


D |-------------------------------------------------|
A |-------------------------------------------------|
F |10-10-10-10--9--9--9--9--7--7--7--7--5--5--5--5--|
C |10-10-10-10--9--9--9--9--7--7--7--7--5--5--5--5--|
G |8--8--8--8---7--7--7--7--5--5--5--5--3--3--3--3--|
C |-------------------------------------------------|


Pre-Chorus again.

-Final Chorus-

There's only one difference in the final chorus, it's right at the beginning
and you can't miss it.

D |----------------------------|
A |----------------------------|
F |----------------------------|
C |3\---------10\--------------|
G |3\---------10\--------/13\--|
C |3\---------10\--------/13\--|


D |--------------------------------------------|
A |6--------6-6--6--6-6--6--------6-6--6--6-6--|
F |7--------7-7--7--7-7--6--------6-6--6--6-6--|
C |7--------7-7--7--7-7--6--------6-6--6--6-6--|
G |5--------5-5--5--5-5--4--------4-4--4--4-4--|
C |--------------------------------------------|

Then reapeat the normal chorus pattern 3 times, hang on the last chord
again, and into the outro.

-Outro-

D |-----------------------------------------------------|
A |-----------------------------------------------------|
F |-----------------------------------------------------|
C |-----------------------------------------------------|
G |---5-----5--5h7---4----4p0----5-----5--------4----7--|
C |0-----0---------0----0-----3-----3-----3p2-0----0----|
                   *    *                     *    *

D |-------------------------------------------------|
A |-------------------------------------------------|
F |-------------------------------------------------|
C |---------------------------------------------7\--|
G |---5-----5--5h7---4----4p0-3---3---2----3-2--5\--|
C |0-----0---------0----0-----3---3---2----3-2------|
                   *    *     *   *   *    * *

Okay now that I'm done with that we can move to the lead lines. Oh and Monte
is epic.


The intro and 1st verse are the same to both guitars, except there are a
couple parts where Monte plays his alone.

Anyways, the first place with something distinctly different.

-Pre Chorus/Chorus-

D |-------------x-6--8--8--8--8--8-9--9--9-9--|
A |-------------x-x--x--x--x--x--x-x--x--x-x--|
F |-------------x-3--5--5--5--5--5-6--6--6-6--|
C |8\--8\--8\---------------------------------|
G |8\--8\--8\---------------------------------|
C |8\--8\--8\---------------------------------|

The first time through the chorus is the same, but at the repeat it's
something like this...


D |-----------------------------------------------|
A |10-----10-11--10--11-10--8---------------------|
F |10-----10-10--10--10-10--9------12b14r12-9/12--|
C |10-----------------------10--------------------|
G |-----------------------------------------------|
C |-----------------------------------------------|


D |---------------------------------------------------------|
A |----------------------------------------11-11--10--8/10--|
F |10---------12p10--9--10h12p10-9--------------------------|
C |----12---------------------------10----------------------|
G |---------------------------------------------------------|
C |---------------------------------------------------------|

Back to the main riff, sit quiet in Verse 2 til the end of the clean part,
then this little line.

D |--------------------------------------------|
A |---------13h14h16----------13h14h16-16'~~~~~|
F |12h14h15----------12h14h15------------------|
C |--------------------------------------------|
G |--------------------------------------------|
C |--------------------------------------------|

Main riff palm muted and REALLY quiet. Drop out and rest with the rhythm.

D |---------------------------|
A |----------11-11--10--8/10--|
F |9--------------------------|
C |---10----------------------|
G |---------------------------|
C |---------------------------|


-Solo-

Bunch of crazy effects and pinch harmonics everywhere, this is as close as I
can get.

D |-----------------------------------------|
A |-----------------------------------------|
F |7--------8--7-----3h5p3-6--5-------------|
C |------5-----------------------8p5--------|
G |-----------------------------------5-----|
C |-----------------------------------------|

D |---------------------------------|
A |---------------------------------|
F |7\--/10\--------10-12-10-12/14---|
C |----------10h12------------------|
G |---------------------------------|
C |---------------------------------|

D |-----------------------------13-15---|
A |--------------------13h14h16---------|
F |10\--/12\--12h13h15------------------|
C |-------------------------------------|
G |-------------------------------------|
C |-------------------------------------|

D |17---15----------------------------------------------------|
A |--------18-15----17\----------------------------------14---|
F |------------------------7/10--10----10-12-14p12p10-12------|
C |---------------------------------12------------------------|
G |-----------------------------------------------------------|
C |-----------------------------------------------------------|

D |---------------------------------------------13h15h17----------15h17h18-|
A |---------------------------11h13h15-13h15h17----------15h17h18----------|
F |---------10h12h14-12h14h15----------------------------------------------|
C |10h12h14----------------------------------------------------------------|
G |------------------------------------------------------------------------|
C |------------------------------------------------------------------------|

D |20p19p18-20p19p18-20p19p18-20-20"b22--------|
A |--------------------------------pinch-------|
F |---------------------------------and--------|
C |----------------------------------bend------|
G |--------------------------------------------|
C |--------------------------------------------|

Not perfect but I tried.

-Bridge-

D |--------------------------------------------------------|
A |--------------------------------------------------------|
F |--------------------------------------------------------|
C |8--8--8--8--8--8--8--8--10--10--10--10--10--10--10--10--|
G |8--8--8--8--8--8--8--8--10--10--10--10--10--10--10--10--|
C |8--8--8--8--8--8--8--8--10--10--10--10--10--10--10--10--|


D |----------------------------------------------------|
A |----------------------------------------------------|
F |-------7h9h10--------7h9h10-------5h7h9-------5h7h9-|
C |7h9h10--------7h9h10--------5h7h9-------5h7h9-------|
G |----------------------------------------------------|
C |----------------------------------------------------|

D |------------------------|
A |------------------------|
F |7----9----10-----14"----|
C |x----x----x-------------|
G |5----7----8-------------|
C |------------------------|

Pre-Chorus again, same as the other ones.

-Final Chorus-

D |------------------------|
A |------------13\---------|
F |10\---------------------|
C |------------------------|
G |------------------------|
C |------------------------|

D |---------------------------------------------------------|
A |----------------------------------------11-11--10--8/10--|
F |10---------12p10--9--10h12p10-9--------------------------|
C |----12---------------------------10----------------------|
G |---------------------------------------------------------|
C |---------------------------------------------------------|



















3. Ashley:

|D------------------------------------|
|A------------------------------------|
|F------7/9-99--1616-16\11-11/12-1212-|
|C------x/x-xx--xxxx-xx\xx-xx/xx-x----|xxx  X2 With drums, this stops until bass starts
|G------5/7-77--1414-14\09-09/10-1010-|
|C------------------------------------|

When bass starts:

|D------------------------------------|
|A--------------88-8------------------|
|F------4/5-55--xx-x-7-7/9-99---------|
|C------x/x-xx--55-5-x-x/x-x----------|x  X Until verse starts
|G------2/3-33--xx-x-5-5/7-77---------|
|C------------------------------------|

For verse there are two guitars: pretty easy guitars

Rythm: For all verse is this:

      PM--    PM   PM
|D-----------------------|
|A-----------------------|
|F----5555-5/7777/9999\5-|
|C----xxxx-x/xxxx/xxxx\x   and again and again
|G----3333-3/5555/7777\3-|
|C-----------------------|


Lead: I donĀ“t know pretty well but is something like this Like if you were in F major in 
D and A string which will do something like

    PM------------|
|D-----7--8-10-12-|
|A---88-88-8--8---| or something like that.... i dont really know
|F----------------|
|C----------------|
|G----------------|
|C----------------|


Preschorus:
    LIKE the brightest STAR you shine through
    PM-----------------------------------------|
|D---------------------------------------------|
|A---------------------------------------------|
|F---555555555555555555/7777777777777777777777-|
|C---555555555555555555/7777777777777777777777-|
|G---333333333333333333/5555555555555555555555-|
|C---------------------------------------------|


Chorus
                (HERE IS A LITTLE BEFORE YOU)
    Ashley  BABY, YOUmakemeFEEL so aLIve.... I've got PURpose once aGAin
|D-----------------------------------------------------------------------|
|A-----------------------------------------------------------------------|
|F---55555--------------------------555555---55555-----77777-------99999-|
|C---xxxxx--55555-000000---22222----xxxxxx---xxxxx-----xxxxx-------xxxxx-|
|G---33333--55555-000000---22222----333333---33333-----55555-------77777-|
|C----------55555-000000---22222-----------------------------------------|


     Yeah yeah
|D------------|
|A------------|
|F---9999-----|
|C---xxxx-----|
|G---7777-----|
|C------------|


INTRO WITH BASS

VERSE

PRECHORUS

CHORUS

  BRIDGE: (THIS BRIDGE IS WITH SINGLE NOTES ITS TA TA TA TA IN 4/4)
     You're the strenght i need to FIGHT you're the reason I still TRY
|D---------------------------------------------------------------------|
|A---------------------------------------------------------------------|
|F---9---9---9---9---9---9---9---9---7---7---7---7---7---7---7---7---5-|
|C---x---x---x---x---x---x---x---x---x---x---x---x---x---x---x---x---x-|
|G---7---7---7---7---7---7---7---7---5---5---5---5---5---5---5---5---3-|
|C---------------------------------------------------------------------|

    I'm the moth and you're the LIGHT, use this wings so I can FLY
|D-----------------------------------------------------------------|
|A-----------------------------------------------------------------|
|F---5---5---5---5---5---5---5---7---7---7---7---7---7---7---7--9--|
|C---x---x---x---x---x---x---x---x---x---x---x---x---x---x---x--x--|
|G---3---3---3---3---3---3---3---5---5---5---5---5---5---5---5--7--|
|C-----------------------------------------------------------------|


SOLO: It is NOT the correct one... but it's kind the same, (i'm not teh kind of person 
solos the same solo, so what i'm doing here is add my own style and courage you people to 
The solo is in D minor, which means you can start in the 12 fret and oon...somethign like this

(EVERYTHING HERE IS WITH LEGATTOS, YOU PICK THE FIRST NOTE AND YOU KEEP DOING PULL 
is fast, like double-triplets, 6 notes for every 1/4)

|D---15-14-12---------15-14-12---------15-14-12---------15-14-12----------|
|A------------15-13-12---------15-13-12---------15-13-12---------15-13-12-|
|F------------------------------------------------------------------------|
|C------------------------------------------------------------------------|
|G------------------------------------------------------------------------|
|C------------------------------------------------------------------------|

|D-------------------------------------12---12-------22--|b
|A-----------12-13-15--------12-13-15--15bv-15bv---------|
|F---11-12-14--------11-12-14-------------------15-------|
|C----------------------------------------------14bv-----|
|G-------------------------------------------------------|
|C-------------------------------------------------------|

Ashley baby, you make me feel so alive i got purpose once again (Alone w/o instruments)

CHORUS
CHORUS

INTRO (BASS)

INTRO(BASS) BUT YOU ARE ALONE AND YOU END UP WITH THE

|D----
|A----
|F---5
|C---x
|G---3



















4. Something:

Intro:

|----------------------------------------------------------------------------------|
|---------------------------------------------------------------------13-13-14-----|
|--10h11-10-10h11p10-10h11-10h11-11h13-13-13--10h11-10-10h11p10-10h11-x--x-----13--|
|--11----11-11-------11----11----11-----------11----11-11-------11----11-11----11--|
|----------------------------------------------------------------------------------|
|----------------------------------------------------------------------------------|

|----------------------------------------------------------------------------------|
|---------------------------------------------------------------------13-13-14-----| (x2)
|--10h11-10-10h11p10-10h11-10h11-11h13-13-13--10h11-10-10h11p10-10h11-x--x-----13--|
|--11----11-11-------11----11----11-----------11----11-11-------11----11-11----11--|
|----------------------------------------------------------------------------------|
|----------------------------------------------------------------------------------|

or

|--------------------------------------------|
|--------------6666--------------------------| (x2)
|--6666666666666666-10-(x8)-11-(x4)-10-(x4)--|
|--4444444444444444-8-------8-------8--------|
|--4444444444444444-8-------8-------8--------|
|--4444444444444444-8-------8-------8--------|

in rhythm (note: I've updated this one so that people won't get confused.)

|-------|    |------|
|-------|    |--7~--|
|--11~--| or |--6~--|
|--11~--|    |--4~--|
|--9~---|    |--4~--|
|-------|    |--4~--|

Verse:

|-------------------|
|------6--7---------| (x8)
|----6---6---6---6--|
|--4-----------4----|
|-------------------|
|-------------------|

|-------------------------------------|
|-------------------------------------| (x2)
|--6666666666666666-1010101010101010--|
|--4444444444444444-8888888888888888--|
|--4444444444444444-8888888888888888--|
|--4444444444444444-8888888888888888--|
   ................ ................

Pre-Chorus:

|---------------------------|
|---------------------------|
|---------------------------|
|--1-1~---4444-4444-xx-12/--|
|--1-1~---4444-4444-xx-12/--|
|--1-1~---4444-4444-xx-12/--|


Chorus:

|--------------------------------------------------------------------------|
|--------------------------------------------------------------------------|
|--66666666----------3333333333333333--------------------------------------|
|--66666666-33333333-3333333333333333-44444444-33333333-44444444-66666666--|
|--44444444-33333333-1111111111111111-44444444-33333333-44444444-66666666--|
|-----------33333333------------------44444444-33333333-44444444-66666666--|

|-----------------------------------------------------------|
|-----------------------------------------------------------|
|--66666666----------3333333333333333-----------------------|
|--66666666-33333333-3333333333333333-44444444-33333333-6~--|
|--44444444-33333333-1111111111111111-44444444-33333333-6~--|
|-----------33333333------------------44444444-33333333-6~--|

Pre-Verse:

|-------------------|
|------6---7--------| (x4)
|----6---6---6---6--|
|--4-----------4----|
|-------------------|
|-------------------|

Verse:

|-------------------------------------|
|-------------------------------------|
|-------------------------------------|
|--4444444444444444-8888888888888888--|
|--4444444444444444-8888888888888888--|
|--4444444444444444-8888888888888888--|
   ................ ................

|-------------------------------------|
|-------------------------------------|
|--6666666666666666-1010101010101010--|
|--4444444444444444-8888888888888888--|
|--4444444444444444-8888888888888888--|
|--4444444444444444-8888888888888888--|
   ................ ................

Pre-Chorus:


|---------------------------|
|---------------------------|
|---------------------------|
|--1-1~---4444-4444-xx-12/--|
|--1-1~---4444-4444-xx-12/--|
|--1-1~---4444-4444-xx-12/--|

Chorus:

|--------------------------------------------------------------------------|
|--------------------------------------------------------------------------|
|--66666666----------3333333333333333--------------------------------------|
|--66666666-33333333-3333333333333333-44444444-33333333-44444444-66666666--|
|--44444444-33333333-1111111111111111-44444444-33333333-44444444-66666666--|
|-----------33333333------------------44444444-33333333-44444444-66666666--|

|---------------------------------------------------------------|
|---------------------------------------------------------------|
|--66666666----------3333333333333333---------------------------|
|--66666666-33333333-3333333333333333-44444444-33333333-6~---6--|
|--44444444-33333333-1111111111111111-44444444-33333333-6~---6--|
|-----------33333333------------------44444444-33333333-6~---6--|


Bridge:

|---------------------------------------------------------------------|
|---------------------------------------------------------------------|
|---------------------------------------------------------------------|
|--8-8-8-8-8-8-8-8--6-6-6-6-6-6-6-6--3-3-3-3-3-3-3-3------4~------6~--|
|--8-8-8-8-8-8-8-8--6-6-6-6-6-6-6-6--3-3-3-3-3-3-3-3--44444~--66666~--|
|--8-8-8-8-8-8-8-8--6-6-6-6-6-6-6-6--3-3-3-3-3-3-3-3--44444~--66666~--|
                                                      ....    ....

|-----------------------------------------------------------------|
|-----------------------------------------------------------------|
|-----------------------------------------------------------------|
|--8-8-8-8-8-8-8-8--6-6-6-6-6-6-6-6--3-3-3-3-3-3-3-3------4~--6~--|
|--8-8-8-8-8-8-8-8--6-6-6-6-6-6-6-6--3-3-3-3-3-3-3-3--44444~--6~--|
|--8-8-8-8-8-8-8-8--6-6-6-6-6-6-6-6--3-3-3-3-3-3-3-3--44444~--6~--|
                                                      ....

Solo:
(not the exact solo, but will fit the song)

|------------8h12p8----------------8h12p8---------|
|----------10------10------------10------10-------|
|---------9----------9----------9----------9------|
|-------10------------10------10------------10----|
|-----12----------------12--12----------------12--|
|-------------------------------------------------|

|--------------9h13p9------------------9h13p9----------|
|------------11------11--------------11------11--------|
|----------10----------10----------10----------10------|
|--------11--------------11------11--------------11----|
|------13------------------13--13------------------13--|
|------------------------------------------------------|

|--------------11h15p11------------------11h15p11----------|
|------------13--------13--------------13--------13--------|
|----------12------------12----------12------------12------|
|--------13----------------13------13----------------13----|
|------15--------------------15--15--------------------15--|
|----------------------------------------------------------|

|----------------------|
|--------14/16-14-13~--|
|--13-11---------------|
|----------------------|
|----------------------|
|----------------------|

|---------------------------------------------------------------------|
|--------------13----13-14-16-------14------------11-13------10-11----|
|-----10-13-10----10----------14-13----13-11----11--------10----------|
|--11-----------------------------------------13--------11---------8--|
|------------------------------------------------------------------8--|
|------------------------------------------------------------------8--|

|--------|
|--------|
|--------|
|--xx8/--|
|--xx8/--|
|--xx8/--|

Last Chorus:

|--------------------------------------------------------------------------|
|--------------------------------------------------------------------------|
|--66666666----------3333333333333333--------------------------------------|
|--66666666-33333333-3333333333333333-44444444-33333333-44444444-66666666--|
|--44444444-33333333-1111111111111111-44444444-33333333-44444444-66666666--|
|-----------33333333------------------44444444-33333333-44444444-66666666--|

|--------------------------------------------------------|
|--------------------------------------------------------|
|--66666666----------------------------------------------|
|--66666666-33333333-----8~-----6~-44444444-33333333-6~--|
|--44444444-33333333-88888~-66666~-44444444-33333333-6~--|
|-----------33333333-88888~-66666~-44444444-33333333-6~--|
                     ....   ....

Outro:


|----------------------------------------------------------------------------
|---------------------------------------------------------------------13-13-1
|--10h11-10-10h11p10-10h11-10h11-11h13-13-13--10h11-10-10h11p10-10h11-x--x---
|--11----11-11-------11----11----11-----------11----11-11-------11----11-11--
|--------------------------------------------------------------------------
|----------------------------------------------------------------------------

or

|--------------------------------------------|
|--------------6666--------------------------|
|--6666666666666666-10-(x8)-11-(x4)-10-(x4)--|
|--4444444444444444-8-------8-------8--------|
|--4444444444444444-8-------8-------8--------|
|--4444444444444444-8-------8-------8--------|

then..

|-------------------------------------------------------|
|-------------------------------------------------------|
|--10h11-10-10h11p10-10h11-10h11-11h13-13-13------------|
|--11----11-11-------11----11----11----------8888-8888--|
|--------------------------------------------8888-8888--|
|--------------------------------------------8888-8888--|



















5. The Flood:


Intro
D|-------------------------------------------------------------|
A|-------------------------------------------------------------|
F|-----------------------------444-44-<4>----------------------|
C|---4--4-44-------------------333-33--------------------------|
G|---2--2-22----0-2-3-0-7-3-x2-555-55---------0-2-3-0-7-3-2-x2-|
C|-/---------------------------333-33-----12/------------------|
               (if the 7^ is too much of a stretch for you, just
                fret 2 on the c string)

D|---------------------|
A|---------------------|
F|-44444444------------|
C|-xxxxxxxx--5-5-66----|
G|-22222222--5-5-66----|
C|-----------5-5-66----|

Verse
D|----------------------------------------------------------------------|
A|----------------------------------------------------------------------|
F|-------------------------------------------44444444-1212121212121212--|
C|-7777777777777-3333333333333-0000000000000-xxxxxxxx--x-x-x-x-x-x-x-x--|
G|-7777777777777-3333333333333-0000000000000-22222222-1111111111111111--|
C|-7777777777777-3333333333333-0000000000000----------------------------|
    ............  ............  ............

D|---------------------------------------------------------------|
A|---------------------------------------------------------------|
F|------------------------------------44444444-1212121212121212--|
C|-7--7--77--3--3--3--33--0--0--0--00-xxxxxxxx--x-x-x-x-x-x-x-x--|
G|-7--7--77--3--3--3--33--0--0--0--00-22222222-1111111111111111--|
C|-7--7--77--3--3--3--33--0--0--0--00----------------------------|
   .  .  ..     .  .  ..     .  .  ..

D|-----------------------------------|
A|-----------------------------------|
F|-----------------------------------|
C|-00000000000000-3-55555555-55-66-7-|
G|-00000000000000-3-55555555-55-66-7-|
C|-00000000000000-3-55555555-55-66-7-|
    .............   ........

Chorus
D|------------------------------------------------------------|
A|------------------------------------------------------------|
F|------------------5555555555555555-101010101010101010101010-|
C|-7777777777777777-5555555555555555-101010101010101010101010-|
G|-7777777777777777-3333333333333335--8-8-8-8-8-8-8-8-8-8-8-8-|
C|-7777777777777777-------------------------------------------|

D|---------------------------|
A|---------------------------|
F|-99999999-1212121212121212-|
C|-99999999--x-x-x-x-x-x-x-x-|
G|-77777777-1111111111111111-|
C|---------------------------|

D|----------------------------------------------------------------|
A|----------------------------------------------------------------|
F|------------------5555555555555555-----101010101010101010101010-|
C|-7777777777777777-5555555555555555-000-101010101010101010101010-|
G|-7777777777777777-3333333333333335-000--8-8-8-8-8-8-8-8-8-8-8-8-|
C|-7777777777777777------------------000--------------------------|
                                     ...
D|-------------|
A|-------------|
F|-99999999-12-|
C|-99999999--x-|
G|-77777777-11-|
C|-------------|

Repeat Intro

Verse 2
D|----------------------------------------------------------------------|
A|----------------------------------------------------------------------|
F|-------------------------------------------44444444-1212121212121212--|
C|-7777777777777-3333333333333-0000000000000-xxxxxxxx--x-x-x-x-x-x-x-x--|
G|-7777777777777-3333333333333-0000000000000-22222222-1111111111111111--|
C|-7777777777777-3333333333333-0000000000000----------------------------|
    ............  ............  ............

D|------------------------------------------------------------------------|
A|------------------------------------------------------------------------|
F|----------------------------------------------44444444-1212121212121212-|
C|-7--7--77-3-333-333-333-333-333-3-0--0--0--00-xxxxxxxx--x-x-x-x-x-x-x-x-|
G|-7--7--77-3-333-333-333-333-333-3-0--0--0--00-22222222-1111111111111111-|
C|-7--7--77-3-333-333-333-333-333-3-0--0--0--00---------------------------|
   .  .  ..   ... ... ... ... ...   .  .  .  ..

D|-----------------------------------|
A|-----------------------------------|
F|-----------------------------------|
C|-00000000000000-3-55555555-55-66-7-|
G|-00000000000000-3-55555555-55-66-7-|
C|-00000000000000-3-55555555-55-66-7-|
    .............   ........


Repeat Chorus


D|----------------------------|
A|----------------------------|
F|-<2>------------------------|
C|---------------x3-------2---|
G|-----000-000-0------0-3--3--|
C|----------------------------|
       ... ... .

D|------------------------|
A|------------------------|
F|-<2>--------------------|
C|---------------x3---000-|
G|-----000-000-0------000-|
C|--------------------000-|
       ... ... .      ...

D|----------------------------|
A|----------------------------|
F|-<2>------------------------|
C|---------------x3-------2---|  x2
G|-----000-000-0------0-3--3--|
C|----------------------------|
       ... ... .

D|-------------------------------------| the second time that plays, there's
A|-------------------------------------| this little part another guitar plays
F|-------------------------------------| on the F string. here it is:
C|----7-777--7-777--7-777------2---x2--|
G|----7-777--7-777--7-777--0-3--3------| you can barely hear it, so listen
C|----7-777--7-777--7-777--------------| carefully for it.
        ...    ...    ...
                                      F|-222222222222555555555555999999999|

D|----------------------|
A|----------------------|
F|-----------------<2>~-|
C|---------2--x3--------|
G|-----0-3--3-----------|
C|----------------------|

Final Chorus
D|------------------------------------------------------------|
A|------------------------------------------------------------|
F|---------------------------------5555555555555555------<2>~-|
C|-5-5-66-7------------------------5555555555555555----2------|
G|-5-5-66-7----I FEEL THE PRESSURE-3333333333333333-0-3-3-----|
C|-5-5-66-7---------------------------------------------------|

D|----------------------------------------------------------------|
A|----------------------------------------------------------------|
F|------------------5555555555555555-----101010101010101010101010-|
C|-7777777777777777-5555555555555555-000-101010101010101010101010-|
G|-7777777777777777-3333333333333335-000--8-8-8-8-8-8-8-8-8-8-8-8-|
C|-7777777777777777------------------000--------------------------|
                                     ...

D|---------------------------|
A|---------------------------|
F|-99999999-1212121212121212-|
C|-99999999--x-x-x-x-x-x-x-x-|
G|-77777777-1111111111111111-|
C|---------------------------|

D|------------------------------------------------------------|
A|------------------------------------------------------------|
F|------------------5555555555555555-101010101010101010101010-|
C|-7777777777777777-5555555555555555-101010101010101010101010-|
G|-7777777777777777-3333333333333335--8-8-8-8-8-8-8-8-8-8-8-8-|
C|-7777777777777777-------------------------------------------|

D|---------------------------|
A|---------------------------|
F|-99999999-1212121212121212-|
C|-99999999--x-x-x-x-x-x-x-x-|
G|-77777777-1111111111111111-|
C|---------------------------|


D|----------------------------------------------------------------|
A|----------------------------------------------------------------|
F|------------------5555555555555555-----101010101010101010101010-|
C|-7777777777777777-5555555555555555-000-101010101010101010101010-|
G|-7777777777777777-3333333333333335-000--8-8-8-8-8-8-8-8-8-8-8-8-|
C|-7777777777777777------------------000--------------------------|
                                     ...
D|-------------|
A|-------------|
F|-99999999-12-|
C|-99999999--x-|
G|-77777777-11-|
C|-------------|

Outro
D|----------------------------|
A|----------------------------|
F|-<2>------------------------| x2
C|---------------x3-------2---|
G|-----000-000-0------0-3--3--|
C|----------------------------|
       ... ... .


D|-----------------|
A|-----------------|
F|-----------------|
C|---------2--x3---|
G|-----0-3--3------|
C|-----------------|



















6. Let It Go:

Intro:
Gtr.I:
e|--------------------------------------------------------------------------|
B|--------------------------------------------------------------------------|
G|-----------------------------------------(twelves)-----------(elevens)----|
D|12-12--13-10---10-10-12-8----8--8--10-8--12121212-7-7-7-7-1111111111111111|
A|10-10--11-8----8--8--10-6----6--6--8--6--10101010-5-5-5-5-9-9-9-9-9-9-9-9-|
E|------------------------------------------(tens)--------------------------|
                                    (x2)
Gtr.II:
e|--------------------------------------------------|\
B|--------------------------------------------------| \
G|--8-8--8------------------------------------------|  \  
D|--8-8--8-8--8-8--8-8-8-8-8-8--8-10-1010-10101010--|   \  
A|--6-6--6-8--8-8--8-8-8-8-8-8--8-10-1010-10101010--|    \
E|---------6--6-6--6-6-6-6-7-7--7-8--8-8--8-8-8-8---|     \
                                                           \
e|---------------------------------------------------|    (x2)  
B|---------------------------------------------------|     /
G|---------8--8-8--8-8-8-8---------------------------|    /
D|--6-6--6-8--8-8--8-8-8-8-8-8--8-8-8-8-8-8-8-8-8-8--|   /
A|--6-6--6-6--6-6--6-6-6-6-8-8--8-8-8-8-8-8-8-8-8-8--|  /
E|--4-4--4-----------------6-6--6-6-7-7-7-7-7-7-7-7--| /

Verse:
Gtrs.I&II:
e|----------------------------------------------------------------|
B|----------------------------------------------------------------|
G|----------------------------------------------------------------|
D|--5-5--5---------------8-8--4-5-5--5----------------8--8-8-8-8--|
A|--3-3--3-5-5--5-6-6--6-6-6--2-3-3--3--5-5--5-6-6--6-6--6-6-6-6--|
E|---------3-3--3-4-4--4----------------3-3--3-4-4--4-------------|
Pre-Chorus
e|------------------------------------------------------------------|
B|------------------------------------------------------------------|
G|------------------------------------------------------------------| (x2)
D|-5-5-5-5-5-5-5-5---------------------------------6-6-6-6-4-4-4-4--|
A|-3-3-3-3-3-3-3-3-5-5-5-5-5-5-5-5-6-6-6-6-6-6-6-6-6-6-6-6-2-2-2-2--|
E|-----------------3-3-3-3-3-3-3-3-4-4-4-4-4-4-4-4------------------|
   . . . . . . . . . . . . . . . . . . . . . . . . . . . . . . . .(Palm Mute)

e|--------------------------------------------------------------------------|
B|--------------------------------------------------------------------------|
G|--------------------------------------------------------------------------|
D|------------------------------------------5--5----5--5~~~~~~--------------|
A|---6--6----6--6-6----6-6-6-6-6-6----------3--3----3--3~~~~~~--------------|
E|---4--4----4--4-4----4-4-4-4-4-4------------------------------------------|

Chorus
Gtr.I:
e|--------------------------------------------------------------------------|
B|--------------------------------------------------------------------------|
G|-----------------------------------------(twelves)-----------(elevens)----|
D|12-12--13-10---10-10-12-8----8--8--10-8--12121212-7-7-7-7-1111111111111111|
A|10-10--11-8----8--8--10-6----6--6--8--6--10101010-5-5-5-5-9-9-9-9-9-9-9-9-|
E|------------------------------------------(tens)--------------------------|
                                    (x2)
Gtr.II:
e|--------------------------------------------------|\
B|--------------------------------------------------| \
G|--8-8--8------------------------------------------|  \  
D|--8-8--8-8--8-8--8-8-8-8-8-8--8-10-1010-10101010--|   \  
A|--6-6--6-8--8-8--8-8-8-8-8-8--8-10-1010-10101010--|    \
E|---------6--6-6--6-6-6-6-7-7--7-8--8-8--8-8-8-8---|     \
                                                           \
e|---------------------------------------------------|    (x2)  
B|---------------------------------------------------|     /
G|---------8--8-8--8-8-8-8---------------------------|    /
D|--6-6--6-8--8-8--8-8-8-8-8-8--8-8-8-8-8-8-8-8-8-8--|   /
A|--6-6--6-6--6-6--6-6-6-6-8-8--8-8-8-8-8-8-8-8-8-8--|  /
E|--4-4--4-----------------6-6--6-6-7-7-7-7-7-7-7-7--| /

Solo:
Gtr.I  ^^1 Step Bend
e|----------------------------------------10-----| \
B|--8----------------------9-12-9-12-9-12----13--|  \
G|--10^^r-8-10-7~~---7-10------------------------|   \
D|------------------9----------------------------|    \
A|-----------------------------------------------|     \
E|-----------------------------------------------|      \
                                                         \
Gtr.II                                                   /
e|-----------------------------------------------|      /
B|-----------------------------------------------|     /
G|--8--------------------------------------------|    /
D|--8----------8-------------8---------------10--|   /
A|--6----------8-------------8---------------10--|  /
E|-------------6-------------7---------------8---| /

Gtr.I                      ^1/2 Step Bend 
e|--------------------8-8-------11--11---|\
B|------------------9---------------11^--| \
G|----------------8-------10-10----------|  \
D|-------------10------------------------|   \
A|-----8-10-11---------------------------|    \
E|--11-----------------------------------|     \
                                                \
Gtr.2                                           /
e|---------------------------------|           /
B|---------------------------------|          /
G|---------------------------------|         /
D|-------------6----------------1--|        /
A|-------------6----------------1--|       /
E|-------------4-------------------|      /

Gtr.I
e|-----------------------10-11-10----10-13^^r-11-10-1--|\
B|--------11-------11-12----------13-------------------| \
G|--12-13----13-13-------------------------------------|  \
D|-----------------------------------------------------|   \
A|-----------------------------------------------------|    \
E|-----------------------------------------------------|     \             
                                                              \
Gtr.II                                                         \
e|-----------------------------------------------------------|  \ 
B|-----------------------------------------------------------|   \ 
G|-----------------------------------------------------------|   /
D|--8-8-8-8-8-8-8-8-8-8-8-8-8-8-8-8-8-8-8-8-8-8-8-8-8-8-8-8--|  /
A|--8-8-8-8-8-8-8-8-8-8-8-8-8-8-8-8-8-8-8-8-8-8-8-8-8-8-8-8--| /
E|--6-6-6-6-6-6-6-6-6-6-6-6-6-6-6-6-7-7-7-7-7-7-7-7-7-7-7-7--|/


Gtr.I               (9 10 12)                  ^^Full Step Bend 
e|--10~~-13-10~~-----------------------------18^^r-16-16-16h18p16--15-----|
B|-------------------------91012~~-15-13-13~---------------------18---16--|
G|--------------------91012-----------------------------------------------|
D|---------------91012----------------------------------------------------|
A|------------------------------------------------------------------------|
E|------------------------------------------------------------------------|\
                                                                            \
Gtr.II                                                                      /
e|------------------------------------------------------------------------|/
B|------------------------------------------------------------------------|
G|------------------------------------------------------------------------|
D|--8-8--8-----------------------------------------------8--8-8--8-8-8-8--|
A|--6-6--6-8--8-8--8-8-8-8-8-8--8-10-1010-101010106-6--6-6--6-6--6-6-6-6--|
E|---------6--6-6--6-6-6-6-7-7--7-8--8-8--8-8-8-8-4-4--4------------------|

Gtr.I
e|--16181615---------16181615-------16181615-------16181615-----------------|
B|----------181615~~----------181615---------181615---------18161516~~~~~~~-|
G|--------------------------------------------------------------------------|
D|--------------------------------------------------------------------------|
A|--------------------------------------------------------------------------|
E|--------------------------------------------------------------------------|

e|--------------------------------------------------------------------------|
B|--------------------------------------------------------------------------|
G|--------------------------------------------------------------------------|
D|--------------------------------------------------------------------------|
A|--8--8--8--8--8--8--8--8--8--8--8--8--8--8--8--8--8--8--8--8--8--10~~~~~--|
E|--6--6--6--6--6--6--6--6--6--6--6--6--6--6--6--6--6--6--6--6--6--8-~~~~~--|



















7. You Are So Beautiful:

Intro
d|---------------------------------------------------------------------------
A|--------------------------------------------------------------------------
F|---------------------------------------------------------------------------
C|-33-7-22--33-7-22--33-7-22--33-7-22----------------------------------------
G|-33-7-22--33-7-22--33-7-22--33-7-22----------------------------------------
C|-33-7-22--33-7-22--33-7-22--33-7-22----------------------------------------

Verse
d|---------------------------------------------------------------------------
A|---------------------------------------------------------------------------
F|-777767-333323-----------------777767-333323----------------7--------------
C|-777767-333323-33-77-0---------777767-333323-33-77-77777777-7--------------
G|-555545-111101-33-77-0---------555545-111101-33-77-55555555-5--------------
C|---------------33-77-0-2-3-7-----------------33-77-00000000-0--------------
                                                     PM-----|
Chorus
d|---------------------------------------------------------------------------
A|---------------------------------------------------------------------------
F|-777777-333333-------------------------------------------------------------
C|-777777-333333-333-777-00223377---X2---------------------------------------
G|-555455-111011-333-777-00223377--------------------------------------------
C----------------333-777-00223377--------------------------------------------

Post Chorus
d|---------------------------------------------------------------------------
A|---------------------------------------------------------------------------
F|---------------------------------------------------------------------------
C|-00000-00------------------------------------------------------------------
G|-00000-00------------------------------------------------------------------
C|-00000-00------------------------------------------------------------------
   PM------|

Verse
d|---------------------------------------------------------------------------
A|---------------------------------------------------------------------------
F|-777767-333323-----------------777767-333323-------3-5---------------------
C|-777767-333323-33-77-0---------777767-333323-33-77-3-5--any divebomb here--
G|-555545-111101-33-77-0---------555545-111101-33-77-1-3---------------------
C|---------------33-77-0-2-3-7-----------------33-77-------------------------
                                                     PM-----|
Chorus
d|---------------------------------------------------------------------------
A|---------------------------------------------------------------------------
F|-777777-333333--------------------------------------6666-------------------
C|-777777-333333-333-777-00223377---X2----0000222233336666--after second 
G|-555455-111011-333-777-00223377---------0000222233334444-------------------
C|---------------333-777-00223377---------000022223333-----------------------
                                          PM-------------|

Bridge
d|---------------------------------------------------------------------------
A|---------------------------------------------------------------------------
F|------------66666-66---33333-3---------------------------------------------
C|-77777-77---77777-77---33333-33-77777-7-023532--X3-------------------------
G|-55555-55---44444-44---11111-13-55555-5-023532-----------------------------
C|-00000-00---------------------3-00000-0-023532-----------------------------
  pm--------------------------------------------|

last time
d|---------------------------------------------------------------------------
A|---------------------------------------------------------------------------
F|---------------------------------------------------------------------------
C|--023532-023532-023532-023532~---------------------------------------------
G|--023532-023532-023532-023532~---------------------------------------------
C|--023532-023532-023532-023532~---------------------------------------------
    pm-----------------------|

Leads for Bridge
d|-------------------------------------14--16--------------------------------
A|-14--14--16--17--13--17--19--12--12----------------------------------------
F|---13--13--13--13--13--13--13--13--13--13--13------------------------------
C|---------------------------------------------------------------------------
G|---------------------------------------------------------------------------
C|---------------------------------------------------------------------------
  Theres a little bit after this but i cant make it out
  because of craigs screaming.


Chorus

Outro
d|---------------------------------------------------------------------------
A|-----13----13-----13----15-------------------------------------------------
F|-----15^17-15^17--15^17-17^19----------------------------------------------
C|-000-----------------------------------------------------------------------
G|-000-----------------------------------------------------------------------
C|-000-----------------------------------------------------------------------



















8. This War Is Ours (The Guillotine Part II)


Intro
     .................................
D|---------------------------------------------------------------------------|
A|---------------------------------------------------------------------------|
F|---------------------------------------------------------------------------|
C|---444444444444444444444444444444444---------------------------------------|
G|---444444444444444444444444444444444---------------------------------------|
C|---444444444444444444444444444444444---------------------------------------|

D|-------------9p5----------------------------9p5----------------------------|
A|-----------7-----7------------------------7-----7--------------------------|
F|---------6---------6--------------------6---------6------------------------|
C|-------7------------------------------7------------------------------------|
G|-----9------------------------------9--------------------------------------|
C|---------------------------------------------------------------------------|

D|------------10p5-----------------------------10p5--------------------------|
A|---------7-------7------------------------7-------7------------------------|
F|-------7-----------7--------------------7-----------7----------------------|
C|-----7--------------------------------7------------------------------------|
G|---9--------------------------------9--------------------------------------|
C|---------------------------------------------------------------------------|

D|---------------17p15----------------------------17p15----------------------|
A|-----------15--------15----------------------15-------15-------------------|
F|--------14--------------14----------------14-------------14----------------|
C|-----16--------------------------------16----------------------------------|
G|--17--------------------------------17-------------------------------------|
C|---------------------------------------------------------------------------|

D|---------------------------------------------------------------------------|
A|---------------------------------------------------------------------------|
F|-----------------6-7-----------------7-9-----------------------------------|
C|-----------6-7-9--------------7-9-11---------------------------------------|
G|----5-7-9--------------7-9-11----------------------------------------------|
C|---------------------------------------------------------------------------|



D|-------------9p5----------------------------9p5----------------------------|
A|-----------7-----7------------------------7-----7--------------------------|
F|---------6---------6--------------------6---------6------------------------|
C|-------7------------------------------7------------------------------------|
G|-----9------------------------------9--------------------------------------|
C|---------------------------------------------------------------------------|

D|------------10p5-----------------------------10p5--------------------------|
A|---------7-------7------------------------7-------7------------------------|
F|-------7-----------7--------------------7-----------7----------------------|
C|-----7--------------------------------7------------------------------------|
G|---9--------------------------------9--------------------------------------|
C|---------------------------------------------------------------------------|

D|---------------17p15----------------------------17p15----------------------|
A|-----------15--------15----------------------15-------15-------------------|
F|--------14--------------14----------------14-------------14----------------|
C|-----16--------------------------------16----------------------------------|
G|--17--------------------------------17-------------------------------------|
C|---------------------------------------------------------------------------|

D|---------------------------------------------------------------------------|
A|----15-14----15------------------------------------------------------------|
F|----------16----16-14--16-14-13-14-13-11-9~--------------------------------|
C|---------------------------------------------------------------------------|
G|---------------------------------------------------------------------------|
C|---------------------------------------------------------------------------|

                                                                       Whammy bar
D|---------------------------------------------------------------------------|
A|-5555-7777-9999-101010--9h10p9----10h12p10----12h14p12----14h15p14-----[12]|
F|-------------------------------9-----------11----------13----------14------|
C|---------------------------------------------------------------------------|
G|---------------------------------------------------------------------------|
C|---------------------------------------------------------------------------|

Verse
2x     ..    .    ..   .    . 
D|---------------------------------------------------------------------------|
A|---------------------------------------------------------------------------|
F|------------------------------4--------------------------------------------|
C|--------------4-----7----7------6h7p6-----4--------------------------------|
G|----------7-----------------------------7----------------------------------|
C|-----444----4---44---4----4------------------------------------------------|
       dud   d    dd   d    d

      ..     .    ..   .     .
D|---------------------------------------------------------------------------|
A|---------------------------------------------------------------------------|
F|------------------------------4--------------------------------------------|
C|--------------4-----7----7------6h7p6--------------------------------------|
G|----------7----------------------------7-5---------------------------------|
C|-----44-----4---44---4-----4-----------------------------------------------|
       dd   d     dd   d     d
      ...     .   ..   .     .
D|---------------------------------------------------------------------------|
A|---------------------------------------------------------------------------|
F|---------------------------------------------------------------------------|
C|--------------4-----6----7----6-7-6----------------------------------------|
G|----------7-------------------------7-5------------------------------------|
C|----000-----0---00---0-----0-----------------------------------------------|
      dud     d   dd   d     d
         ..   .   ..   .    .  
D|---------------------------------------------------------------------------|
A|---------------------------------------------------------------------------|
F|--------------------4---4--------------------------------------------------|
C|--------------4--------------7-9-7-6---------------------------------------|
G|----------7--------------------------7-------------------------------------|
C|-------00---0---00---0----0------------------------------------------------|
         dd   d   dd   d    d


BreakDown

pm       ......   . .       ......   ..
D|---------------------------------------------------------------------------|
A|---------------------------------------------------------------------------|
F|---------------------------------------------------------------------------|
C|-----------------------------------22--------------------------------------|
G|----2b----------0-2---2b-----------22--------------------------------------|
C|----2b--00000---0-2---2b---00000---22--------------------------------------|
          dudud              dudud


Chourse
                         .                    ..
D|---------------------------------------------------------------------------|
A|---------------------------------------------------------------------------|
F|----77777777---666666------------------------------------------------------|
C|----77777777---666666--0-444444----222222---00-----------------------------|
G|----55555555---444444--0-444444----222222---00-----------------------------|
C|-----------------------0-444444----222222---00-----------------------------|

D|---------------------------------------------------------------------------|
A|---------------------------------------------------------------------------|
F|----77777777----6666666----------------------------------------------------|
C|----77777777----6666666-----04--------11-9-5-6-7-6--7----------------------|
G|----55555555----4444444-----04--------9--7-7-4-5-4--7----------------------|
C|----------------------------04----------------------7----------------------|

                         .                    ..
D|---------------------------------------------------------------------------|
A|---------------------------------------------------------------------------|
F|----77777777---666666------------------------------------------------------|
C|----77777777---666666--0-444444----222222---22-----------------------------|
G|----55555555---444444--0-444444----222222---22-----------------------------|
C|-----------------------0-444444----222222---22-----------------------------|
                              

                              ..                           ................
D|---------------------------------------------------------------------------|
A|---------------------------------------------------------------------------|
F|----77777777----6666666----------------------------------------------------|
C|----77777777----6666666-----04--------11-9-5-6-7-6--7-4--4744744744744744--|
G|----55555555----4444444-----04--------9--7-7-4-5-4--7-4--------------------|
C|----------------------------04----------------------7-4--------------------|

Verse2
2x    ...    .    ..   .    . 
D|---------------------------------------------------------------------------|
A|---------------------------------------------------------------------------|
F|------------------------------4--------------------------------------------|
C|--------------4-----7----7------6h7p6-----4--------------------------------|
G|----------7-----------------------------7----------------------------------|
C|-----444----4---44---4----4------------------------------------------------|
       dud   d    dd   d    d

       ..     .   ..   .     .
D|---------------------------------------------------------------------------|
A|---------------------------------------------------------------------------|
F|------------------------------4--------------------------------------------|
C|--------------4-----7----7------6h7p6--------------------------------------|
G|----------7----------------------------7-5---------------------------------|
C|-----44-----4---44---4-----4-----------------------------------------------|
       dd   d     dd   d     d

      ...    .   ..    .     .
D|---------------------------------------------------------------------------|
A|---------------------------------------------------------------------------|
F|---------------------------------------------------------------------------|
C|--------------4-----6----7----6-7-6----------------------------------------|
G|----------7-------------------------7-5------------------------------------|
C|----000-----0---00---0-----0-----------------------------------------------|
      dud     d   dd   d     d
        ..    .   ..   .    .    
D|---------------------------------------------------------------------------|
A|---------------------------------------------------------------------------|
F|--------------------4---4--------------------------------------------------|
C|--------------4--------------7-9-7-6---------------------------------------|
G|----------7--------------------------7-------------------------------------|
C|-------00---0---00---0----0------------------------------------------------|
         dd   d   dd   d    d

BreakDown

pm       ......   . .       ......   ..
D|---------------------------------------------------------------------------|
A|---------------------------------------------------------------------------|
F|---------------------------------------------------------------------------|
C|-----------------------------------22--------------------------------------|
G|----2b----------0-2---2b-----------22--------------------------------------|
C|----2b--00000---0-2---2b---00000---22--------------------------------------|
          dudud              dudud

Chourse2
                         .                    ..
D|---------------------------------------------------------------------------|
A|---------------------------------------------------------------------------|
F|----77777777---666666------------------------------------------------------|
C|----77777777---666666--0-444444----222222---22-----------------------------|
G|----55555555---444444--0-444444----222222---22-----------------------------|
C|-----------------------0-444444----222222---22-----------------------------|

D|---------------------------------------------------------------------------|
A|---------------------------------------------------------------------------|
F|----77777777----6666666----------------------------------------------------|
C|----77777777----6666666-----04--------11-9-7-6-7-6--7----------------------|
G|----55555555----4444444-----04--------9--7-5-4-5-4--7----------------------|
C|----------------------------04----------------------7----------------------|

                         .                    ..
D|---------------------------------------------------------------------------|
A|---------------------------------------------------------------------------|
F|----77777777---666666------------------------------------------------------|
C|----77777777---666666--0-444444----222222---22-----------------------------|
G|----55555555---444444--0-444444----222222---22-----------------------------|
C|-----------------------0-444444----222222---22-----------------------------|
                              

                              ..                           
D|---------------------------------------------------------------------------|
A|---------------------------------------------------------------------------|
F|----77777777----6666666----------------------------------------------------|
C|----77777777----6666666-----04--------11-9-7-6-7-6--7-4--------------------|
G|----55555555----4444444-----04--------9--7-5-4-5-4--7-4--------------------|
C|----------------------------04----------------------7-4--------------------|



                        ...............
D|---------------------------------------------------------------------------|
A|---------------------------------------------------------------------------|
F|---------------------------------------------------------------------------|
C|--11-9-7-6-7-6--7-4---4744744744744744-------------------------------------|
G|--9--7-5-4-5-4--7-4--------------------------------------------------------|
C|----------------7-4--------------------------------------------------------|


Interlude

D|----------------------------------------------12---------------------------|
A|----------12h14p12-------14----12h14p12-----------14-12--------------------|
F|----9h11-------------14----14-----------14--13-----------------------------|
C|---------------------------------------------------------------------------|
G|---------------------------------------------------------------------------|
C|---------------------------------------------------------------------------|

D|-------12------------------------------------------------------------------|
A|-------------15h17p15--14--12------------10/12-12/14-14/15---12------------|
F|--------------------------------14----9--------------------------9---------|
C|---------------------------------------------------------------------------|
G|----14----14---------------------------------------------------------------|
C|---------------------------------------------------------------------------|

D|---------------------------------------------------------------------------|
A|--------------7r-----------------------------------------------------------|
F|--------------6r-----------------------------------------------------------|
C|----6---7------------------------------------------------------------------|
G|------7---9----------------------------------------------------------------|
C|---------------------------------------------------------------------------|


D|-----------------------------9---------------------------------------------|
A|----------10------10--------------------5----------7-----------------------|
F|--------------11---------11---------------7----------9---------------------|
C|------11--------------11-------------7----------9--------------------------|
G|---9-------------------------------5----------7----------------------------|
C|---------------------------------------------------------------------------|

D|-----------------------------9---------------------------------------------|
A|----------10------10--------------------5----------7-----------------------|
F|--------------11---------11---------------7----------9---------------------|
C|------11--------------11-------------7----------9--------------------------|
G|---9-------------------------------5----------7----------------------------|
C|---------------------------------------------------------------------------|

                                                           Strum the last part
                                                              |      | 
D|-----------------------------9---------------------------------------------|
A|----------10------10--------------------5----------7---------------5-------|
F|--------------11---------11---------------7----------9------7------6-------|
C|------11--------------11-------------7----------9-----------7------6-------|
G|---9-------------------------------5----------7-------------5------4-------|
C|---------------------------------------------------------------------------|


BuildUp
     ......................................   
D|---------------------------------------------------------------------------|
A|---------------------------------------------------------------------------|
F|---------------------------------------------------------------------------|
C|----4-4444444444444---00000000----22222222---------------------------------|
G|----4-4444444444444---00000000----22222222---------------------------------|
C|----4-4444444444444---00000000----22222222---------------------------------|

       ....................................
D|---------------------------------------------------------------------------|
A|---------------------------------------------------------------------------|
F|---------------------------------------------------------------------------|
C|-----4-4444444444444---66666666---77777777---------------------------------|
G|-----4-4444444444444---66666666---77777777---------------------------------|
C|-----4-4444444444444---66666666---77777777---------------------------------|

D|---------------------------------------------------------------------------|
A|---------------------------------------------------------------------------|
F|---------------------------------------------------------------------------|
C|----9b---7h9p7h9p7h9p7h9p7h9p7h9-------------------------------------------|
G|-----------------------------------7-9--------7--9---1112------------------|
C|---------------------------------------------------------------------------|


2x
     .................................................................
D|---------------------------------------------------------------------------|
A|----------17------19-------------------------------------------------------|
F|---------------------------------------16----------------------------------|
C|---161616----1616------161616-19--1616-----161616--1818-1919-1818----------|
G|--------------------------------------------------------------------19-----|
C|---------------------------------------------------------------------------|

   ......................................................................
D|---------------------------------------------------------------------------|
A|---------------------------------------------------------------------------|
F|----------11------14----------13-------14----------------------------------|
C|---121212----1212------121212-----1212------121212----1313-1414-1313-11----|
G|---------------------------------------------------------------------------|
C|---------------------------------------------------------------------------|


  . ..........................
D|-----------------------------------------------16-17-16-17-----------------|
A|------------------------------17--------17---------------------------------|
F|---------------------------------16--------16------------------------------|
C|---------11--------14---------------18-------------------------------------|
G|--121212-----1212-----121212-----------------------------------------------|
C|---------------------------------------------------------------------------|

Solo

D|-19b21b19p17----1919-17-16-1717-16-14-1616-14---------------14-16-17-16-14^|
A|-----------------------------------------------17--14-15-17----------------|
F|---------------------------------------------------------------------------|
C|---------------------------------------------------------------------------|
G|---------------------------------------------------------------------------|
C|---------------------------------------------------------------------------|

D|-----------------------------------------------------2121-17----------17---|
A|-------------------------------------------------------------19----19------|
F|---7-9-11---9-11-13---11-13-14---13-14-16---14-16---------------18---------|
C|---------------------------------------------------------------------------|
G|---------------------------------------------------------------------------|
C|---------------------------------------------------------------------------|

                             ...............................................
D|---2121-17----------17-----------------------------------------------------|
A|-----------19----19--------1414-1515-1414---1010-1414-10101010-14-10101010-|
F|--------------18-----------------------------------------------------------|
C|---------------------------------------------------------------------------|
G|---------------------------------------------------------------------------|
C|---------------------------------------------------------------------------|
  
    ...............
D|--------------------------------------------------------------12-9-12b-----|
A|--99-1010-999----9~------------------------------------10------------------|
F|--------------11-------------------------------9----------11---------------|
C|--------------------------------9-------11-------11------------------------|
G|------------------------9-11-12------12-----12-----------------------------|
C|---------------------------------------------------------------------------|


pm       ......   . .       ......   ..
D|---------------------------------------------------------------------------|
A|---------------------------------------------------------------------------|
F|-------------------------------------------7/------------------------------|
C|-----------------------------------22------7/-------------6--7--6--7-------|
G|----2b----------0-2---2b-----------22------5/-------------4--5--4--7-------|
C|----2b--00000---0-2---2b---00000---22------------------------------7-------|
          dudud              dudud


                         .                    ..
D|---------------------------------------------------------------------------|
A|---------------------------------------------------------------------------|
F|----77777777---666666------------------------------------------------------|
C|----77777777---666666--0-444444----222222---22-----------------------------|
G|----55555555---444444--0-444444----222222---22-----------------------------|
C|-----------------------0-444444----222222---22-----------------------------|

                              ..
D|---------------------------------------------------------------------------|
A|---------------------------------------------------------------------------|
F|----77777777----6666666----------------------------------------------------|
C|----77777777----6666666-----04--------11-9-7-6-7-6--7----------------------|
G|----55555555----4444444-----04--------9--7-5-4-5-4--7----------------------|
C|----------------------------04----------------------7----------------------|

                                            
D|---------------------------------------------------------------------------|
A|---------------------------------------------------------------------------|
F|----77777777---666666------------------------------------------------------|
C|----77777777---666666---444444----222222-----------------------------------|
G|----55555555---444444---444444----222222-----------------------------------|
C|------------------------444444----222222-----------------------------------|

                              .. 
D|---------------------------------------------------------------------------|
A|---------------------------------------------------------------------------|
F|----77777777----6666666----------------------------------------------------|
C|----77777777----6666666-----04--------11-9-7-6-7-6--7-4--------------------|
G|----55555555----4444444-----04--------9--7-5-4-5-4--7-4--------------------|
C|----------------------------04----------------------7-4--------------------|




D|---------------------------------------------------------------------------|
A|---------------------------------------------------------------------------|
F|---------------------------------------------------------------------------|
C|---11-9-7-6-7-6--7-4---------11-9-7-6-7-6--7-4-----------------------------|
G|---9--7-5-4-5-4--7-4---------9--7-5-4-5-4--7-4-----------------------------|
C|-----------------7-4-----------------------7-4-----------------------------|

D|---------------------------------------------------------------------------|
A|---------------------------------------------------------------------------|
F|---------------------------------------------------------------------------|
C|--11-9-7-6-7-6--7b---------------------------------------------------------|
G|--9--7-5-4-5-4--7b--------------------------------------------------------|
C|----------------7b---------------------------------------------------------|

pm       ......   . .       ......   ..
D|---------------------------------------------------------------------------|
A|---------------------------------------------------------------------------|
F|---------------------------------------------------------------------------|
C|---------------------------------------------------------------------------|
G|----2b----------0-2---2b------------4-7--7b------------4-7--7b-------------|
C|----2b--00000---0-2---2b---00000----4-7--7b--44444\----4-7--7b--44444\-----|
          dudud              dudud             dudud              dudud
                 ..........       ......   ....    ........   ...       ......
D|---------------------------------------------------------------------------|
A|---------------------------------------------------------------------------|
F|---------------------------------------------------------------------------|
C|--7-6-4-2------------------------------------------------------------------|
G|--7-6-4-2----2b--------0-2--2b------------4-7--7b-----------4-7--7b--------|
C|--7-6-4-2----2b-00000--0-2--2b---00000----4-7--7b--44444\---4-7--7b--44444\|
                       ........
D|---------------------------------------------------------------------------|
A|---------------------------------------------------------------------------|
F|---------------------------------------------------------------------------|
C|--7-6-4-2------------------------------------------------------------------|
G|--7-6-4-2--------2b--------------------------------------------------------|
C|--7-6-4-2--------2b---0000000----------------------------------------------|
                    dududud



















9. 10 Miles Wide:


Intro
~~~~~
e|------------------------------|
b|------------------------------|
g|------------------------------|
d|---------3p0------------2-----|
a|--5p0--------0-3-0-0--4---4---|
e|-----0000----0-3-0-0----------|
    ^  ****^   *     *      ^
e|------------------------------|
b|------------------------------|
g|------------------------------|
d|---------3p0------------------|
a|--5p0--------0-3-0-0--0000----|
e|-----0000----0-3-0-0--0000----|
    ^  ****^   *     *  ****
e|------------------------------|
b|------------------------------|
g|------------------------------|
d|---------3p0------------2-----|
a|--5p0--------0-3-0-0--4---4---|
e|-----0000----0-3-0-0----------|
    ^  ****^   *     *      ^
e|------------------------------|
b|------------------------------|
g|------------------------------|
d|---------3p0------------2-----|
a|--5p0--------0-3-0-0--4---4~~-|
e|-----0000----0-3-0-0----------|
    ^  ****^   *     *      ^


Verse
~~~~~
e|-------------------------------------------------------------------------|
b|-------------------------------------------------------------------------|
g|-----------------------------------------------------------------66666666|
d|--0---3-0-3-0---2---0---3-0-3-0---2---0---3-0-3-0---2---33333333-66666666|
a|--0---3-0-3-0---2---0---3-0-3-0---2---0---3-0-3-0---2---33333333-44444444|
e|--0-003-0-3-0---2---0-003-0-3-0---2---0-003-0-3-0---2---33333333---------|


Chorus
~~~~~~
e|-------------------------------------------|
b|-------------------------------------------|
g|--7--7-5-3--2-3--10--10-10-----------------|
d|--7--7-5-3--2-3--10--10-10---11-11--11-11--|
a|--5--5-3-1--0-1--8---8--8----11-11--11-11--|
e|-----------------------------11-11--11-11--|

e|----------------------------------|
b|----------------------------------|
g|--7--7-5-3--2-3--10--10-10--------|
d|--7--7-5-3--2-3--10--10-10---11---|
a|--5--5-3-1--0-1--8---8--8----11---|
e|-----------------------------11---|


Fill 1
~~~~~~
e|------------------------------|
b|------------------------------|
g|------------------------------|
d|---------3p0------------2-----|
a|--5p0--------0-3-0-0--4---4---|
e|-----0000----0-3-0-0----------|
    ^  ****^   *     *      ^
(Solo plays over the second time)
e|------------------------------|
b|------------------------------|
g|------------------------------|
d|---------3p0------------2-----|
a|--5p0--------0-3-0-0--4---4---|
e|-----0000----0-3-0-0----------|
    ^  ****^   *     *      ^

Solo/Fill 1
~~~~~~~~~~~  (Solo starts where indicated before)
e|----------------------------10-12-10-13-10------------|
b|---13b15-13p10h13p10-13b15----------------------------|
g|------------------------------------------------------|
d|------------------------------------------------------|
a|------------------------------------------------------|
e|------------------------------------------------------|


Verse
~~~~~
e|-------------------------------------------------------------------------|
b|-------------------------------------------------------------------------|
g|-----------------------------------------------------------------66666666|
d|--0---3-0-3-0---2---0---3-0-3-0---2---0---3-0-3-0---2---33333333-66666666|
a|--0---3-0-3-0---2---0---3-0-3-0---2---0---3-0-3-0---2---33333333-44444444|
e|--0-003-0-3-0---2---0-003-0-3-0---2---0-003-0-3-0---2---33333333---------|


Chorus
~~~~~~
e|-------------------------------------------|
b|-------------------------------------------|
g|--7--7-5-3--2-3--10--10-10-----------------|
d|--7--7-5-3--2-3--10--10-10---11-11--11-11--|
a|--5--5-3-1--0-1--8---8--8----11-11--11-11--|
e|-----------------------------11-11--11-11--|

e|-------------------------------------------|
b|-------------------------------------------|
g|--7--7-5-3--2-3--10--10-10-----------------|
d|--7--7-5-3--2-3--10--10-10---11-11--11-11--|
a|--5--5-3-1--0-1--8---8--8----11-11--11-11--|
e|-----------------------------11-11--11-11--|

e|-------------------------------------------|
b|-------------------------------------------|
g|--7--7-5-3--2-3--10--10-10-----------------|
d|--7--7-5-3--2-3--10--10-10---11-11--11-11--|
a|--5--5-3-1--0-1--8---8--8----11-11--11-11--|
e|-----------------------------11-11--11-11--|

e|----------------------------------|
b|----------------------------------|
g|--7--7-5-3--2-3--10--10-10--------|
d|--7--7-5-3--2-3--10--10-10---11---|
a|--5--5-3-1--0-1--8---8--8----11---|
e|-----------------------------11---|


Bridge
~~~~~~
e|----------------------------------------------------|
b|----------------------------------------------------|
g|----------------------------------------------------|
d|----3-5-5s7-5---3-5-5s7---3-5s7-5-3-----------------|
a|--5-----------4---------1-----------0-7-4-7s8-7-0---|
e|----------------------------------------------------|
        ^           ^         ^
e|----------------------------------------------------|
b|----------------------------------------------------|
g|----------------------------------------------------|
d|----3-5-5s7-5---3-5-5s7---3-5s7-5-3-----------------|
a|--5-----------4---------1-----------0-7-4-7s8-7-0---|
e|----------------------------------------------------|
        ^           ^         ^
e|----------------------------------------------------|
b|----------------------------------------------------|
g|----------------------------------------------------|
d|----3-5-5s7-5---3-5-5s7---3-5s7-5-3-----------------|
a|--5-----------4---------1-----------0-7-4-7s8-7-0---|
e|----------------------------------------------------|
        ^           ^         ^

Pre-Chorus:
e|------------------------------|
b|------------------------------|
g|------------------------------|
d|---------3p0------------2-----|
a|--5p0--------0-3-0-0--4---4---|
e|-----0000----0-3-0-0----------|
    ^  ****^   *     *      ^
e|------------------------------|
b|------------------------------|
g|------------------------------|
d|---------3p0------------2-----|
a|--5p0--------0-3-0-0--4---4---|
e|-----0000----0-3-0-0----------|
    ^  ****^   *     *      ^


Chorus:
e|-------------------------------------------|
b|-------------------------------------------|
g|--7--7-5-3--2-3--10--10-10-----------------|
d|--7--7-5-3--2-3--10--10-10---11-11--11-11--|
a|--5--5-3-1--0-1--8---8--8----11-11--11-11--|
e|-----------------------------11-11--11-11--|

e|-------------------------------------------|
b|-------------------------------------------|
g|--7--7-5-3--2-3--10--10-10-----------------|
d|--7--7-5-3--2-3--10--10-10---11-11--11-11--|
a|--5--5-3-1--0-1--8---8--8----11-11--11-11--|
e|-----------------------------11-11--11-11--|

e|-------------------------------------------|
b|-------------------------------------------|
g|--7--7-5-3--2-3--10--10-10-----------------|
d|--7--7-5-3--2-3--10--10-10---11-11--11-11--|
a|--5--5-3-1--0-1--8---8--8----11-11--11-11--|
e|-----------------------------11-11--11-11--|

e|---------------------------------------------------------------|
b|---------------------------------------------------------------|
g|--7--7-5-3--2-3--10--10-10-------------------------------------|
d|--7--7-5-3--2-3--10--10-10---11--11-11--11-11--11--11-11--11-11|
a|--5--5-3-1--0-1--8---8--8----11--11-11--11-11--11--11-11--11-11|
e|-----------------------------11--11-11--11-11--11--11-11--11-11|


Outro:
e|------------------------------|
b|------------------------------|
g|------------------------------|
d|---------3p0------------2-----|
a|--5p0--------0-3-0-0--4---4---|
e|-----0000----0-3-0-0----------|
    ^  ****^   *     *      ^
e|------------------------------|
b|------------------------------|
g|------------------------------|
d|---------3p0------------2-----|
a|--5p0--------0-3-0-0--4---4---|
e|-----0000----0-3-0-0----------|
    ^  ****^   *     *      ^
e|------------------------------|
b|------------------------------|
g|------------------------------|
d|---------3p0------------2-----|
a|--5p0--------0-3-0-0--4---4---|
e|-----0000----0-3-0-0----------|
    ^  ****^   *     *      ^
e|-------------------------|
b|-------------------------|
g|-------------------------|
d|---------3p0-0-3--0------|
a|--5p0--------0-3--0------|
e|-----0000----0-3--0------|
    ^  ****^             



















10. Harder Than You Know:

these are the chords used throughout the song
Eb Gmaj7 G# G#m Bb Cm  G# G#m Gmaj7
|-------------------------------|
|-8---8---9---9--8--8---4--4--6-|
|-8--10---8---8--7--8---5--4--4-|
|-8---9--10---9--8--10--6--6--3-|
|-6--10--11--11--8--10--6--6--5-|
|----------------6--8---4--4--3-|

Intro/Verse
|-------------------------------------------------------------| 
|-6----8----------------8--9/8---11-9/8------8---9-8---8------|
|---8-----8------10-----------10---------8----------8-8-8-10--|
|----8------8-------9-----9------------10------------9--------|
|-6-----6-----6--10---10---------11--------11---11------------|
|-------------------------------------------------------------|
on the intro, the second time you strum the G#m chord here ^^^

Prechorus
Eb          Bb
Are we just lost in time? 
Cm               Bb            G#
I wonder if your love's the same 
G#m
Cause I'm not over you 

Chorus
Eb
Baby, don't talk to me 
G#                G#m
I'm trying to let go 
Eb                Gmaj7           G#
Not loving you is harder than you know
G#m 
Cause girl you're driving me so crazy 

right before the interlude, do this transition
|--------------------|
|--------------------|
|--------------------|
|-66666666666666666--|
|-66666666666666666--|
|-44444444444444444--|

Interlude
(this im not so sure about, cause i can barely hear it, 
but this is what i got) oh, and these are power chords

Eb                
So I'll make the call 
B
And I'll leave today 
Bb
I'm gonna miss you cause I love you baby 
Eb
And I'll make the call 
B
I'm leaving today 
Bb
And leaving always drives me crazy 

i have some of the solo down, 
but ill wait until i have it perfect

than just repeat the song

here's the lyrics:
You said this could only get better 
There's no rush cause we have each other 
You said this would last forever 
But now I doubt if I was your only lover 

Are we just lost in time? 
I wonder if your love's the same 
Cause I'm not over you 

Baby, don't talk to me 
I'm trying to let go 
Not loving you is harder than you know 
Cause girl you're driving me so crazy 

How can I miss you if you never would stay? 
If you need time, I guess I'll go away 
Inside me there's only heartache and pain 
So where's the fire? 
You've become the rain 

Baby, don't talk to me 
I'm trying to let go 
Not loving you is harder than you know 
Cause girl you're driving me so crazy 
And if you don't want me 
I guess I'll have to go

So I'll make the call 
And I'll leave today 
I'm gonna miss you cause I love you baby 
And I'll make the call 
I'm leaving today 
And leaving always drives me crazy 

Baby, don't talk to me 
I'm trying to let go 
Not loving you is harder than you know 
Cause girl you're driving me so crazy 
And if you don't want me 
I guess I'll have to go



















11. Its Just Me


Intro/Verse:
-------------------------------------------------------------------------|
-------------------------------------------------------------------------|
--8--------8--------8--------8---------7-------7-------7-------7----7>10-|
--10-------10-------10-------10--------9-------9-------9-------9----9>12-|
-----10-10----10-10----10-10----10-10----10-10---10-10---10-10---10------|
-------------------------------------------------------------------------|

Pre-Chorus:
-----------------------|
-----------------------|
-----------------------|
---6-------5-----------|
---6-------5-----------|
---6-------5-----------|

Chorus:
--------------------------------|
--------------------------------|
-----5--------------------------|
-----5-x4---6--6----5--5--------| x3
-----3------6--6----5--5--------|
------------6--6----5--5--------|

---------------------------------|
---------------------------------|
---------------------------------|
-----6-------5-------------------|
-----6-x4----5-x4----------------|
-----6-------5-------------------|

Verse 2:
------------------------------------------------------------------|
------------------------------------------------------------------|
------------------------------------------------------------------|
------------------------------------------------------------------|
---1010-101010-101010-101010-10-99-999-999-999-12-----------------|
---1010-101010-101010-101010-10-99-999-999-999-12-----------------|

Break 2:
-----------------------------|
-----------------------------|
----5------------------------|
----5-x4----6----------------|
----3-------6-x4-------------|
------------6----------------|





Thats it Guys. Hope You Enjoyed it. Please Comment and rate!
comments
print report bad tab
I want to post or [tab]
guest
You may want to rate the tab now too:
select rating
Please do not post tabs as comments. Select "correction" instead!