Oops, an error
Loading. Please wait.

This War Is Ours Tab

ver1
ver1

Intro

Album

Whole song

More versions @911Tabs.com
371,237 views 406 this week
59 commentsread comments
1 2 3 4 5
excellent!
x 61
add to favorites launch autoscroll
font size
0
reset
Autoscroll
+/-
esc
set tempo
stop
Contributor
Difficulty
Tuning
advanced
C G C F A D
WARNING: You are trying to view
                                    content from Ultimate-Guitar.com
                                    in an unauthorized application,
                                    which is prohibited.

                                    Please use an official Ultimate
                                    Guitar Tabs application for iPhone,
                                    iPad or Android to access legitimate
                                    chords, guitar, bass, and drum tabs
                                    from Ultimate-Guitar.com database.

                                    Type "ultimate guitar tabs" in Apple
                                    App Store's or Android Market's
                                    search to find the application.
-------------------------------------------------------------------------------
                             This War is Ours  - Escape The Fate
-------------------------------------------------------------------------------
Tabbed by: Optimus Dattum
Email: yellow_dude13@hotmail.com

Tuning: Drop C

Here you go fuckers!
Enjoy!


Intro
     .................................
D|---------------------------------------------------------------------------|
A|---------------------------------------------------------------------------|
F|---------------------------------------------------------------------------|
C|---444444444444444444444444444444444---------------------------------------|
G|---444444444444444444444444444444444---------------------------------------|
C|---444444444444444444444444444444444---------------------------------------|

D|-------------9p5----------------------------9p5----------------------------|
A|-----------7-----7------------------------7-----7--------------------------|
F|---------6---------6--------------------6---------6------------------------|
C|-------7------------------------------7------------------------------------|
G|-----9------------------------------9--------------------------------------|
C|---------------------------------------------------------------------------|

D|------------10p5-----------------------------10p5--------------------------|
A|---------7-------7------------------------7-------7------------------------|
F|-------7-----------7--------------------7-----------7----------------------|
C|-----7--------------------------------7------------------------------------|
G|---9--------------------------------9--------------------------------------|
C|---------------------------------------------------------------------------|

D|---------------17p14----------------------------17p14----------------------|
A|-----------15--------15----------------------15-------15-------------------|
F|--------14--------------14----------------14-------------14----------------|
C|-----16--------------------------------16----------------------------------|
G|--17--------------------------------17-------------------------------------|
C|---------------------------------------------------------------------------|

D|---------------------------------------------------------------------------|
A|---------------------------------------------------------------------------|
F|-----------------6-7-----------------7-9-----------------------------------|
C|-----------6-7-9--------------7-9-11---------------------------------------|
G|----5-7-9--------------7-9-11----------------------------------------------|
C|---------------------------------------------------------------------------|



D|-------------9p5----------------------------9p5----------------------------|
A|-----------7-----7------------------------7-----7--------------------------|
F|---------6---------6--------------------6---------6------------------------|
C|-------7------------------------------7------------------------------------|
G|-----9------------------------------9--------------------------------------|
C|---------------------------------------------------------------------------|

D|------------10p5-----------------------------10p5--------------------------|
A|---------7-------7------------------------7-------7------------------------|
F|-------7-----------7--------------------7-----------7----------------------|
C|-----7--------------------------------7------------------------------------|
G|---9--------------------------------9--------------------------------------|
C|---------------------------------------------------------------------------|

D|---------------17p14----------------------------17p14----------------------|
A|-----------15--------15----------------------15-------15-------------------|
F|--------14--------------14----------------14-------------14----------------|
C|-----16--------------------------------16----------------------------------|
G|--17--------------------------------17-------------------------------------|
C|---------------------------------------------------------------------------|

D|---------------------------------------------------------------------------|
A|----15-14----15------------------------------------------------------------|
F|----------16----16-14--16-14-13-14-13-11-9~--------------------------------|
C|---------------------------------------------------------------------------|
G|---------------------------------------------------------------------------|
C|---------------------------------------------------------------------------|

                                                                       Whammy bar
D|---------------------------------------------------------------------------|
A|-5555-7777-9999-101010--9h10p9----10h12p10----12h14p12----14h15p14-----[12]|
F|-------------------------------9-----------11----------13----------14------|
C|---------------------------------------------------------------------------|
G|---------------------------------------------------------------------------|
C|---------------------------------------------------------------------------|

Verse
2x     ..    .    ..   .    . 
D|---------------------------------------------------------------------------|
A|---------------------------------------------------------------------------|
F|------------------------------4--------------------------------------------|
C|--------------4-----7----7------6h7p6-----4--------------------------------|
G|----------7-----------------------------7----------------------------------|
C|-----444----4---44---4----4------------------------------------------------|
       dud   d    dd   d    d

      ..     .    ..   .     .
D|---------------------------------------------------------------------------|
A|---------------------------------------------------------------------------|
F|------------------------------4--------------------------------------------|
C|--------------4-----7----7------6h7p6--------------------------------------|
G|----------7----------------------------7-5---------------------------------|
C|-----44-----4---44---4-----4-----------------------------------------------|
       dd   d     dd   d     d
      ...     .   ..   .     .
D|---------------------------------------------------------------------------|
A|---------------------------------------------------------------------------|
F|---------------------------------------------------------------------------|
C|--------------4-----6----7----6-7-6----------------------------------------|
G|----------7-------------------------7-5------------------------------------|
C|----000-----0---00---0-----0-----------------------------------------------|
      dud     d   dd   d     d
         ..   .   ..   .    .  
D|---------------------------------------------------------------------------|
A|---------------------------------------------------------------------------|
F|--------------------4---4--------------------------------------------------|
C|--------------4--------------7-9-7-6---------------------------------------|
G|----------7--------------------------7-------------------------------------|
C|-------00---0---00---0----0------------------------------------------------|
         dd   d   dd   d    d


BreakDown

pm       ......   . .       ......   ..
D|---------------------------------------------------------------------------|
A|---------------------------------------------------------------------------|
F|---------------------------------------------------------------------------|
C|-----------------------------------22--------------------------------------|
G|----2b----------0-2---2b-----------22--------------------------------------|
C|----2b--00000---0-2---2b---00000---22--------------------------------------|
          dudud              dudud


Chourse
                         .                    ..
D|---------------------------------------------------------------------------|
A|---------------------------------------------------------------------------|
F|----77777777---666666------------------------------------------------------|
C|----77777777---666666--0-444444----222222---00-----------------------------|
G|----55555555---444444--0-444444----222222---00-----------------------------|
C|-----------------------0-444444----222222---00-----------------------------|

D|---------------------------------------------------------------------------|
A|---------------------------------------------------------------------------|
F|----77777777----6666666----------------------------------------------------|
C|----77777777----6666666-----04--------11-9-5-6-7-6--7----------------------|
G|----55555555----4444444-----04--------9--7-7-4-5-4--7----------------------|
C|----------------------------04----------------------7----------------------|

                         .                    ..
D|---------------------------------------------------------------------------|
A|---------------------------------------------------------------------------|
F|----77777777---666666------------------------------------------------------|
C|----77777777---666666--0-444444----222222---22-----------------------------|
G|----55555555---444444--0-444444----222222---22-----------------------------|
C|-----------------------0-444444----222222---22-----------------------------|
                              

                              ..                           ................
D|---------------------------------------------------------------------------|
A|---------------------------------------------------------------------------|
F|----77777777----6666666----------------------------------------------------|
C|----77777777----6666666-----04--------11-9-5-6-7-6--7-4--4744744744744744--|
G|----55555555----4444444-----04--------9--7-7-4-5-4--7-4--------------------|
C|----------------------------04----------------------7-4--------------------|

Verse2
2x    ...    .    ..   .    . 
D|---------------------------------------------------------------------------|
A|---------------------------------------------------------------------------|
F|------------------------------4--------------------------------------------|
C|--------------4-----7----7------6h7p6-----4--------------------------------|
G|----------7-----------------------------7----------------------------------|
C|-----444----4---44---4----4------------------------------------------------|
       dud   d    dd   d    d

       ..     .   ..   .     .
D|---------------------------------------------------------------------------|
A|---------------------------------------------------------------------------|
F|------------------------------4--------------------------------------------|
C|--------------4-----7----7------6h7p6--------------------------------------|
G|----------7----------------------------7-5---------------------------------|
C|-----44-----4---44---4-----4-----------------------------------------------|
       dd   d     dd   d     d

      ...    .   ..    .     .
D|---------------------------------------------------------------------------|
A|---------------------------------------------------------------------------|
F|---------------------------------------------------------------------------|
C|--------------4-----6----7----6-7-6----------------------------------------|
G|----------7-------------------------7-5------------------------------------|
C|----000-----0---00---0-----0-----------------------------------------------|
      dud     d   dd   d     d
        ..    .   ..   .    .    
D|---------------------------------------------------------------------------|
A|---------------------------------------------------------------------------|
F|--------------------4---4--------------------------------------------------|
C|--------------4--------------7-9-7-6---------------------------------------|
G|----------7--------------------------7-------------------------------------|
C|-------00---0---00---0----0------------------------------------------------|
         dd   d   dd   d    d

BreakDown

pm       ......   . .       ......   ..
D|---------------------------------------------------------------------------|
A|---------------------------------------------------------------------------|
F|---------------------------------------------------------------------------|
C|-----------------------------------22--------------------------------------|
G|----2b----------0-2---2b-----------22--------------------------------------|
C|----2b--00000---0-2---2b---00000---22--------------------------------------|
          dudud              dudud

Chourse2
                         .                    ..
D|---------------------------------------------------------------------------|
A|---------------------------------------------------------------------------|
F|----77777777---666666------------------------------------------------------|
C|----77777777---666666--0-444444----222222---22-----------------------------|
G|----55555555---444444--0-444444----222222---22-----------------------------|
C|-----------------------0-444444----222222---22-----------------------------|

D|---------------------------------------------------------------------------|
A|---------------------------------------------------------------------------|
F|----77777777----6666666----------------------------------------------------|
C|----77777777----6666666-----04--------11-9-7-6-7-6--7----------------------|
G|----55555555----4444444-----04--------9--7-5-4-5-4--7----------------------|
C|----------------------------04----------------------7----------------------|

                         .                    ..
D|---------------------------------------------------------------------------|
A|---------------------------------------------------------------------------|
F|----77777777---666666------------------------------------------------------|
C|----77777777---666666--0-444444----222222---22-----------------------------|
G|----55555555---444444--0-444444----222222---22-----------------------------|
C|-----------------------0-444444----222222---22-----------------------------|
                              

                              ..                           
D|---------------------------------------------------------------------------|
A|---------------------------------------------------------------------------|
F|----77777777----6666666----------------------------------------------------|
C|----77777777----6666666-----04--------11-9-7-6-7-6--7-4--------------------|
G|----55555555----4444444-----04--------9--7-5-4-5-4--7-4--------------------|
C|----------------------------04----------------------7-4--------------------|



                        ...............
D|---------------------------------------------------------------------------|
A|---------------------------------------------------------------------------|
F|---------------------------------------------------------------------------|
C|--11-9-7-6-7-6--7-4---4744744744744744-------------------------------------|
G|--9--7-5-4-5-4--7-4--------------------------------------------------------|
C|----------------7-4--------------------------------------------------------|


Interlude

D|----------------------------------------------12---------------------------|
A|----------12h14p12-------14----12h14p12-----------14-12--------------------|
F|----9h11-------------14----14-----------14--13-----------------------------|
C|---------------------------------------------------------------------------|
G|---------------------------------------------------------------------------|
C|---------------------------------------------------------------------------|

D|-------12------------------------------------------------------------------|
A|-------------15h17p15--14--12------------10/12-12/14-14/15---12------------|
F|--------------------------------14----9--------------------------9---------|
C|---------------------------------------------------------------------------|
G|----14----14---------------------------------------------------------------|
C|---------------------------------------------------------------------------|

D|---------------------------------------------------------------------------|
A|--------------7r-----------------------------------------------------------|
F|--------------6r-----------------------------------------------------------|
C|----6---7------------------------------------------------------------------|
G|------7---9----------------------------------------------------------------|
C|---------------------------------------------------------------------------|


D|-----------------------------9---------------------------------------------|
A|----------10------10--------------------5----------7-----------------------|
F|--------------11---------11---------------7----------9---------------------|
C|------11--------------11-------------7----------9--------------------------|
G|---9-------------------------------5----------7----------------------------|
C|---------------------------------------------------------------------------|

D|-----------------------------9---------------------------------------------|
A|----------10------10--------------------5----------7-----------------------|
F|--------------11---------11---------------7----------9---------------------|
C|------11--------------11-------------7----------9--------------------------|
G|---9-------------------------------5----------7----------------------------|
C|---------------------------------------------------------------------------|

                                                           Strum the last part
                                                              |      | 
D|-----------------------------9---------------------------------------------|
A|----------10------10--------------------5----------7---------------5-------|
F|--------------11---------11---------------7----------9------7------6-------|
C|------11--------------11-------------7----------9-----------7------6-------|
G|---9-------------------------------5----------7-------------5------4-------|
C|---------------------------------------------------------------------------|


BuildUp
     ......................................   
D|---------------------------------------------------------------------------|
A|---------------------------------------------------------------------------|
F|---------------------------------------------------------------------------|
C|----4-4444444444444---00000000----22222222---------------------------------|
G|----4-4444444444444---00000000----22222222---------------------------------|
C|----4-4444444444444---00000000----22222222---------------------------------|

       ....................................
D|---------------------------------------------------------------------------|
A|---------------------------------------------------------------------------|
F|---------------------------------------------------------------------------|
C|-----4-4444444444444---66666666---77777777---------------------------------|
G|-----4-4444444444444---66666666---77777777---------------------------------|
C|-----4-4444444444444---66666666---77777777---------------------------------|

D|---------------------------------------------------------------------------|
A|---------------------------------------------------------------------------|
F|---------------------------------------------------------------------------|
C|----9b---7h9p7h9p7h9p7h9p7h9p7h9-------------------------------------------|
G|-----------------------------------7-9--------7--9---1112------------------|
C|---------------------------------------------------------------------------|


2x
     .................................................................
D|---------------------------------------------------------------------------|
A|----------17------19-------------------------------------------------------|
F|---------------------------------------16----------------------------------|
C|---161616----1616------161616-19--1616-----161616--1818-1919-1818----------|
G|--------------------------------------------------------------------19-----|
C|---------------------------------------------------------------------------|

   ......................................................................
D|---------------------------------------------------------------------------|
A|---------------------------------------------------------------------------|
F|----------11------14----------13-------14----------------------------------|
C|---121212----1212------121212-----1212------121212----1313-1414-1313-11----|
G|---------------------------------------------------------------------------|
C|---------------------------------------------------------------------------|


  . ..........................
D|-----------------------------------------------16-17-16-17-----------------|
A|------------------------------17--------17---------------------------------|
F|---------------------------------16--------16------------------------------|
C|---------11--------14---------------18-------------------------------------|
G|--121212-----1212-----121212-----------------------------------------------|
C|---------------------------------------------------------------------------|

Solo

D|-19b21b19p17----1919-17-16-1717-16-14-1616-14---------------14-16-17-16-14^|
A|-----------------------------------------------17--14-15-17----------------|
F|---------------------------------------------------------------------------|
C|---------------------------------------------------------------------------|
G|---------------------------------------------------------------------------|
C|---------------------------------------------------------------------------|

D|-----------------------------------------------------2121-17----------17---|
A|-------------------------------------------------------------19----19------|
F|---7-9-11---9-11-13---11-13-14---13-14-16---14-16---------------18---------|
C|---------------------------------------------------------------------------|
G|---------------------------------------------------------------------------|
C|---------------------------------------------------------------------------|

                             ...............................................
D|---2121-17----------17-----------------------------------------------------|
A|-----------19----19--------1414-1515-1414---1010-1414-10101010-14-10101010-|
F|--------------18-----------------------------------------------------------|
C|---------------------------------------------------------------------------|
G|---------------------------------------------------------------------------|
C|---------------------------------------------------------------------------|
  
    ...............
D|--------------------------------------------------------------12-9-12b-----|
A|--99-1010-999----9~------------------------------------10------------------|
F|--------------11-------------------------------9----------11---------------|
C|--------------------------------9-------11-------11------------------------|
G|------------------------9-11-12------12-----12-----------------------------|
C|---------------------------------------------------------------------------|


pm       ......   . .       ......   ..
D|---------------------------------------------------------------------------|
A|---------------------------------------------------------------------------|
F|-------------------------------------------7/------------------------------|
C|-----------------------------------22------7/-------------6--7--6--7-------|
G|----2b----------0-2---2b-----------22------5/-------------4--5--4--7-------|
C|----2b--00000---0-2---2b---00000---22------------------------------7-------|
          dudud              dudud


                         .                    ..
D|---------------------------------------------------------------------------|
A|---------------------------------------------------------------------------|
F|----77777777---666666------------------------------------------------------|
C|----77777777---666666--0-444444----222222---22-----------------------------|
G|----55555555---444444--0-444444----222222---22-----------------------------|
C|-----------------------0-444444----222222---22-----------------------------|

                              ..
D|---------------------------------------------------------------------------|
A|---------------------------------------------------------------------------|
F|----77777777----6666666----------------------------------------------------|
C|----77777777----6666666-----04--------11-9-7-6-7-6--7----------------------|
G|----55555555----4444444-----04--------9--7-5-4-5-4--7----------------------|
C|----------------------------04----------------------7----------------------|

                                            
D|---------------------------------------------------------------------------|
A|---------------------------------------------------------------------------|
F|----77777777---666666------------------------------------------------------|
C|----77777777---666666---444444----222222-----------------------------------|
G|----55555555---444444---444444----222222-----------------------------------|
C|------------------------444444----222222-----------------------------------|

                              .. 
D|---------------------------------------------------------------------------|
A|---------------------------------------------------------------------------|
F|----77777777----6666666----------------------------------------------------|
C|----77777777----6666666-----04--------11-9-7-6-7-6--7-4--------------------|
G|----55555555----4444444-----04--------9--7-5-4-5-4--7-4--------------------|
C|----------------------------04----------------------7-4--------------------|




D|---------------------------------------------------------------------------|
A|---------------------------------------------------------------------------|
F|---------------------------------------------------------------------------|
C|---11-9-7-6-7-6--7-4---------11-9-7-6-7-6--7-4-----------------------------|
G|---9--7-5-4-5-4--7-4---------9--7-5-4-5-4--7-4-----------------------------|
C|-----------------7-4-----------------------7-4-----------------------------|

D|---------------------------------------------------------------------------|
A|---------------------------------------------------------------------------|
F|---------------------------------------------------------------------------|
C|--11-9-7-6-7-6--7b---------------------------------------------------------|
G|--9--7-5-4-5-4--7b--------------------------------------------------------|
C|----------------7b---------------------------------------------------------|

pm       ......   . .       ......   ..
D|---------------------------------------------------------------------------|
A|---------------------------------------------------------------------------|
F|---------------------------------------------------------------------------|
C|---------------------------------------------------------------------------|
G|----2b----------0-2---2b------------4-7--7b------------4-7--7b-------------|
C|----2b--00000---0-2---2b---00000----4-7--7b--44444\----4-7--7b--44444\-----|
          dudud              dudud             dudud              dudud
                 ..........       ......   ....    ........   ...       ......
D|---------------------------------------------------------------------------|
A|---------------------------------------------------------------------------|
F|---------------------------------------------------------------------------|
C|--7-6-4-2------------------------------------------------------------------|
G|--7-6-4-2----2b--------0-2--2b------------4-7--7b-----------4-7--7b--------|
C|--7-6-4-2----2b-00000--0-2--2b---00000----4-7--7b--44444\---4-7--7b--44444\|
                       ........
D|---------------------------------------------------------------------------|
A|---------------------------------------------------------------------------|
F|---------------------------------------------------------------------------|
C|--7-6-4-2------------------------------------------------------------------|
G|--7-6-4-2--------2b--------------------------------------------------------|
C|--7-6-4-2--------2b---0000000----------------------------------------------|
                    dududud



| .  palm mute
| d  downpick
| u  uppick
| /  slide up
| \  slide down
| h  hammer-on
| p  pull-off
| ~  vibrato
| ^  harmonic
| x  Mute note
| b  bend
===============================================================================
59 comments total. Showing first comments.
+1 reply
Darathy6661 wrote on October 8 2008, 10:43 pm

very nice!!!!
great job!!!!

+2 reply
timmay1561515 wrote on October 10 2008, 05:39 pm

put it on guitar pro! :D

0 reply
Optimus Dattum wrote on October 11 2008, 05:35 am

Im working on a Guitar Pro version tab with xApollox. More to come.....

I want to post or [tab]
guest
You may want to rate the tab now too:
select rating
Please do not post tabs as comments. Select "correction" instead!