Oops, an error
Loading. Please wait.

This War Is Ours Tab

ver2
ver2

Intro

Album

Whole song

Interactive

More versions @911Tabs.com
23,231 views 45 this week
no commentswrite comment
1 2 3 4 5
accurate
x 6
Autoscroll
+/-
esc
set tempo
stop
Contributor
Difficulty
Tuning
advanced
C G C F A D
Hey! There's an official Ultimate Guitar app which is ideal
for learning songs when you're away from computer. Get the app
WARNING: You are trying to view
                                    content from Ultimate-Guitar.com
                                    in an unauthorized application,
                                    which is prohibited.

                                    Please use an official Ultimate
                                    Guitar Tabs application for iPhone,
                                    iPad or Android to access legitimate
                                    chords, guitar, bass, and drum tabs
                                    from Ultimate-Guitar.com database.

                                    Type "ultimate guitar tabs" in Apple
                                    App Store's or Android Market's
                                    search to find the application.
----------------------------------------------------------------------------
                        This war is ours - Escape the Fate
----------------------------------------------------------------------------
Tabbed by: downfromthesky
Email: zekai_a7x@hotmail.com

This is my first tab guys and I'm only 15 years old. So don't be too harsh please. ROCK ON! :)

The solo's a little complicated and hard to read so sorry bout that. It should be at least 80%.

Tuning: Drop C

Intro
d|-------------------------------------------------------------------------|
A|-------------------------------------------------------------------------|
F|-------------------------------------------------------------------------|
C|--4-4-4-4-4-4-4-4-4-4-4-4-4-4-4-4-4-4-4----------------------------------|
G|--4-4-4-4-4-4-4-4-4-4-4-4-4-4-4-4-4-4-4----------------------------------|
C|--4-4-4-4-4-4-4-4-4-4-4-4-4-4-4-4-4-4-4----------------------------------|
pm  . . . . . . . . . . . . . . . . . . .


d|------------5-9p5-------------------5-9p5--------------------------------|
A|----------7-------7---------------7-------7------------------------------|
F|--------6-----------6-----------6-----------6----------------------------|
C|------7---------------7-------7---------------7--------------------------|
G|--4-9-------------------9-4-9-------------------9------------------------|
C|-------------------------------------------------------------------------|



d|------------5-10p5-------------------5-10p5------------------------------|
A|----------7--------7---------------7--------7----------------------------|
F|--------7------------7-----------7------------7--------------------------|
C|------7----------------7-------7----------------7------------------------|
G|--5-9--------------------9-5-9--------------------9----------------------|
C|-------------------------------------------------------------------------|



d|-----------------14-17p14-------------------------14-17p14---------------|
A|--------------15----------15-------------------15----------15------------|
F|-----------14----------------14-------------14----------------14---------|
C|--------16----------------------16-------16----------------------16------|
G|--16-17----------------------------17-17----------------------------17---|
C|-------------------------------------------------------------------------|


d|-------------------------------------------------------------------------|
A|-------------------------------------------------------------------------|
F|-------------------------------------------------------------------------|
C|---------6h7h9-66666666--------------------------------------------------|
G|---5h7h9-----------------------------------------------------------------|
C|-------------------------------------------------------------------------|
pm             ........

d|------------5-9p5-------------------5-9p5--------------------------------|
A|----------7-------7---------------7-------7------------------------------|
F|--------6-----------6-----------6-----------6----------------------------|
C|------7---------------7-------7---------------7--------------------------|
G|--4-9-------------------9-4-9-------------------9------------------------|
C|-------------------------------------------------------------------------|



d|------------5-10p5-------------------5-10p5------------------------------|
A|----------7--------7---------------7--------7----------------------------|
F|--------7------------7-----------7------------7--------------------------|
C|------7----------------7-------7----------------7------------------------|
G|--5-9--------------------9-5-9--------------------9----------------------|
C|-------------------------------------------------------------------------|



d|-----------------14-17p14-------------------------14-17p14---------------|
A|--------------15----------15-------------------15----------15------------|
F|-----------14----------------14-------------14----------------14---------|
C|--------16----------------------16-------16----------------------16------|
G|--16-17----------------------------17-17----------------------------17---|
C|-------------------------------------------------------------------------|

d|-------------------------------------------------------------------------|
A|--17-15-14-15-14----14----------------777-999-101010-121212--10h12p10----|
F|-----------------16----16-14-16-14-13--------------------------------11--|
C|-------------------------------------------------------------------------|
G|-------------------------------------------------------------------------|
C|-------------------------------------------------------------------------|
                                                                       .

d|-------------------------------------------------------------------------|
A|--12h14p12----14h15p14----15h17p15----[12]-whammy bar dive---------------|
F|-----------13----------14----------16------------------------------------|
C|-------------------------------------------------------------------------|
G|-------------------------------------------------------------------------|
C|-------------------------------------------------------------------------|
pm           .           .           .


Verse 1
d|-------------------------------------------------------------------------|
A|-------------------------------------------------------------------------|
F|------------------4--------------------------------4---------------------|
C|---------4----7-------6-7-6---4----------4----7-7----7-6---4-------------|
G|-----7----------------------7--------7-------------------7---------------|
C|-444---4---44---4---4------------444---4---44--4--4----------------------|
pm ...   .   ..   .   .            ...   .   ..  .  .

d|-------------------------------------------------------------------------|
A|-------------------------------------------------------------------------|
F|--------------------------------------------4---4------------------------|
C|---------4---6---7---6-7-6-------------4----------7-6-4---4--------------|
G|-----7---------------------7-5-----7--------------------7----------------|
C|-000---0---00--0---0-----------000---0---00---0--------------------------|
pm ...   .   ..  .   .           ...   .   ..   .


d|-------------------------------------------------------------------------|
A|-------------------------------------------------------------------------|
F|------------------4--------------------------------4---------------------|
C|---------4----7-------6-7-6---4----------4----7-7----7-6---4-------------|
G|-----7----------------------7--------7-------------------7---------------|
C|-444---4---44---4---4------------444---4---44--4--4----------------------|
pm ...   .   ..   .   .            ...   .   ..  .  .

d|-------------------------------------------------------------------------|
A|-------------------------------------------------------------------------|
F|--------------------------------------------4---4------------------------|
C|---------4---6---7---6-7-6-------------4----------7-6-4------------------|
G|-----7---------------------7-5-----7--------------------7----------------|
C|-000---0---00--0---0-----------000---0---00---0--------------------------|
pm ...   .   ..  .   .           ...   .   ..   .


Breakdown
d|-------------------------------------------------------------------------|
A|-------------------------------------------------------------------------|
F|-------------------------------------------------------------------------|
C|-------------------------------2--2--------------------------------------|
G|--2b--------0---2-----------0--2--2--------------------------------------|
C|--2b-000000-0---2-2*-000000-0--2--2--------------------------------------|
pm     ......          ......    .  .


Chorus
d|-------------------------------------------------------------------------|
A|-------------------------------------------------------------------------|
F|---------6-6-----------------------------6-6-----------------------------|
C|-0-0-00--6-6--2--4-4-44--2-2-22--0-0-00--6-6--2-4--11-9-7-6-7-6---4------|
G|-0-0-00--4-4--2--4-4-44--2-2-22--0-0-00--4-4--2-4---9-7-5-4-5-4-7-4------|
C|-0-0-00-------2--4-4-44--2-2-22--0-0-00-------2-4---------------7-4------|


d|-------------------------------------------------------------------------|
A|-------------------------------------------------------------------------|
F|-------------------------------------------------------------------------|
C|-7444-7444-7444-7*-whammy-bar-dive---------------------------------------|
G|-------------------------------------------------------------------------|
C|-------------------------------------------------------------------------|
pm .... .... ....


Verse 2
d|-------------------------------------------------------------------------|
A|-------------------------------------------------------------------------|
F|------------------4--------------------------------4---------------------|
C|---------4----7-------6-7-6---4----------4----7-7----7-6---4-------------|
G|-----7----------------------7--------7-------------------7---------------|
C|-444---4---44---4---4------------444---4---44--4--4----------------------|
pm ...   .   ..   .   .            ...   .   ..  .  .

d|-------------------------------------------------------------------------|
A|-------------------------------------------------------------------------|
F|--------------------------------------------4---4------------------------|
C|---------4---6---7---6-7-6-------------4----------7-6-4---4--------------|
G|-----7---------------------7-5-----7--------------------7----------------|
C|-000---0---00--0---0-----------000---0---00---0--------------------------|
pm ...   .   ..  .   .           ...   .   ..   .


d|-------------------------------------------------------------------------|
A|-------------------------------------------------------------------------|
F|------------------4--------------------------------4---------------------|
C|---------4----7-------6-7-6---4----------4----7-7----7-6---4-------------|
G|-----7----------------------7--------7-------------------7---------------|
C|-444---4---44---4---4------------444---4---44--4--4----------------------|
pm ...   .   ..   .   .            ...   .   ..  .  .

d|-------------------------------------------------------------------------|
A|-------------------------------------------------------------------------|
F|--------------------------------------------4---4------------------------|
C|---------4---6---7---6-7-6-------------4----------7-6-4------------------|
G|-----7---------------------7-5-----7--------------------7----------------|
C|-000---0---00--0---0-----------000---0---00---0--------------------------|
pm ...   .   ..  .   .           ...   .   ..   .


Breakdown 2
d|-------------------------------------------------------------------------|
A|-------------------------------------------------------------------------|
F|-------------------------------------------------------------------------|
C|-------------------------------2--2--------------------------------------|
G|--2b--------0---2-----------0--2--2--------------------------------------|
C|--2b-000000-0---2-2*-000000-0--2--2--------------------------------------|
pm     ......          ......    .  .


Chorus 2
d|-------------------------------------------------------------------------|
A|-------------------------------------------------------------------------|
F|---------6-6-----------------------------6-6-----------------------------|
C|-0-0-00--6-6--2--4-4-44--2-2-22--0-0-00--6-6--2-4--11-9-7-6-7-6----------|
G|-0-0-00--4-4--2--4-4-44--2-2-22--0-0-00--4-4--2-4---9-7-5-4-5-4-7--------|
C|-0-0-00-------2--4-4-44--2-2-22--0-0-00-------2-4---------------7--------|

d|-------------------------------------------------------------------------|
A|-------------------------------------------------------------------------|
F|---------6-6-----------------------------6-6-----------------------------|
C|-0-0-00--6-6--2--4-4-44--2-2-22--0-0-00--6-6--2-4--11-9-7-6-7-6----------|
G|-0-0-00--4-4--2--4-4-44--2-2-22--0-0-00--4-4--2-4---9-7-5-4-5-4-7--------|
C|-0-0-00-------2--4-4-44--2-2-22--0-0-00-------2-4---------------7--------|


d|-------------------------------------------------------------------------|
A|-------------------------------------------------------------------------|
F|-------------------------------------------------------------------------|
C|-4--11-9-7-6-7-6----7444-7444-7444-7444-7444-7444-7p4--------------------|
G|-4---9-7-5-4-5-4-7-------------------------------------------------------|
C|-4---------------7-------------------------------------------------------|
pm                    .... .... .... .... .... .... . .


Bridge (Clean)
d|-----------------------------------12------------------------------------|
A|------9h10-9~----10----9h10p9---------10-9~---14---12h14p12--------------|
F|-9h11---------11----11--------11-9----------9----9----------14-13-14~----|
C|-------------------------------------------------------------------------|
G|-------------------------------------------------------------------------|
C|-------------------------------------------------------------------------|


d|-------------------------------------------------------------------------|
A|----10-12-14~-15-12---------------7~~------------------------------------|
F|-11-----------------13------------6~~------------------------------------|
C|-----------------------14--6--7------------------------------------------|
G|----------------------------7--9-----------------------------------------|
C|-------------------------------------------------------------------------|

Bridge pt. 2 (still clean)
d|-------------------------------------------------------------------------|
A|-----------10-----10----------5------7~----------------------------------|
F|-------11----11-----11--------7------9~----------------------------------|
C|----11---11----11-----11----7------9-------------------------------------|
G|--9-----------------------5------7---------------------------------------|
C|-------------------------------------------------------------------------|

d|-------------------------------------------------------------------------|
A|-----------10-----10----------5------7~----------------------------------|
F|-------11----11-----11--------7------9~----------------------------------|
C|----11---11----11-----11----7------9-------------------------------------|
G|--9-----------------------5------7---------------------------------------|
C|-------------------------------------------------------------------------|

d|-------------------------------------------------------------------------|
A|-----------10-----10----------5------7~------5------7--10~---------------|
F|-------11----11-----11--------7------9~------7------9--11~---------------|
C|----11---11----11-----11----7------9-------7------9----11~---------------|
G|--9-----------------------5------7-------5------7-------9~---------------|
C|-------------------------------------------------------------------------|
   "And I will see you, through the smoke and flames..."

Pre Solo. ("We Will conquer them all") 
d|-------------------------------------------------------------------------|
A|-------------------------------------------------------------------------|
F|-------------------------------------------------------------------------|
C|-4-----------------------------------------------------------------------|
G|-4-44444444444444--00000000-22222222-44444444-66666666-7777777777777777--|
C|-4-44444444444444--00000000-22222222-44444444-66666666-7777777777777777--|
pm   ..............  ........ ........ ........ ........ ................


SOLO!
d|-------------------------------------------------------------------------|
A|-------------------------------------------------------------------------|
F|-------------------------------------------------------------------------|
C|--9b(11)-7h97h97h97h97h97h9----------------------------------------------|
G|----------------------------9-whammy bar dive-7-9-11-0-whammy bar dive---|
C|-------------------------------------------------------------------------|


d|-------------------------------------------------------------------------|
A|----------17-----19------------------------------------------------------|
F|-------------------------------------16----------------------------------|
C|-16161616---1616----16161616-19-1616----1616--18-19-18----16-------------|
G|-------------------------------------------------------19----------------|
C|-------------------------------------------------------------------------|
pm . . . .    . .     . . . .      . .    . .

d|-------------------------------------------------------------------------|
A|----------17-----19------------------------------------------------------|
F|-------------------------------------16----------------------------------|
C|-16161616---1616----16161616-19-1616----1616--18-19-18-------------------|
G|-------------------------------------------------------19-17-------------|
C|-------------------------------------------------------------------------|
pm . . . .    . .      . . . .     . .     . .

d|-------------------------------------------------------------------------|
A|-------------------------------------------------------------------------|
F|-------------------------------------------------------------------------|
C|----------18------19----------18------19------18-19-18-------------------|
G|-17171717----1717----17171717----1717----1717----------19-17-------------|
C|-------------------------------------------------------------------------|
pm . . . .     . .     . . . .     . .      . .

d|-----------------------------------------------16h17-16h17---------------|
A|-----------------------------------17-----17-----------------------------|
F|-------------------------------------16-----16---------------------------|
C|----------18------19-------------------18--------------------------------|
G|-17171717----1717----171717171717----------------------------------------|
C|-------------------------------------------------------------------------|
pm . . . .     . .     . . . . . .

d|--21~-19-17-19~-17-16-17~-16-14-16~-14-12-14-16-17-21-17-16--------------|
A|------------------------------------------------------------19~----------|
F|-------------------------------------------------------------------------|
C|-------------------------------------------------------------------------|
G|-------------------------------------------------------------------------|
C|-------------------------------------------------------------------------|


d|---------------------------------------21-17------17-21-17------17-------|
A|--------------------------------------------19--19--------19--19---------|
F|-11-9-11-13-11-13-14-13-14-16-14-16-----------18------------18-----------|
C|-------------------------------------------------------------------------|
G|-------------------------------------------------------------------------|
C|-------------------------------------------------------------------------|


d|-------------------------------------------------------------------------|
A|-1414-1515-1414------1414------------------------------------------------|
F|----------------1414------1414-1313-1414-1313-1414-1313------------------|
C|--------------------------------------------------------1414-1414-1414-16|
G|-------------------------------------------------------------------------|
C|-------------------------------------------------------------------------|
pm .  .  . .  . .  . . . .   . .  . .  . .  . .  . .  . .  . .  . .  . .

not sure about this part.
d|-------------------------------------------------------------------------|
A|-------------------------------------------------------------------------|
F|-----------------------16--16--------------------------------------------|
C|-161616--18-16-19-1616---16--16-18-19-18---------------------------------|
G|-----------------------------------------19------------------------------|
C|-------------------------------------------------------------------------|
pm . .  .      .     . .

Breakdown 3
d|-------------------------------------------------------------------------|
A|-------------------------------------------------------------------------|
F|-------------------------------------------------------------------------|
C|-----------------------------------------2--2----------------------------|
G|-2b--------0---------------2-2b--------0-2--2----------------------------|
C|-2b-000000-0-0000-16////-0-2-2b-000000-0-2--2----------------------------|
pm    ......   ....        .      ......   .  .

vocal chorus
d|-------------------------------------------------------------------------|
A|-------------------------------------------------------------------------|
F|-7/----------------------------------------------------------------------|
C|-7/----------------------------------------------------------------------|
G|-5/----------------------------------------------------------------------|
C|-0/----------------------------------------------------------------------|
    "yes i will see you through the smoke and flames"

Chorus 3
d|------------------------------------|------------------------------------|
A|------------------------------------|------------------------------------|
F|------------------------------------|--------6-6-------------------------|
C|-----------------------------6-7-6--|-0-0-00-6-6-2-4-44-44-2-2-22-0-0-00-|
G|-----------------------------4-5-4-7|-0-0-00-4-4-2-4-44-44-2-2-22-0-0-00-|
C|-----------------------------------7|-0-0-00-----2-4-44-44-2-2-22-0-0-00-|
  "on the front lines of war."

d|------------------------|-------------------------------|----------------|
A|------------------------|-------------------------------|----------------|
F|-6-6--------------------|-------------------------------|---------6-6----|
C|-6-6-2-4-11-9-7-6-7-6---|0-0-00--2-2---2-4-4-44-7777777-|-0-0-00--6-6----|
G|-4-4-2-4--9-7-5-4-5-4-7-|0-0-00--2-2-2-2-4-4-44-7777777-|-0-0-00--4-4----|
C|-----2-4--------------7-|0-0-00--2-2-2-2-4-4-44-7777777-|-0-0-00---------|


d|-------------------------------------------------------------------------|
A|---------------------------------------------------------slow down here--|
F|-------------------------------------------------------------------------|
C|-2-4-11-9-7-6-7-6-----11-9-7-6-7-6-----11-9-7-6-7-6-----11-9-7-6-7-6-----|
G|-2-4--9-7-5-4-5-4-7-4--9-7-5-4-5-4-7-4--9-7-5-4-5-4-7-4--9-7-5-4-5-4-----|
C|-2-4--------------7-4--------------7-4--------------7-4--------------7b--|

Outro Breakdown
d|-------------------------------------------------------------------------|
A|-------------------------------------------------------------------------|
F|-------------------------------------------------------------------------|
C|-----------0--------------0---7--------4/---7--------4/--7-6-22----------|
G|-2b--------0-2-2b---------0-2-7--------4/-2-7--------4/--7-6-22----------|
C|-2b-000000-0-2-2b-0000000-0-2-7-444444-4/-2-7-444444-4/--7-6-22----------|
pm    ......        ......        ......        ......

d|-------------------------------------------------------------------------|
A|-------------------------------------------------------------------------|
F|-------------------------------------------------------------------------|
C|-----------0---------------0---------------7--------4/----7--------4/----|
G|-2b--------0-0-2-2b--------0-------------2-7--------4/--2-7--------4/----|
C|-2b-000000-0-0-2-2b-000000-0-0000-16//-0-2-7-444444-4/--2-7-444444-4/----|
pm    ......   <      ......   ....      .     ......         ......

d|-------------------------------------------------------------------------|
A|-------------------------------------------------------------------------|
F|-------------------------------------------------------------------------|
C|-7-6-22-----------0------------------------------------------------------|
G|-7-6-22-2b--------0------------------------------------------------------|
C|-7-6-22-2b-000000-0------------------------------------------------------|
pm           ......

Great song, sick solo, Escape the Fate rocks.

| /  slide down
| h  hammer-on
| p  pull-off
| ~  vibrato
|[ ] natural harmonic
| *  Pinch (artificial) harmonic
| <  Volume swell
| b  Bend
| .  Palm mute
| whammy bar dive means lower the note with the whammy bar.
============================================================================
comments
print report bad tab
I want to post or [tab]
guest
You may want to rate the tab now too:
select rating
Please do not post tabs as comments. Select "correction" instead!