Oops, an error
Loading. Please wait.

Last Look At Eden Tab

ver1
ver1

Whole song

Interactive

More versions @911Tabs.com
7,349 views 18 this week
no commentswrite comment
1 2 3 4 5
please rate
Autoscroll
+/-
esc
set tempo
stop
Contributor
Difficulty
Tuning
intermediate
D A D G B E
WARNING: You are trying to view
                                    content from Ultimate-Guitar.com
                                    in an unauthorized application,
                                    which is prohibited.

                                    Please use an official Ultimate
                                    Guitar Tabs application for iPhone,
                                    iPad or Android to access legitimate
                                    chords, guitar, bass, and drum tabs
                                    from Ultimate-Guitar.com database.

                                    Type "ultimate guitar tabs" in Apple
                                    App Store's or Android Market's
                                    search to find the application.
#----------------------------------PLEASE NOTE---------------------------------#
#This file is the author's own work and represents their interpretation of the #
#song. You may only use this file for private study, scholarship, or research. #
#------------------------------------------------------------------------------#

LAST LOOK AT EDEN
As recorded by Europe
(From the 2009 Album LAST LOOK AT EDEN)

Transcribed by unregistered
        

Words and Music by Europe

Gtr I (D A D G B E) - 'Distortion'
Gtr II (D A D G B E) - 'Orchestra'
Gtr III (D A D G B E) - 'Synth Strings'
Gtr IV (D A D G B E) - 'Solo'

  Q=78
 2/4    4/4
  Gtr I
  W       S  S  S   S   E   Q    Q.
|------|------------------------------|
|------|------------------------------|
|------|------------------------------|
|------|------------2---4---5----4----|
|------|--------2--(2)-(2)-(2)--(2)---|
|------|--0--2-(2)-(2)-(2)-(2)--(2)---|
|
| Gtr II
| W       W
|------|------------------------------|
|------|------------------------------|
|------|------------------------------|
|------|------------------------------|
|------|------------------------------|
|------|------------------------------|
|
| Gtr III
| <
| H      +W
|------|------------------------------|
|------|------------------------------|
|------|------------------------------|
|-2----|-(2)--------------------------|
|------|------------------------------|
|-2----|-(2)--------------------------|


   W            W                      W
|------------|----------------------|--------|
|------------|----------------------|--------|
|------------|----------------------|--------|
|------------|----------------------|--------|
|------------|----------------------|--------|
|------------|----------------------|--------|
|
|  <
|  W            S  S S S E S H    S    W
|------------|----------------------|--------|
|------------|----------------------|--------|
|------------|-------------0--------|--------|
|------------|--2----2---4----------|--------|
|--2---------|----------------------|--------|
|------------|--2----2---4-5--------|--------|
|
| +W           +W                     +W
|------------|----------------------|--------|
|------------|----------------------|--------|
|------------|----------------------|--------|
|-(2)--------|-(2)------------------|-(2)----|
|------------|----------------------|--------|
|-(2)--------|-(2)------------------|-(2)----|


   S  S  S  S  S S  Q   E S S S S    S  S  S  S  S S  E.  S  E  S  S  S  S
|---------------------------------|----------------------------------------|
|---------------------------------|----------------------------------------|
|---------------------------------|-----------------------5--5--5--5--5--5-|
|--------------4----5---4-x-x---x-|--------------4----5--------------------|
|--0--2--2--2--2----2---2-x-x---x-|--0--2--2--2--2----2---3--3--3--3--3--3-|
|--0--2--2--2--2----2---2---------|--0--2--2--2--2----2--------------------|
|
|  S  S  S  S  S S  Q   E Q          S  S  S  S  S S  E.  S  E  S  S  S  S
|-10--0--0--0--2---15---2---------|-10--0--0--0--2---15---8--8--8--8--8--8-|
|--3-17-17-17-19----8--19---------|--3-17-17-17-19----8--25-25-25-25-25-25-|
|---------------------------------|----------------------------------------|
|---------------------------------|----------------------------------------|
|---------------------------------|----------------------------------------|
|---------------------------------|----------------------------------------|


   S  S  S  S  S S  Q   E S S S S
|------------------------------------|
|------------------------------------|
|------------------------------------|
|--------------4----5---4-x-x---x----|
|--0--2--2--2--2----2---2-x-x---x----|
|--0--2--2--2--2----2---2------------|
|
|  S  S  S  S  S S  Q   E Q
|-10--0--0--0--2---15---2------------|
|--3-17-17-17-19----8--19------------|
|------------------------------------|
|------------------------------------|
|------------------------------------|
|------------------------------------|


   S  S  S  S  S S  E.  S  E  S  S  S  S    S  S  S  S  S S  Q   E S S S S
|----------------------------------------|---------------------------------|
|----------------------------------------|---------------------------------|
|-----------------------5--5--5--5--5--5-|---------------------------------|
|--------------4----5--------------------|--------------4----5---4-x-x---x-|
|--0--2--2--2--2----2---3--3--3--3--3--3-|--0--2--2--2--2----2---2-x-x---x-|
|--0--2--2--2--2----2--------------------|--0--2--2--2--2----2---2---------|
|
|  S  S  S  S  S S  E.  S  E  S  S  S  S    S  S  S  S  S S  Q   E Q
|-10--0--0--0--2---15---8--8--8--8--8--8-|-10--0--0--0--2---15---2---------|
|--3-17-17-17-19----8--25-25-25-25-25-25-|--3-17-17-17-19----8--19---------|
|----------------------------------------|---------------------------------|
|----------------------------------------|---------------------------------|
|----------------------------------------|---------------------------------|
|----------------------------------------|---------------------------------|


   S  S  S  S  S S  E. S  E    S S  S S    H     H
|---------------------------------------|-----------------|
|---------------------------------------|--------3--------|
|----------------------5--5----5-5--5-5-|--------2--------|
|--------------4----5-------------------|--3-----0--------|
|--0--2--2--2--2----2--3--3----3-3--3-3-|--3-----0--------|
|--0--2--2--2--2----2-------------------|--3-----0--------|
|
|  S  S  S  S  S S  Q     S S  E    E      H     Q   Q
|-10--0--0--0--2---15----14-7-10----2---|--5-----7---5----|
|--3-17-17-17-19----8-----7-0--3---19---|-22----24--22----|
|---------------------------------------|-17---------7----|
|---------------------------------------|-----------------|
|---------------------------------------|-----------------|
|---------------------------------------|-----------------|


   S  S  S  S  S S  Q   E S S S S    S  S  S  S  S S  E.  S  E  S  S  S  S
|---------------------------------|----------------------------------------|
|---------------------------------|----------------------------------------|
|---------------------------------|-----------------------5--5--5--5--5--5-|
|--------------4----5---4-x-x---x-|--------------4----5--------------------|
|--0--2--2--2--2----2---2-x-x---x-|--0--2--2--2--2----2---3--3--3--3--3--3-|
|--0--2--2--2--2----2---2---------|--0--2--2--2--2----2--------------------|
|
|  S  S  S  S  S S  Q   E Q          S  S  S  S  S S  E.  S  E  S  S  S  S
|-10--0--0--0--2---15---2---------|-10--0--0--0--2---15---8--8--8--8--8--8-|
|--3-17-17-17-19----8--19---------|--3-17-17-17-19----8--25-25-25-25-25-25-|
|---------------------------------|----------------------------------------|
|---------------------------------|----------------------------------------|
|---------------------------------|----------------------------------------|
|---------------------------------|----------------------------------------|


   S  S  S  S  S S  Q   E S S S S
|------------------------------------|
|------------------------------------|
|------------------------------------|
|--------------4----5---4-x-x---x----|
|--0--2--2--2--2----2---2-x-x---x----|
|--0--2--2--2--2----2---2------------|
|
|  S  S  S  S  S S  Q   E Q
|-10--0--0--0--2---15---2------------|
|--3-17-17-17-19----8--19------------|
|------------------------------------|
|------------------------------------|
|------------------------------------|
|------------------------------------|


   S  S  S  S  S S  Q   E S S S S    H     H
|---------------------------------|---------------|
|---------------------------------|--------3------|
|---------------------------------|--------2------|
|--------------4----5---4-x-x---x-|--3-----0------|
|--0--2--2--2--2----2---2-x-x---x-|--3-----0------|
|--0--2--2--2--2----2---2---------|--3-----0------|
|
|  S  S  S  S  S S  Q   E Q          H     Q   Q
|-10--0--0--0--2---15---2---------|--5-----7---5--|
|--3-17-17-17-19----8--19---------|-22----24--22--|
|---------------------------------|-17---------7--|
|---------------------------------|---------------|
|---------------------------------|---------------|
|---------------------------------|---------------|


   S  S  S  S  S S  Q   E S S S S    S  S  S  S  S S  Q   E S S S S
|---------------------------------|------------------------------------|
|---------------------------------|------------------------------------|
|---------------------------------|------------------------------------|
|--------------4----5---4-x-x---x-|--------------4----5---4-x-x---x----|
|--0--2--2--2--2----2---2-x-x---x-|--0--2--2--2--2----2---2-x-x---x----|
|--0--2--2--2--2----2---2---------|--0--2--2--2--2----2---2------------|
|
|  S  S  S  S  S S  Q   E Q          S  S  S  S  S S  Q   E Q
|-10--0--0--0--2---15---2---------|-10--0--0--0--2---15---2------------|
|--3-17-17-17-19----8--19---------|--3-17-17-17-19----8--19------------|
|---------------------------------|------------------------------------|
|---------------------------------|------------------------------------|
|---------------------------------|------------------------------------|
|---------------------------------|------------------------------------|


   E E E E  S S E E E     E  E E E  S S E  E E
|---------------------|------------------------|
|---------------------|------------------------|
|--4-4-4-4--4---------|---5--5-5-5--5-2-2--2-2-|
|-------------3-3-3-3-|------------------------|
|--2-2-2-2--2---------|---3--3-3-3--3-0-0--0-0-|
|-------------3-3-3-3-|------------------------|
|
|  H        H            +H         Q      Q
|--7--------8---------|--(8)-------10-----24---|
|-24-------25---------|-(25)-------27-----17---|
|---------------------|------------------------|
|---------------------|------------------------|
|---------------------|------------------------|
|---------------------|------------------------|


   E E E E  S S E E E     E  E E E  Q   Q
|---------------------|---------------------|
|---------------------|---------------------|
|--4-4-4-4--4---------|---5--5-5-5--7---9---|
|-------------3-3-3-3-|---------------------|
|--2-2-2-2--2---------|---3--3-3-3--5---7---|
|-------------3-3-3-3-|---------------------|
|
|  H        H            +H         Q   Q
|--7--------8---------|--(8)-------10--24---|
|-24-------25---------|-(25)-------27--17---|
|---------------------|---------------------|
|---------------------|---------------------|
|---------------------|---------------------|
|---------------------|---------------------|


   H     Q   Q     Q  Q   Q   Q     E E E E  E E  E E    H     H
|---------------|----------------|--------------------|-------------|
|--3------------|----------------|--------------------|-------------|
|--2-----9--11--|----------------|--------------------|-------------|
|--0------------|--2--2---4---5--|--5-5-5-5--5-5--5-5-|--------5----|
|--0-----7---9--|--2--2---2---2--|--3-3-3-3--3-3--3-3-|--4-----5----|
|--0-----0---0--|--2--2---2---2--|--------------------|--5-----5----|
|
|  H     Q   Q     H      Q   Q     H        Q    Q      H     H
|-10----12--26--|-12-----24--24--|--8-------10----8---|--9----10----|
|-27----29--19--|-29------7---8--|--1--------3----1---|-26----27----|
|-26----19--19--|--9------9---9--|-21-------24---24---|-12----12----|
|---------------|-21-----28--28--|-29-----------------|-------------|
|---------------|----------------|--------------------|-------------|
|---------------|----------------|--------------------|-------------|


   H     Q   Q     Q  Q   Q   Q     E E E E  E E  E E    H     H
|---------------|----------------|--------------------|-------------|
|--3------------|----------------|--------------------|-------------|
|--2-----9--11--|----------------|--------------------|-------------|
|--0------------|--2--2---4---5--|--5-5-5-5--5-5--5-5-|--------5----|
|--0-----7---9--|--2--2---2---2--|--3-3-3-3--3-3--3-3-|--4-----5----|
|--0-----0---0--|--2--2---2---2--|--------------------|--5-----5----|
|
|  H     Q   Q     H      Q   Q     H        Q    Q      H     H
|-10----12--26--|-12-----24--24--|--8-------10----8---|--9----10----|
|-27----29--19--|-29------7---8--|--1--------3----1---|-26----27----|
|-------19--19--|--9------9---9--|-21-------24---24---|-12----12----|
|---------------|-21-----28--28--|-29-----------------|-------------|
|---------------|----------------|--------------------|-------------|
|---------------|----------------|--------------------|-------------|


   S  S  S  S  S S  Q   E S S S S    S  S  S  S  S S  E.  S  E  S  S  S  S
|---------------------------------|----------------------------------------|
|---------------------------------|----------------------------------------|
|---------------------------------|-----------------------5--5--5--5--5--5-|
|--------------4----5---4-x-x---x-|--------------4----5--------------------|
|--0--2--2--2--2----2---2-x-x---x-|--0--2--2--2--2----2---3--3--3--3--3--3-|
|--0--2--2--2--2----2---2---------|--0--2--2--2--2----2--------------------|
|
|  S  S  S  S  S S  Q   E Q          S  S  S  S  S S  E.  S  E  S  S  S  S
|-10--0--0--0--2---15---2---------|-10--0--0--0--2---15---8--8--8--8--8--8-|
|--3-17-17-17-19----8--19---------|--3-17-17-17-19----8--25-25-25-25-25-25-|
|---------------------------------|----------------------------------------|
|---------------------------------|----------------------------------------|
|---------------------------------|----------------------------------------|
|---------------------------------|----------------------------------------|


   S  S  S  S  S S  Q   E S S S S
|------------------------------------|
|------------------------------------|
|------------------------------------|
|--------------4----5---4-x-x---x----|
|--0--2--2--2--2----2---2-x-x---x----|
|--0--2--2--2--2----2---2------------|
|
|  S  S  S  S  S S  Q   E Q
|-10--0--0--0--2---15---2------------|
|--3-17-17-17-19----8--19------------|
|------------------------------------|
|------------------------------------|
|------------------------------------|
|------------------------------------|


   S  S  S  S  S S  Q   E S S S S
|---------------------------------|
|---------------------------------|
|---------------------------------|
|--------------4----5---4-x-x---x-|
|--0--2--2--2--2----2---2-x-x---x-|
|--0--2--2--2--2----2---2---------|
|
|  S  S  S  S  S S  Q   E Q
|-10--0--0--0--2---15---2---------|
|--3-17-17-17-19----8--19---------|
|---------------------------------|
|---------------------------------|
|---------------------------------|
|---------------------------------|


   H     H         S S S S S S Q    E  S S S S
|---------------|-------------------------------|
|--------3------|-------------------------------|
|--------2------|-------------------------------|
|--3-----0------|----------4---5----4--x-x---x--|
|--3-----0------|--0-2-2-2-2---2----2--x-x---x--|
|--3-----0------|--0-2-2-2-2---2----2-----------|
|
|  H     Q   Q     H              Q    Q
|--5-----7---5--|-12-------------15----2--------|
|-22----24--22--|--5--------------8---19--------|
|-17---------7--|-16----------------------------|
|---------------|-------------------------------|
|---------------|-------------------------------|
|---------------|-------------------------------|


   E E E E  S S E E E     E  E E E  S S E  E E
|---------------------|------------------------|
|---------------------|------------------------|
|--4-4-4-4--4---------|---5--5-5-5--5-2-2--2-2-|
|-------------3-3-3-3-|------------------------|
|--2-2-2-2--2---------|---3--3-3-3--3-0-0--0-0-|
|-------------3-3-3-3-|------------------------|
|
|  H        H            +H         Q      Q
|--7--------8---------|--(8)-------10-----24---|
|-24-------25---------|-(25)-------27-----17---|
|---------------------|------------------------|
|---------------------|------------------------|
|---------------------|------------------------|
|---------------------|------------------------|


   E E E E  S S E E E     E  E E E  Q   Q
|---------------------|---------------------|
|---------------------|---------------------|
|--4-4-4-4--4---------|---5--5-5-5--7---9---|
|-------------3-3-3-3-|---------------------|
|--2-2-2-2--2---------|---3--3-3-3--5---7---|
|-------------3-3-3-3-|---------------------|
|
|  H        H            +H         Q   Q
|--7--------8---------|--(8)-------10--24---|
|-24-------25---------|-(25)-------27--17---|
|---------------------|---------------------|
|---------------------|---------------------|
|---------------------|---------------------|
|---------------------|---------------------|


   H     Q   Q     Q  Q   Q   Q     E E E E  E E  E E    H     H
|---------------|----------------|--------------------|-------------|
|--3------------|----------------|--------------------|-------------|
|--2-----9--11--|----------------|--------------------|-------------|
|--0------------|--2--2---4---5--|--5-5-5-5--5-5--5-5-|--------5----|
|--0-----7---9--|--2--2---2---2--|--3-3-3-3--3-3--3-3-|--4-----5----|
|--0-----0---0--|--2--2---2---2--|--------------------|--5-----5----|
|
|  H     Q   Q     H      Q   Q     H        Q    Q      H     H
|-10----12--26--|-12-----24--24--|--8-------10----8---|--9----10----|
|-27----29--19--|-29------7---8--|--1--------3----1---|-26----27----|
|-26----19--19--|--9------9---9--|-21-------24---24---|-12----12----|
|---------------|-21-----28--28--|-29-----------------|-------------|
|---------------|----------------|--------------------|-------------|
|---------------|----------------|--------------------|-------------|


   H     Q   Q     Q  Q   Q   Q     E E E E  E E  E E    H     H
|---------------|----------------|--------------------|-------------|
|--3------------|----------------|--------------------|-------------|
|--2-----9--11--|----------------|--------------------|-------------|
|--0------------|--2--2---4---5--|--5-5-5-5--5-5--5-5-|--------5----|
|--0-----7---9--|--2--2---2---2--|--3-3-3-3--3-3--3-3-|--4-----5----|
|--0-----0---0--|--2--2---2---2--|--------------------|--5-----5----|
|
|  H     Q   Q     H      Q   Q     H        Q    Q      H     H
|-10----12--26--|-12-----24--24--|--8-------10----8---|--9----10----|
|-27----29--19--|-29------7---8--|--1--------3----1---|-26----27----|
|-------19--19--|--9------9---9--|-21-------24---24---|-12----12----|
|---------------|-21-----28--28--|-29-----------------|-------------|
|---------------|----------------|--------------------|-------------|
|---------------|----------------|--------------------|-------------|


   S  S  S  S  S S  Q   E S S S S    S  S  S  S  S S  Q   Q.
|---------------------------------|----------------------------|
|---------------------------------|----------------------------|
|---------------------------------|----------------------------|
|--------------4----5---4-x-x---x-|--------------4----5---4----|
|--0--2--2--2--2----2---2-x-x---x-|--0--2--2--2--2----2---2----|
|--0--2--2--2--2----2---2---------|--0--2--2--2--2----2---2----|
|
|  S  S  S  S  S S  Q   E Q          S  S  S  S  S S  Q   Q.
|-10--0--0--0--2---15---2---------|-10--0--0--0--2---15---2----|
|--3-17-17-17-19----8--19---------|--3-17-17-17-19----8--19----|
|---------------------------------|----------------------------|
|---------------------------------|----------------------------|
|---------------------------------|----------------------------|
|---------------------------------|----------------------------|


   S  E  S  E  S  E  S  S. Q  T    S  E  S  E  S  E  S  Q.
|-------------------------------|----------------------------|
|-------------------------------|----------------------------|
|-------------------------------|----------------------------|
|-----------4-----------4-------|-----------4-----------2----|
|-----------3-----------3-------|-----------3-----------1----|
|--0--0--0-----0--0--0----------|--0--0--0-----0--0--0-------|
|
|  S  E  S  E  S  E  S  S. Q  T    S  E  S  E  S  E  S  Q.
|-10-10-10--8-10-10-10--8-------|-10-10-10--8-10-10-10--6----|
|-----3--3-25--3--3--3-25-------|-----3--3-25--3--3--3-29----|
|--7-------23----------23-------|--7-------23----------27----|
|----------16----------16-------|----------16----------26----|
|-------------------------------|----------------------------|
|-------------------------------|----------------------------|


   S  E  S  E  S  E  S  S. Q  T    S  E  S  E  S  E  S  Q.
|-------------------------------|-----------------------------|
|-------------------------------|-----------------------------|
|-------------------------------|-----------------------------|
|-----------4-----------4-------|-----------4-----------2-----|
|-----------3-----------3-------|-----------3-----------1-----|
|--0--0--0-----0--0--0----------|--0--0--0-----0--0--0--------|
|
|  S  E  S  E  S  E  S  S. Q  T    S  E  S  E  S  E  S  Q.
|-10-10-10--8-10-10-10--8-------|-10-10-10--8-10-10-10--6-----|
|-----3--3-25--3--3--3-25-------|-----3--3-25--3--3--3-29-----|
|--7-------23----------23-------|--7-------23----------27-----|
|----------16----------16-------|----------16----------26-----|
|-------------------------------|-----------------------------|
|-------------------------------|-----------------------------|


  Gtr IV
  E E E Q   S    +S  +S     +S  +S     +S
|-0-0-0-0--(0)---(0)-(0)----(0)-(0)----(0)----|
|-5-5-7-8---7b8==(7)r(7)b8==(7)r(7)b8==(7)b8==|
|---------------------------------------------|
|---------------------------------------------|
|---------------------------------------------|
|---------------------------------------------|
|
| Gtr III
| W
|-7-------------------------------------------|
|-8-------------------------------------------|
|---------------------------------------------|
|---------------------------------------------|
|---------------------------------------------|
|---------------------------------------------|


                               ~~
  +S  +S     +S  +S    S  S E  H       S S S S S   S S S  S S Q    S S
|-(0)-(0)----(0)-(0)--------0-10----|-----------------------------------|
|-(7)r(7)b8==(7)r(7)b8-7s10---------|-----------------------------------|
|-----------------------------------|-----------------------------------|
|-----------------------------------|------5-7-7b9r5-7----5-7-5b7r======|
|-----------------------------------|----7-------------7-----------7-5--|
|-----------------------------------|-----------------------------------|
|
| +W                                   H                  H
|-(7)-------------------------------|--1--------------------------------|
|-(8)-------------------------------|-10------------------3-------------|
|-----------------------------------|-17-----------------14-------------|
|-----------------------------------|-----------------------------------|
|-----------------------------------|-----------------------------------|
|-----------------------------------|-----------------------------------|


    ~~~~~~~~~                                       ~~~~~~~~~~~~
  S H    +E  S S S  S S    S   E.     a       +E.  +Q       +S   E    S S
|-----------------------|-------------------------------------------------|
|-----------------------|-------------------------------------------------|
|--------------9---11---|-12--11b12-(11)b12==(11)r(11)b12--(11)-11b12r9-7-|
|-5----------9---9----9-|-------------------------------------------------|
|---7----(7)------------|-------------------------------------------------|
|-----------------------|-------------------------------------------------|
|
| W                       +W
|-7---------------------|-(7)---------------------------------------------|
|-8---------------------|-(8)---------------------------------------------|
|-----------------------|-------------------------------------------------|
|-----------------------|-------------------------------------------------|
|-----------------------|-------------------------------------------------|
|-----------------------|-------------------------------------------------|


   ~~~~
                          |--3--|
   H       S  S  S  S  S  T  T  T  S  S
|------------12-14-15-14-12-14-12----12---|
|---------12----------------------15------|
|--7b9------------------------------------|
|-----------------------------------------|
|-----------------------------------------|
|-----------------------------------------|
|
| +W
|-(7)-------------------------------------|
|-(8)-------------------------------------|
|-----------------------------------------|
|-----------------------------------------|
|-----------------------------------------|
|-----------------------------------------|


                    ~~~~~~~~
                             |--3--|  |---3----|  |--3--|  |--3--|
   S      +S   +S   Q   +S   S  S  S  S     S  S  S  S  S  S  S  S
|---------------------------12-------------------------------------|
|-15b17==(15)-(15)r15--(15)----15-12-------12-15----12-------------|
|------------------------------------14b15-------15----15-14-12----|
|---------------------------------------------------------------14-|
|------------------------------------------------------------------|
|------------------------------------------------------------------|
|
|  H                         H
|--1---------------------------------------------------------------|
|-10-------------------------3-------------------------------------|
|-17------------------------14-------------------------------------|
|------------------------------------------------------------------|
|------------------------------------------------------------------|
|------------------------------------------------------------------|


                                             ~~~~~~~
   |--3--|  |--3--|  |--3--|
   S  S  S  S  S  S  S  S  S  S.    T  T.  S Q  +X  S S
|---------------------------------------------------------|
|---------------------------------------------------------|
|-14----14------------------------------------------7-9---|
|----14----14-12------------------------------------------|
|----------------14-13-12-10-12b13r10-12--10-7--(7)-------|
|---------------------------------------------------------|
|
|  W
|--7------------------------------------------------------|
|--8------------------------------------------------------|
|---------------------------------------------------------|
|---------------------------------------------------------|
|---------------------------------------------------------|
|---------------------------------------------------------|


   ~~~                       ~~
   Q.    E  E E  E  E    +E  Q.    E E  E  E
|---------------------|----------------------|
|---------------------|----------------------|
|--7----11-11-9-11-12-|-(12)-9----11-9-11-12-|
|---------------------|----------------------|
|---------------------|----------------------|
|---------------------|----------------------|
|
| Gtr II
|  W                      W
|---------------------|----------------------|
|---------------------|----------------------|
|---------------------|----------------------|
|---------------------|----------------------|
|---------------------|----------------------|
|---------------------|----------------------|
|
| Gtr III
|  W                      W
|-10------------------|--12------------------|
|---------------------|---8------------------|
|-14------------------|----------------------|
|-16------------------|--21------------------|
|---------------------|----------------------|
|---------------------|----------------------|


       ~~         ~~~~~~~~
                                |-3-|
   +E  Q.   E E E E   +H      S T T T  S S  E.   S
|-------------------|---------8-7-8-7----------------|
|-------------------|-----------------10-8-10b12r8---|
|-(12)-9----9-7-9-7-|-(7)----------------------------|
|-------------------|--------------------------------|
|-------------------|--------------------------------|
|-------------------|--------------------------------|
|
|   W                  H      H
|--20---------------|--9-----10----------------------|
|--20---------------|-26-----27----------------------|
|-------------------|-12-----12----------------------|
|-------------------|--------------------------------|
|-------------------|--------------------------------|
|-------------------|--------------------------------|
|
|   W                  H      H
|---8---------------|--9-----10----------------------|
|---8---------------|--------------------------------|
|--21---------------|-12-----12----------------------|
|-------------------|--------------------------------|
|-------------------|--------------------------------|
|-------------------|--------------------------------|


  Gtr I
   H     Q   Q     Q  Q   Q   Q
|---------------|----------------|
|--3------------|----------------|
|--2-----9--11--|----------------|
|--0------------|--2--2---4---5--|
|--0-----7---9--|--2--2---2---2--|
|--0-----0---0--|--2--2---2---2--|
|
|  H     Q   Q     H      Q   Q
|-10----12--26--|-12-----24--24--|
|-27----29--19--|-29------7---8--|
|-26----19--19--|--9------9---9--|
|---------------|-21-----28--28--|
|---------------|----------------|
|---------------|----------------|
|
| Gtr IV
|  ~~
|  W               W
|---------------|----------------|
|-10------------|----------------|
|---------------|----------------|
|---------------|----------------|
|---------------|----------------|
|---------------|----------------|


   E E E E  E E  E E    H          H
|--------------------|----------------------------|
|--------------------|----------------------------|
|--------------------|----------------------------|
|--5-5-5-5--5-5--5-5-|-------------5--------------|
|--3-3-3-3--3-3--3-3-|--4----------5--------------|
|--------------------|--5----------5--------------|
|
|  H        Q    Q      H          H
|--8-------10----8---|--9---------10--------------|
|--1--------3----1---|-26---------27--------------|
|-21-------24---24---|-12---------12--------------|
|-29-----------------|----------------------------|
|--------------------|----------------------------|
|--------------------|----------------------------|
|
|                          |-3--|  |--3--| |-3-|
|  W                    Q  E E  E  E +E  E E E E
|--------------------|----------------------------|
|--------------------|---------------------8-7----|
|--------------------|-------------------7-----9--|
|--------------------|-------------9-(9)----------|
|--------------------|-------7-10-----------------|
|--------------------|----------------------------|


   H      Q   Q        Q  Q   Q   Q     E E E E  E E  E E    H     H
|-------------------|----------------|--------------------|-------------|
|--3----------------|----------------|--------------------|-------------|
|--2------9--11-----|----------------|--------------------|-------------|
|--0----------------|--2--2---4---5--|--5-5-5-5--5-5--5-5-|--------5----|
|--0------7---9-----|--2--2---2---2--|--3-3-3-3--3-3--3-3-|--4-----5----|
|--0------0---0-----|--2--2---2---2--|--------------------|--5-----5----|
|
|  H      Q   Q        H      Q   Q     H        Q    Q      H     H
|-10-----12--26-----|-12-----24--24--|--8-------10----8---|--9----10----|
|-27-----29--19-----|-29------7---8--|--1--------3----1---|-26----27----|
|-26-----19--19-----|--9------9---9--|-21-------24---24---|-12----12----|
|-------------------|-21-----28--28--|-29-----------------|-------------|
|-------------------|----------------|--------------------|-------------|
|-------------------|----------------|--------------------|-------------|
|
|  ~~~
|  H.        +E   E    W                W                    W
|-------------------|----------------|--------------------|-------------|
|-------------------|----------------|--------------------|-------------|
|--7---------(7)\---|----------------|--------------------|-------------|
|-------------------|----------------|--------------------|-------------|
|-------------------|----------------|--------------------|-------------|
|-------------------|----------------|--------------------|-------------|


   E    E E E  E    E E E    E     E  E  E  E     E  E  E
|-------------------------|-------------------------------|
|-------------------------|-------------------------------|
|--7----7-7-7--9----9-9-9-|-11----11-11-11-14----14-14-14-|
|-------------------------|-------------------------------|
|--5----5-5-5--7----7-7-7-|--9-----9--9--9-12----12-12-12-|
|--0----0-0-0--0----0-0-0-|--0-----0--0--0--0-----0--0--0-|
|
|  H           H             H              H
|-10----------24----------|-26-------------29-------------|
|-27----------17----------|-19-------------22-------------|
|--7-----------9----------|-11-------------14-------------|
|-------------------------|-------------------------------|
|-------------------------|-------------------------------|
|-------------------------|-------------------------------|
|
|  H           H             H              H
|-10----------12----------|-14-------------17-------------|
|-13b15-------15b17-------|-17b19----------20b22----------|
|-------------------------|-------------------------------|
|-------------------------|-------------------------------|
|-------------------------|-------------------------------|
|-------------------------|-------------------------------|


   S     S  S  S   S S  Q   E S S S S    S  S  S  S  S S  E.  S  E  S  S  S  S
|-------------------------------------|------------------------------------------|
|-------------------------------------|------------------------------------------|
|-------------------------------------|-----------------------5--5--5--5--5--5---|
|------------------4----5---4-x-x---x-|--------------4----5----------------------|
|--0-----2--2--2---2----2---2-x-x---x-|--0--2--2--2--2----2---3--3--3--3--3--3---|
|--0-----2--2--2---2----2---2---------|--0--2--2--2--2----2----------------------|
|
|  S     S  S  S   S S  Q   E Q          S  S  S  S  S S  E.  S  E  S  S  S  S
|-10-----0--0--0---2---15---2---------|-10--0--0--0--2---15---8--8--8--8--8--8---|
|--3----17-17-17--19----8--19---------|--3-17-17-17-19----8--25-25-25-25-25-25---|
|-------------------------------------|------------------------------------------|
|-------------------------------------|------------------------------------------|
|-------------------------------------|------------------------------------------|
|-------------------------------------|------------------------------------------|
|
|  E.          H.                   S    W
|-19----------------------------------|------------------------------------------|
|-22b24-------------------------------|------------------------------------------|
|-------------------------------------|------------------------------------------|
|-------------------------------------|------------------------------------------|
|-------------------------------------|------------------------------------------|
|-------------------------------------|------------------------------------------|


   S  S  S  S  S S  Q   E S S S S    S  S  S  S  S S  Q   E  S  S +E
|---------------------------------|------------------------------------*|
|---------------------------------|------------------------------------*|
|---------------------------------|-----------------------5--5--5-(5)\-*|
|--------------4----5---4-x-x---x-|--------------4----5----------------*|
|--0--2--2--2--2----2---2-x-x---x-|--0--2--2--2--2----2---3--3--3-(3)\-*|
|--0--2--2--2--2----2---2---------|--0--2--2--2--2----2----------------*|
|
|  S  S  S  S  S S  Q   E Q          S  S  S  S  S S  Q   E  S  S  E
|-10--0--0--0--2---15---2---------|-10--0--0--0--2---15---8--8--8--8---*|
|--3-17-17-17-19----8--19---------|--3-17-17-17-19----8--25-25-25-25---*|
|---------------------------------|------------------------------------*|
|---------------------------------|------------------------------------*|
|---------------------------------|------------------------------------*|
|---------------------------------|------------------------------------*|



Duration Legend
---------------
W - whole; H - half; Q - quarter; E - 8th; S - 16th; T - 32nd; X - 64th; a - acciaccatura
+ - note tied to previous; . - note dotted; .. - note double dotted
Uncapitalized letters represent notes that are staccato (1/2 duration)
Irregular groupings are notated above the duration line
Duration letters will always appear directly above the note/fret number it represents the
duration for.  Duration letters with no fret number below them represent rests.  Multi-
bar rests are notated in the form Wxn, where n is the number of bars to rest for.  Low
melody durations appear below the staff

Tablature Legend
----------------
 h   - hammer-on
 p   - pull-off
 b   - bend
 pb  - pre-bend
 r   - bend release (if no number after the r, then release immediately)
 /\  - slide into or out of (from/to "nowhere")
 s   - legato slide
 S   - shift slide
<n> - natural harmonic
[n]  - artificial harmonic
n(n) - tapped harmonic
 ~   - vibrato
 tr  - trill
 T   - tap
 TP  - trem. picking
 PM  - palm muting
\n/  - tremolo bar dip; n = amount to dip
 \n  - tremolo bar down
 n/  - tremolo bar up
/n\  - tremolo bar inverted dip
 =   - hold bend; also acts as connecting device for hammers/pulls
 <> - volume swell (louder/softer)
 x   - on rhythm slash represents muted slash
 o   - on rhythm slash represents single note slash

Misc Legend
-----------
 |  - bar
||  - double bar
||o - repeat start
o|| - repeat end
*|  - double bar (ending)
 :  - bar (freetime)
 $  - Segno
 &  - Coda
Tempo markers - <E/E./Q/Q./H/H.> = BPM(8/16=s8/s16), where s8 = swing 8ths, s16 = swing 16ths

comments
We did not receive enough feedback on this tab! Please rate:
print report bad tab
1 2 3 4 5
I want to post or [tab]
guest
You may want to rate the tab now too:
select rating
Please do not post tabs as comments. Select "correction" instead!