Oops, an error
Loading. Please wait.

Fallen Tab

29,216 views 24 this week
11 commentsread comments
1 2 3 4 5
accurate
x 15
add to favorites launch autoscroll
font size
0
reset
Autoscroll
+/-
esc
set tempo
stop
Contributor
WARNING: You are trying to view
                                    content from Ultimate-Guitar.com
                                    in an unauthorized application,
                                    which is prohibited.

                                    Please use an official Ultimate
                                    Guitar Tabs application for iPhone,
                                    iPad or Android to access legitimate
                                    chords, guitar, bass, and drum tabs
                                    from Ultimate-Guitar.com database.

                                    Type "ultimate guitar tabs" in Apple
                                    App Store's or Android Market's
                                    search to find the application.
Band- Evanescence
Album- Fallen

Track Listings:
1.Going Under
2.Bring Me To Life
3.Everybody's Fool
4.My Immortal
5.Haunted
6.Tourniquet
7.Imaginary
8.Taking Over Me
9.Hello
10.My Last Breath
11.Whisper

1.GOING UNDER

Intro/Verses: x6

e|-------------|
b|-------------|
G|-------------|
D|--22-22-2-2--|
A|--22-22-2-2--|
E|--00-00-0-0--|

Pre-Chorus:

e|--xx-xx-x-x--|
b|--xx-xx-x-x--|
G|--xx-xx-x-x--|
D|--xx-xx-x-x--|
A|--xx-xx-x-x--|
E|--xx-xx-x-x--|

*"I... Dive... Again" Part

Chorus:                          x5

e|--------------------------------|
b|--------------------------------|
G|-------x-55-5-------------------|
D|--22-2-x-55-5-x-55-5------------|
A|--22-2-x-33-3-x-55-5-x-55-5-xx--|
E|--00-0--------x-33-3-x-22-2-xx--|

Pre-Verses:

e|-------------|
b|-------------|
G|-------------|
D|--22-22-2-2--|
A|--22-22-2-2--|
E|--00-00-0-0--|

Verses x6
Pre-Chorus
Chorus x5

Interlude:               x2

e|------------------------|
b|------------------------|
G|------------------------|
D|--555555-444444-222222--|
A|--555555-444444-222222--|
E|--333333-222222-000000--|

2.BRING ME TO LIFE

Tuning - Standard

Intro: piano arranged for guitar
       finger picked with capo on 7th fret
e|-----0----------0---------1-------5--------0-------------|
B|------------3--------------------------------------------|
G|--2---------2------2------2----2-----2-----2------2---2--|
D|--------2-------2-----2------2----2-----2------2------2--|
A|-----0---------------------------------------------------|
E|---------------------------------------------------------|

e|---0----------0---------1-------5--------0-------------|
B|----------3--------------------------------------------|
G|----------2------2------2----2-----2-----2------2---2--|
D|------3-------3-----3------3----3-----3------3------2--|
A|---0---------------------------------------------------|
E|-------------------------------------------------------|

Verse:
e|--------------------------------|-----------------------------|
B|--------------------------------|-----------------------------|
G|--------------------------------|---------------------------#-|
D|--------------------------------|---------------------------2-|
A|--2-2------2-2------2-2-----2-2-|-2-2---2-2---2-2---2---------|
E|--0-0------0-0------0-0-----0-0-|-0-0---0-0---0-0---0---0-0---|
pm                                                        ...

e|--------------------------------|-----------------------------||
B|--------------------------------|-----------------------------||
G|--------------------------------|-----------------------------||o
D|--------------------------------|-----------------------------||o
A|--3-3------3-3------3-3-----3-3-|-3-3---3-3---3-3---3-------3-||
E|--0-0------0-0------0-0-----0-0-|-0-0---0-0---0-0---0---0-0---||
pm                                                        ...

Chorus:
e|-----------------------------------------------------|
B|-----------------------------------------------------|
G|-----------------------------------------------------|
D|--2----2--2----2---2--------5----5--5---5----5-------|
A|--2----2--2----2---2--------5----5--5---5----5-------|
E|--0----0--0----0---0--------3----3--3---3----3-------|

e|-------------------------------0----------|-----------------------------|
B|-3----3--3----3---3------------0----------|-----------------------------|
G|-2----2--2----2---2-----------------------|-----------------------------|
D|-0----0--0----0---0----2---2--------------|-2-2---2-2---2-2--2-2--------|
A|-----------------------2---2-------0----3-|-2-2---2-2---2-2--2-2------3-|
E|-----------------------0---0--------------|-0-0---0-0---0-0--0-0--0-0---|
pm                                                                  ...

Interlude:
e|--------------------------------------------------------------|
B|--------------------------------------------------------------|
G|-5----------------------------------------7-------------------|
D|-5----------------------------------------7-------------------|
A|-3----------------------------------------5-------------------|
E|-3---------0----------------0--0----------5------0-------0-0--|
pm         .........................           ................

e|-------------------------------------------------------------------------|
B|-------------------------------------------------------------------------|
G|-----------------------------------------------------------------------#-|
D|-----------------------------------------------------------------------2-|
A|-2-2----2-2-----2-2----2-2-------2-2-2-2----2-2---2-2--2-2---2-2---------|
E|-0-0----0-0-----0-0----0-0-------0-0-0-0----0-0---0-0--0-0---0-0--0--0---|
pm                                      ...                         .....

e|-------------------|
B|-------------------|
G|-------------------|
D|-------------------|
A|--2-----------2----|
E|--0---2---3--------|

Bridge:
e|------------------------------------------------------------------------|
B|---------0------------------------------------------------------------0-|
G|------------------------------------------------------------------------|
D|------------------------------------------------------------------------|
A|--0-------------------------------------2-----------------2------0------|
E|-----------------3-----------2----------0------2-----3------------------|

e|-----------------------------------------------------|
B|-------------0------------7--------------------------|
G|--------------------------9--------------------------|
D|-----------------------------------------------------|
A|-----------------------------------------------------|
E|---3-------------------------------------------------|

Outro: Guitar 1
e|-------------------------------------------------------|
B|-------------------------------------------------------|
G|--5---5-5----5-5-5-5-5-5-5----7---7-7---7-7-7-7-7-7-7--|
D|--5---5-5----5-5-5-5-5-5-5----7---7-7---7-7-7-7-7-7-7--|
A|--3---3-3----3-3-3-3-3-3-3----5---5-5---5-5-5-5-5-5-5--|
E|--3---3-3----3-3-3-3-3-3-3----5---5-5---5-5-5-5-5-5-5--|
      Guitar 2
e|-------------------------------------------------------------------|
B|-------------------------------------------------------------------|
G|--9-----11------12------14-----17-17-17-17-17-17-17-17-17-19-19-19-|
D|--x------x-------x-------x------x--x--x--x--x--x--x--x--x--x--x--x-|
A|--7------9------10------12-----15-15-15-15-15-15-15-15-17-17-17-17-|
E|-------------------------------------------------------------------|
     Guitar 1: continued
e|-----------------------------------------------------------|
B|-----------------------------------------------------------|
G|--5---5-5----5-5-5-5-5-5-5----7---7-7---7-7-7-7-7-7-7------|
D|--5---5-5----5-5-5-5-5-5-5----7---7-7---7-7-7-7-7-7-7------|
A|--3---3-3----3-3-3-3-3-3-3----5---5-5---5-5-5-5-5-5-5--2~~-|
E|--3---3-3----3-3-3-3-3-3-3----5---5-5---5-5-5-5-5-5-5--0~~-|

     Guitar 2: continued
e|-----------------------------------------------------|
B|-----------------------------------------------------|
G|-14-14-14-14-14-14-14-14-14-17-17-17-17-17-16--------|
D|--x--x--x--x--x--x--x--x--x--x--x--x--x--x--x--------|
A|-12-12-12-12-12-12-12-12/15-15-15-15-15-15\14--------|
E|-----------------------------------------------------|

3.EVERYBODY'S FOOL

Intro-
  |-------------------------------------------------------------|
  |-6------6------6------6--------5------5------5------5--------|
  |----------------------------7------------------------------7-|
  |---7------7-----7------7---------7------7------7------7------|
  |-----5------5-----5------5---------5------5------5------5----|
  |-------------------------------------------------------------|


  |-------------------------------------------------------------|
  |-------------------------------------------------------------|
  |-------------------------------------------------------------|
  |-0-0--10--0~---7h8p7--10-10-10--7----------------------------|
  |-0-0--10--0~---7h8p7--10-10-10--7----------------------------|
  |-0-0--10--0~---7h8p7--10-10-10--7----------------------------|
P.M._ _

  Verse
  |-------------------------------------------------------------|
  |-------------------------------------------------------------|
  |-------------------------------------------------------------|
  |-0-0--0-0--10--0-0--0-0-0-10--0-0--0-0--10---8--3--5--0-0--3-|
  |-0-0--0-0--10--0-0--0-0-0-10--0-0--0-0--10---8--3--5--0-0--3-|
  |-0-0--0-0--10--0-0--0-0-0-10--0-0--0-0--10---8--3--5--0-0--3-|
P.M._ _  _ _      _ _  _ _       _ _  _ _                _ _
  Chorus
  |-------------------------------------------------------------|
  |-------------------------------------------------------------|
  |-------------------------------------------------------------|
  |-0--0-0--0--7h8p7--10--10-10-10--7~--------------------------|
  |-0--0-0--0--7h8p7--10--10-10-10--7~--------------------------|
  |-0--0-0--0--7h8p7--10--10-10-10--7~--------------------------|
     1st half          half point
  |--------------------------|----------------------------------------|
  |--------------------------|----------------------------------------|
  |--------------------------|----------------------------------------|
  |-8--8--8-8-7--5--5--5-8-7-|-0--0-0-0--0-0-0-10--0--0-0-0--0-0-0-10-|
  |-8--8--8-8-7--5--5--5-8-7-|-0--0-0-0--0-0-0-10--0--0-0-0--0-0-0-10-|
  |-8--8--8-8-7--5--5--5-8-7-|-0--0-0-0--0-0-0-10--0--0-0-0--0-0-0-10-|
P.M.                              _ _ _  _ _          _ _ _  _ _
   2nd Verse Lead part
  |------------------------|
  |------------------------|
  |------------------------|
  |-0----3-2---------------|
  |---3--------------------|
  |------------------------|

  Bridge
  |------------------------------------------------------------------------|
  |------------------------------------------------------------------------|
  |------------------------------------------------------------------------|
  |-0--0-0--7h8p7--10--10-10--7--8--8-8-8-7h8p7--5--5-5--7--8-8-7-10-10--7-|
  |-0--0-0--7h8p7--10--10-10--7--8--8-8-8-7h8p7--5--5-5--7--8-8-7-10-10--7-|
  |-0--0-0--7h8p7--10--10-10--7--8--8-8-8-7h8p7--5--5-5--7--8-8-7-10-10--7-|

4.MY IMMORTAL

*WITH DISTORTION (guitar 1)
E|------------------------------------------------------14b(15)-------------------------------|
B|--------------------------------------------------------------------------------------------|
G|-----------------------------------------------------------------------------11bv-----------|
D|-4-6-7-9-7�-4--6--7-6-4-2--10-9-7-6�7--6h4---6-7-9h11----------11-9-11-9h7-6--|
A|--------------------------------------------------------------------------------------------|
D|--------------------------------------------------------------------------------------------|

    *WITH DISTORTION (guitar 2)
E|------------------------------------------------------------------------------------------------|
B|------------------------------------------------------------------------------------------------|
G|------------------------------------------------------------------------------------------------|
D|-4-6-7-9-7�-4--6--7-6-4-2--10-9-7-6�7--6h4---6-7-9h11bv--------11-9-11-9h7-6-7bv--|
A|------------------------------------------------------------------------------------------------|
D|------------------------------------------------------------------------------------------------|

*THEN GOES DIRECTLY TO THIS (WITH DISTORTION) (both guitars)
E|--------------------------------------------------------|
B|--------------------------------------------------------|
G|--------------------------------------------------------|
D|7---9---6---4---7---9---6---4---7---9---6---4---7---2---|
A|7---9---6---4---7---9---6---4---7---9---6---4---7---2---|
D|7---9---6---4---7---9---6---4---7---9---6---4---7---2---|

5.HAUNTED

intro
electronics

chorus I

--------------------------------------------------------------------------------------------------|
--------------------------------------------------------------------------------------------------|
--------------------------------------------------------------------------------------------------|
------------------------------7---7-7-------------------------------------------------------------|
--------------2---2-2--/10-9--5---5-5--/9-7--2---2-2--/10-9-10-9-7-9------------------------------|
--------------0---0-0---------5---5-5--------0---0-0----------------------------------------------|x1

--------------------------------------------------------------------------------------------------|
--------------------------------------------------------------------------------------------------|
--------------------------------------------------------------------------------------------------|
-------------------7---7-7------------------------------------------------------------------------|
---2---2-2--/10-9--5---5-5--/9-7--2---2-2--/10-9-10-9-7-9-2---------------------------------------|
---0---0-0---------5---5-5--------0---0-0-----------------0---------------------------------------|x1


--------------------------------------------------------------------------------------------------|
--------------------------------------------------------------------------------------------------|
--------------------------------------------------------------------------------------------------|
-----------------------------------7---7-7---7-7------------------------------4---4---4---4-/-7---|
--------------2---2-2---2-2---x-x--5---5-5---5-5---x-x--2---2-2---2-2---x-x---2---2---2---2-/-5---|
--------------0---0-0---0-0---x-x--5---5-5---5-5---x-x--0---0-0---0-0---x-x-----------------------|x1

--------------------------------------------------------------------------------------------------|
--------------------------------------------------------------------------------------------------|
--------------------------------------------------------------------------------------------------|
------------------------7---7-7---7-7------------------------------4---4---4---4-/-7--------------|
---2---2-2---2-2---x-x--5---5-5---5-5---x-x--2---2-2---2-2---x-x---2---2---2---2-/-5--------------|
---0---0-0---0-0---x-x--5---5-5---5-5---x-x--0---0-0---0-0---x-x----------------------------------|x1

verse I

--------------------------------------------------------------------------------------------------------|
--------------------------------------------------------------------------------------------------------|
--------------------------------------------------------------------------------------------------------|
--------------------------------------------------------------------------------------------------------|
---2-2-2--2-2-2---2--2--------2-2-2--2-2-2---2--2--------2-2-2--2-2-2---2-2--------2-2-2--2-2-2---2-2---|
---0-0-0--0-0-0---0--0--------0-0-0--0-0-0---0--0--------0-0-0--0-0-0---0-0--------0-0-0--0-0-0---0-0---|x2
pm - - -  - - -               - - -  - - -               - - -  - - -              - - -  - - -

chorus II

--------------------------------------------------------------------------------------------------|
--------------------------------------------------------------------------------------------------|
--------------------------------------------------------------------------------------------------|
------------------------------7---7-7-------------------------------------------------------------|
--------------2---2-2--/10-9--5---5-5--/9-7--2---2-2--/10-9-10-9-7-9------------------------------|
--------------0---0-0---------5---5-5--------0---0-0----------------------------------------------|x1

--------------------------------------------------------------------------------------------------|
--------------------------------------------------------------------------------------------------|
--------------------------------------------------------------------------------------------------|
-------------------7---7-7------------------------------------------------------------------------|
---2---2-2--/10-9--5---5-5--/9-7--2---2-2--/10-9--------------------------------------------------|
---0---0-0---------5---5-5--------0---0-0---------------------------------------------------------|x1


--------------------------------------------------------------------------------------------------|
--------------------------------------------------------------------------------------------------|
--------------------------------------------------------------------------------------------------|
-----------------------------------7---7-7---7-7------------------------------4---4---4---4-/-7---|
--------------2---2-2---2-2---x-x--5---5-5---5-5---x-x--2---2-2---2-2---x-x---2---2---2---2-/-5---|
--------------0---0-0---0-0---x-x--5---5-5---5-5---x-x--0---0-0---0-0---x-x-----------------------|x1

--------------------------------------------------------------------------------------------------|
--------------------------------------------------------------------------------------------------|
--------------------------------------------------------------------------------------------------|
------------------------7---7-7---7-7------------------------------4---4---4---4-/----------------|
---2---2-2---2-2---x-x--5---5-5---5-5---x-x--2---2-2---2-2---x-x---2---2---2---2-/----------------|
---0---0-0---0-0---x-x--5---5-5---5-5---x-x--0---0-0---0-0---x-x----------------------------------|x1

solo

-----------------------------------------------------------------------------------------------------------|
--8-7-5-5^7-5~-55--5^7-4-4h5p4---4-------------------------------------------------------------------------|
-------------------------------6---6-4-6-6#^8-4h6~-6^8-4h6~-4h6p4----4h6p4-----4-6#------------------------|
------------------------------------------------------------------6p4-----6p4h6----------------------------|
-----------------------------------------------------------------------------------------------------------|
-----------------------------------------------------------------------------------------------------------|

-----------------------------------------------------------------------------------------------------------|
---------------------------------------------------------5-4-2-4^5-4p2-5p4p2-5p4p2-5p4p2-5p4p2-5p4p2-------|
--4h6p4---4---------------------------------4h6-4-6-6^8----------------------------------------------------|
--------7---7-6-5---4-----------------4h6h7----------------------------------------------------------------|
------------------7---7-6---4#--4h6h7----------------------------------------------------------------------|
--------------------------7--------------------------------------------------------------------------------|

-------------------------------------------------------|
--5/7-5-4-5-4-5-4#-5-5/7-5-7-7/9-10-9-7-7h9p7-5-7-5~~--|
-------------------------------------------------------|
-------------------------------------------------------|
-------------------------------------------------------|
-------------------------------------------------------|

-----------------------------------------------------------------------------------------------------------|
-----------------------------------------------------------------------------------------------------------|
-----------------------------------------------------------------------------------------------------------|
--/-6--6--6--6--\-4--4--4--4-/-6--6--6--6--------------6--6--6--6-\-4--4--4--4-/-6--6--6--6-\-4--4--4--4---|
--/-4--4--4--4--\-2--2--2--2-/-4--4--4--4--6--6--6--6--4--4--4--4-\-2--2--2--2-/-4--4--4--4-\-2--2--2--2---|
-------------------------------------------4--4--4--4------------------------------------------------------|

chorus III

--------------------------------------------------------------------------------------------------|
--------------------------------------------------------------------------------------------------|
--------------------------------------------------------------------------------------------------|
------------------------------7---7-7-------------------------------------------------------------|
--------------2---2-2--/10-9--5---5-5--/9-7--2---2-2--/10-9-10-9-7-9------------------------------|
--------------0---0-0---------5---5-5--------0---0-0----------------------------------------------|x1

--------------------------------------------------------------------------------------------------|
--------------------------------------------------------------------------------------------------|
--------------------------------------------------------------------------------------------------|
-------------------7---7-7------------------------------------------------------------------------|
---2---2-2--/10-9--5---5-5--/9-7--2---2-2--/10-9--------------------------------------------------|
---0---0-0---------5---5-5--------0---0-0---------------------------------------------------------|x1


---------------------------------------------------------------------------------------|
---------------------------------------------------------------------------------------|
---------------------------------------------------------------------------------------|
------------------------7---7-7---7-7------------------------------4---4---4---4-/-7---|
---2---2-2---2-2---x-x--5---5-5---5-5---x-x--2---2-2---2-2---x-x---2---2---2---2-/-5---|
---0---0-0---0-0---x-x--5---5-5---5-5---x-x--0---0-0---0-0---x-x-----------------------|x1

---------------------------------------------------------------------------------------|
---------------------------------------------------------------------------------------|
---------------------------------------------------------------------------------------|
------------------------7---7-7---7-7------------------------------4---4---4---4-/-6---|
---2---2-2---2-2---x-x--5---5-5---5-5---x-x--2---2-2---2-2---x-x---2---2---2---2-/-5---|
---0---0-0---0-0---x-x--5---5-5---5-5---x-x--0---0-0---0-0---x-x-----------------------|x1


End

--------------------------|
--------------------------|
--------------------------|
--------------------------|
---2-2-2--2-2-2---2--2----|
---0-0-0--0-0-0---0--0----|x2
pm - - -  - - -

6.TOURNIQUET

Main Riff	(0:20) x2
----------------------------------------------------------------------------------------------------|
----------------------------------------------------------------------------------------------------|
-----9/12----9/11----7-------9/12-----9/11----9-----9/12-----9/11----7---/12--11--------------------|
-----x-------x-------x-------x--------x-------x-----x--------x-------x---x----x---------------------|
-----7/10----7/9-----5-------7/11-----7/9-----7-----7/10-----7/9-----5---/10--9---/10\9-9h10p9------|
--00------00------00------00------00-------00----00-------00------00------------10-------------10---|
  xx      xx      xx      xx      xx       xx    xx       xx      xx

Intro Backing	(0:30) x1
-------------------------------------------|
-------------------------------------------|
--5*----4*--------5*-----------------------|
------4*--------4*--4*--5*-----------------| Plays throughout the song however with less
--------------------------5*---------------| distortion than at this point... and more quietly.
-------------------------------------------|

Verse 1		(0:58) "I'm Dying..." x2
-------------------------------------------------------|
-------------------------------------------------------|
-------------------------------------------------------|
--2222-22-2-22--22-2-2---2--2222--22-2----4-44---------|
--2222-22-2-22--22-2-2---2--3333--33-3----5-55----6-6v-|
--0000-00-0-00--00-0-0---0--3333--33-3----5-55---------|
  xxxx xx   xx  xx            xx  xx        xx

Main Riff	(1:16) "My God..." x2

Verse 1		(1:45) "Will you be on the other side..." x1

Verse 2		(1:54) "I'm Dying..." x2
--------------------------------------------------------------------|
--------------------------------------------------------------------|
--------------------------------------------------------------------|
--2222222-222-22-22-22-22--22-2--22-22-22-22-22--2-44-44-44---------|
--2222222-222-22-22-22-22--22-2--33-33-33-33-33--3-55-55-55----6-6--|v
--0000000-000-00-00-00-00--00-0--33-33-33-33-33--3-55-55-55---------|
   xxxx   xx  xx    xx     xx    xx    xx    xx    xx    xx

Main Riff	(2:13) x2 "My God..." x2

Interlude	(2:32) x1
-----------------------------------------|
-----------------------------------------|
-----------------------------------------|
-------------------10-----------------10-|
-------------------8------------------8--|
--000-00-0-00-000-----00-00-0-00-000-----|
  xxx xx x xx xxx     xx xx x xx xxx

--------------------------------------------------|
--------------------------------------------------|
--------------------------------------------------|
-------------------10------------/101010101010-9\-|
-------------------8-------------/8-8-8-8-8-8--7\-|
--00-00-0-00-000------00-00-0-00------------------|
  xx xx x xx xxx      xx xx x xx

---------------------------------------------------------------------------------|
---------------------------------------------------------------------------------|
---------------------------------------------------------------------------------|
------------------10-----------------10----------------10------/101010101010-9\--| < "I want to die!"
------------------8------------------8-----------------8-------/8-8-8-8-8-8--7\--|
--000-00-0-00-000----00-00-0-00-000----00-00-0-00-000----------------------------|
  xxx xx x xx xxx    xx xx x xx xxx    xx xx x xx xxx

7.IMAGINARY

Tuning

The guitar is tuned rather low in this song

Drop-D, then down a full step and a half

Db --------------------------|
Ab --------------------------|
Eb --------------------------|
B  --------------------------|
Gb --------------------------|
B  --------------------------|

------------------------------------------------------

Intro: Orchestral

Guitar: (listen for rhythm & strumming pattern)

Db --------------------------------------------------------|
Ab --------------------------------------------------------|
Eb --------------------------------------------------------|
B  ----5-5-5---5--5--5-5---5-5---1-1-1---1--1--1-1-0-1-3---|
Gb ----5-5-5---5--5--5-5---5-5---1-1-1---1--1--1-1-0-1-3---|
B  ----5-5-5---5--5--5-5---5-5---1-1-1---1--1--1-1-0-1-3---|


Db --------------------------------------------------------|
Ab --------------------------------------------------------|
Eb --------------------------------------------------------|
B  ----5-5-5---5--5--5-5---5-5---1-1-1---1--1--1-1---------|
Gb ----5-5-5---5--5--5-5---5-5---1-1-1---1--1--1-1---5^5---|
B  ----5-5-5---5--5--5-5---5-5---1-1-1---1--1--1-1---------|

--Guitar Break---

Db --------------------------|------------------------------|
Ab --------------------------|------------------------------|
Eb --------------------------|------------------------------|
B  ----5-5-5----1-1-1--1-3---|--5-5-5----1-1-1--------------|
Gb ----5-5-5----1-1-1--1-3---|--5-5-5----1-1-1---5p3-1p0----|
B  ----5-5-5----1-1-1--1-3---|--5-5-5----1-1-1--------------|
.......................paper flowers...........

Db --------------------------|
Ab --------------------------|
Eb --------------------------|
B  ----5-5-5----1-1-1--1-3---|
Gb ----5-5-5----1-1-1--1-3---|
B  ----5-5-5----1-1-1--1-3---|

--Guitar Break---

Db --------------------------|------------------------------|
Ab --------------------------|------------------------------|
Eb --------------------------|------------------------------|
B  ----5-5-5----1-1-1--1-3---|--5-5-5----1-1-1--------------|
Gb ----5-5-5----1-1-1--1-3---|--5-5-5----1-1-1---5p3-1p0----|
B  ----5-5-5----1-1-1--1-3---|--5-5-5----1-1-1--------------|

Db --------------------------|
Ab --------------------------|
Eb --------------------------|
B  ----5-5-5----1-1-1--1-3---|
Gb ----5-5-5----1-1-1--1-3---|
B  ----5-5-5----1-1-1--1-3---|


--Guitar Break---
Swallowed up in the sound of my screaming....


(easier than it seems)
Db -------------------------------------------------------------------------|
Ab -------------------------------------------------------------------------|
Eb -------------------------------------------------------------------------|
B  ---5-5-5-7-7-7-8-8-10-10-10-8-8-8-7-7-5-5-5-7-7-7-8-8-8-1-1-1-0-0-0-3-3--|
Gb ---5-5-5-7-7-7-8-8-10-10-10-8-8-8-7-7-5-5-5-7-7-7-8-8-8-1-1-1-0-0-0-3-3--|
B  ---5-5-5-7-7-7-8-8-10-10-10-8-8-8-7-7-5-5-5-7-7-7-8-8-8-1-1-1-0-0-0-3-3--|

Db -------------------------------------------------------------------------|
Ab -------------------------------------------------------------------------|
Eb -------------------------------------------------------------------------|
B  ---5-5-5-7-7-7-8-8-10-10-10-8-8-8-7-7-5-5-5-7-7-7-8-8-8-1-1-1-0-0-0-3-3--|
Gb ---5-5-5-7-7-7-8-8-10-10-10-8-8-8-7-7-5-5-5-7-7-7-8-8-8-1-1-1-0-0-0-3-3--|
B  ---5-5-5-7-7-7-8-8-10-10-10-8-8-8-7-7-5-5-5-7-7-7-8-8-8-1-1-1-0-0-0-3-3--|

Db --------------------------------|
Ab --------------------------------|
Eb --------------------------------|
B  ---1-1-1-0-1-3------------------|
Gb ---1-1-1-0-1-3------------------|
B  ---1-1-1-0-1-3------------------|

Db --------------------------|------------------------------|
Ab --------------------------|------------------------------|
Eb --------------------------|------------------------------|
B  ----5-5-5----1-1-1--1-3---|--5-5-5----1-1-1--------------|
Gb ----5-5-5----1-1-1--1-3---|--5-5-5----1-1-1---5p3-1p0----|
B  ----5-5-5----1-1-1--1-3---|--5-5-5----1-1-1--------------|


Db --------------------------------------------------------|
Ab --------------------------------------------------------|
Eb --------------------------------------------------------|
B  ----5-5-5---5--5--5-5---5-5---1-1-1---1--1--1-1-0-1-3---|
Gb ----5-5-5---5--5--5-5---5-5---1-1-1---1--1--1-1-0-1-3---|
B  ----5-5-5---5--5--5-5---5-5---1-1-1---1--1--1-1-0-1-3---|

8.TAKING OVER ME

Intro


~ - Let ring

* This is played on piano in the song, re-arrange for acoustic guitar.


    Bb                  G#      F#
E  -----------------------------------------|--|
C  ------------------------------------1----|--|
G  --6-----5----6--8-----5------3--------3--|--|
D  ----8-----8-------------6------4---------|--|
A  ------8-----8-------------6------4-------|--|
D  -----------------------------------------|--|

    Bb                  G#       F#
E  ----------------------------------|--|
C  ------------------------------0-~-|--|
G  --6-----5----6--8--------5----3---|--|
D  ----8-----8------------6------4---|--|
A  ------8-----8--------6--------4---|--|
D  ----------------------------------|--|


Play this once, then electric guitar comes in with this:


x - pick rake


    Bb                                F#/C#5            F
E  -----------------------------------------------------------------|--|
C  -----------------------------------------------------------------|--|
G  --55---------------66---------------55---------------55----------|--|
D  --88---------------88---------------44---------------34----------|--|
A  --88-x--88-88-x----88-x--88-88-x----44-x--44-44-x----33-x--43-33-|--|
D  --88-x--88-88-x----88-x--88-88-x----44-x--44-44-x----33-x--33-33-|--|


------------------------------------------------------------

Verse


~ - let ring

    Bb                             F#/C#5           F
E  ------------------------------------------------------------------|--|
C  ---------1~-------------0~----------------------------------------|--|
G  -----3------3-------3------3--------------6~--------------5~------|--|
D  ---3---3----------3---3--------------4-------4--------3-------4---|--|
A  -1--------------1------------------4---4------------4---3---------|--|
D  ---------------------------------4----------------3---------------|--|


Bb          Bb                F#/C#5       F
  You don't remember me but I remember you...


- This part plays three times, after the second time an electric guitar plays the intro
part over top of it once.

x - pick rake

    Bb                                F#/C#5            F
E  -----------------------------------------------------------------|--|
C  -----------------------------------------------------------------|--|
G  --55---------------66---------------55---------------55----------|--|
D  --88---------------88---------------44---------------34----------|--|
A  --88-x--88-88-x----88-x--88-88-x----44-x--44-44-x----33-x--43-33-|--|
D  --88-x--88-88-x----88-x--88-88-x----44-x--44-44-x----33-x--33-33-|--|


      Bb       Bb               F#/C#5           F
   But who can decide what they dream? and dream I do.


-----------------------------------------

 Chorus

x - pick rake


    Bb           F#/C#5  F
E  ---------------------------------|--|
C  ---------------------------------|--|
G  --6---6------------5------6------|--|
D  --x---x-----------3------4-------|--|
A  --8---8-x------3-3----4-4--------|--|
D  --8---8-x------3------4----------|--|

Bb        F#/C#5  F
 I believe in   you

Bb           F#/C#5             F
 I'd give up everything just to find you

Bb        F#5/C#5  F
I have to be with you

   Bb
To live, to breathe

      F#/C#5       F
You're taking over me


-----------------------------------------

Bridge

x - pick rake


     F#5                Bb
E  ------------------------------------|--|
C  ------------------------------------|--|
G  ------------------------------------|--|
D  --44------44--------88------88------|--|
A  --44-xxxx-44-xxxx---88-xxxx-88-xxxx-|--|
D  --44-xxxx-44-xxxx---88-xxxx-88-xxxx-|--|

     F#5              F
E  -------------------------|--|
C  -------------------------|--|
G  -------------------------|--|
D  --44------44--------33---|--|
A  --44-xxxx-44-xxxx---33---|--|
D  --44-xxxx-44-xxxx---33---|--|

9.HELLO

RIFF 1 (Intro-Interlude-Verse-Bridge)

Bm
E|--------------------------------------------------------------|
B|--------3---3---2---2-----------2-----------------------------|
G|------------------------2---2---------------------------------|
D|-----4----4-------4-------------------------------------------|
A|--2-----------------------------------------------------------|
D|--------------------------------------------------------------|

Bm
E|--------------------------------------------------------------|
B|--------3---3---2---2-----------2-----------------------------|
G|------------------------2---2---------------------------------|
D|-----4----4-------4-------------------------------------------|
A|--2-----------------------------------------------------------|
D|--------------------------------------------------------------|

A
E|--------------------------------------------------------------|
B|------------2---0---0-----------2-----------------------------|
G|--------2---------------2---2---------------------------------|
D|-----2----2-------2-------------------------------------------|
A|--0-----------------------------------------------------------|
D|--------------------------------------------------------------|

F#m
E|--------------------------------------------------------------|
B|------------2-------3---2--2---------2------------------------|
G|----------------2-------------4--2----------------------------|
D|--------4-----------------------------------------------------|
A|------4---4-------4-------------------------------------------|
D|---4----------------------------------------------------------|


RIFF 2 (Chorus)

G
E|--------------------------------------------------------------|
B|--------------------------------------3-----------------------|
G|--4------------4----------6-----------------------------------|
D|-----5-----5------5----5----5-----5-----5-----5---------------|
A|--------5-----------5----------5-----------5------------------|
D|--------------------------------------------------------------|

F#
E|---------------------------------------------------------------|
B|---------------------------------------------------------------|
G|--6-----------3----------4----------6--------------------------|
D|-----4-----4----4-----4-----4-----4-----4-----4----------------|
A|--------4----------4-----------4-----------4-------------------|
D|---------------------------------------------------------------|

Bm
E|---------------------------------------2----------------------|
B|--3--------------2---3---2------------------------------------|
G|------4---4---------------------4-----------------------------|
D|--------------4------4------4-------4-------------------------|
A|--2-----------------------------------------------------------|
D|--------------------------------------------------------------|

Bm/A
E|---------------------------------------2----------------------|
B|--3--------------2---3---2------------------------------------|
G|------4---4---------------------4-----------------------------|
D|--------------4------4------4-------4-------------------------|
A|--0-----------------------------------------------------------|
D|--------------------------------------------------------------|

G
E|--------------------------------------------------------------|
B|---------------------------------3----------------------------|
G|--4---------4---------6---------------------------------------|
D|--------------------------------------------------------------|
A|--------------------------------------------------------------|
D|--5----------------------------------5--4---------------------|

Em
E|--------------------------------------------------------------|
B|------------0---------2----------3----------------------------|
G|--0-----------------------------------------------------------|
D|--------------------------------------------------------------|
A|--------------------------------------------------------------|
D|--2----------------------------------0--2---------------------|

F#
E|--------------------------------------------------------------|
B|--------------------------------------------------------------|
G|--4-------------------4----------3----------------------------|
D|-------------4-------------4----------------------------------|
A|-------------------------------------4------------------------|
D|--4-----------------------------------------------------------|

F#
E|---------------------------------------(14)-------------------|
B|--2-----------------------------------------------------------|
G|--3-----------------------------------------------------------|
D|--------------------------------------------------------------|
A|--------------------------------------------------------------|
D|--------------------------------------------------------------|

RIFF 3 (Outro)

Bm
E|--------------------------------------------------------------|
B|--------3---3---2---2-----------2-----------------------------|
G|------------------------2---2---------------------------------|
D|-----4----4-------4-------------------------------------------|
A|--2-----------------------------------------------------------|
D|--------------------------------------------------------------|

This is what Amy sings!

Riff 4 (Verse)

  Bm	         Bm	        A		       F#m
E|--------------------------------------------------------------|
B|------2---------3-------2---------------------------------2---|
G|-4-------------------------------2------(2)---------2---------|
D|--------------------------------------------------------------|
A|--------------------------------------------------------------|
D|--------------------------------------------------------------|


RIFF 5 (Chorus)

  G               F#	        Bm	        Bm/A
E|-----------3----3---2---0---2-----0---------------------------|
B|------2--------------------------------3--------2---3--3-2-3--|
G|-4------------------------------------------------------------|
D|--------------------------------------------------------------|
A|--------------------------------------------------------------|
D|--------------------------------------------------------------|

  G	         Em	        F#
E|------------------------------------------------|
B|------2----3------------2---3-----3------2------|
G|-4--------------0---4---------------------------|
D|------------------------------------------------|
A|------------------------------------------------|
D|------------------------------------------------|

  First-time		     Second-time
  F#		    F#
E|--------------------------|--2---0-------------------|
B|-------2------------------|----------3---2-----------|
G|--4-----------------------|--------------------------|
D|--------------------------|--------------------------|
A|--------------------------|--------------------------|
D|--------------------------|--------------------------|

RIFF 6 (Chorus)

  G               F#	        Bm              Bm/A
E|-----------3----3---2---6---7-----9---10------9---12-10-9-9-9-|
B|------2-------------------------------------------------------|
G|-4------------------------------------------------------------|
D|--------------------------------------------------------------|
A|--------------------------------------------------------------|
D|--------------------------------------------------------------|

  G               Em	        F#     F#	              Bm
E|-7---9---10---------7---9---10----9----------7---6-----|--7-----|
B|----------------8--------------------------------------|--------|
G|-------------------------------------------------------|--------|
D|-------------------------------------------------------|--------|
A|-------------------------------------------------------|--------|
D|-------------------------------------------------------|--------|

This is the Bridge Solo, I think it is played by a Cello!

RIFF 7 (Bridge)

  Bm	        Bm	        A	            F#m
E|--------------------------------------------------------------|
B|--------------------------------------------------------------|
G|---------------------------------------------------------2----|
D|-4--------------5----4--------------------------------------2-|
A|---------------------------5-----7----------------4---0-------|
D|--------------------------------------------------------------|

  Bm	        Bm	        A		       F#m
E|--------------------------------------------------------------|
B|-------------------------2---3---5-------3---------2----------|
G|----------------4----------------------------------------2----|
D|-4-------------------4----------------------------------------|
A|--------------------------------------------------------------|
D|--------------------------------------------------------------|

10.MY LAST BREATH

Intro


e -------------------------------------------|
B -------------------------------------------|
G --3h5p3-2-----------3-3--------------------|
D -------------5-5----1-1----3-3-5-5---------|
A -------------5-5----1-1----3-3-3-3---------|
D -------------5-5----1-1----3-3-3-3---------|


Verse


e -------------------------------------|
B -------------------------------------|
G -------------------------------------|
D --3/5-5\-----------------------------|
A --3/5-5\-=---------------------------|
D --3/5-5\-----------------------------|



e ----------------------------------|
B ----------------------------------|
G -------------7~-------------------|
D ---5~-----------------------------|
A ----------------------------------|
D ----------------------------------|



Pre-Chorus

  G            D#          F
e --------------------------------------|
B ------------------1-------------------|
G -------7-~------3---3-----------------|
D -----5-------------------------5~-----|
A ----------------------------3---------|
D -5-----------1-----------3------------|




Chorus


               G      D#     F
e -------------------------------------------|
B -------------------------------------------|
G --3h5p3-2-----------3-3--------------------|
D -------------5-5----1-1----3-3-5-5---------|
A -------------5-5----1-1----3-3-3-3---------|
D -------------5-5----1-1----3-3-3-3---------|

Bridge

e ---------------------------------------|
B ---------------------------------------|
G ---------------------------------------|
D -0-0-*PM*-0-0-------1-0-*PM*-0-0-------|
A -0-0-0000-0-0-------1-0-0000-0-0-------|
E -0-0-0000-0-0-3p1p0-1-0-0000-0-0-3p1p0-|


e --------------------------------------|
B --------------------------------------|
G --------------------------------------|
D -1-0-*PM*-0-0-------1-0-*PM*--*PM*----|
A -1-0-0000-0-0-------1-0-0000-3-00-3h5-|
E -1-0-0000-0-0-3p1p0-1-0-0000---00-----|

e ---------------------------------------|
B ---------------------------------------|
G ---------------------------------------|
D -0-0-*PM*-0-0-------1-0-*PM*-0-0-------|
A -0-0-0000-0-0-------1-0-0000-0-0-------|
E -0-0-0000-0-0-3p1p0-1-0-0000-0-0-3p1p0-|

e ------------------------------------------|
B ------------------------------------------|
G ------------------------------------------|
D -1-0-*PM*-0-0-------1-0-*PM*--*PM*--------|
A -1-0-0000-0-0-------1-0-0000-3-00-3h5p3-2-|
E -1-0-0000-0-0-3p1p0-1-0-0000---00---------|

11.WHISPER

Intro
-----------------------------------------------------------------------------|
-----------------------------------------------------------------------------|
-----------------------------------------------------------------------------|
---------------------------------------------------------------2x------------|
---7--7h8-----7---7h8-------5----7---7h8-----7---10-8---7-8-5----------------|
-0---0----0-0---0-----0-0-5----0---0-----0-0---0------0----------------------|
 .   .    . .   .     . .      .   .     . .   .      .

Pre-chorus
-----------------------------------------------------------------------------|
-----------------------------------------------------------------------------|
-----------------------------------------------------------------------------|
-----------------------------------------------------------------------------|
-7----9----12----10----------------------------------------------------------|
-----------------------------------------------------------------------------|

Chorus
-----------------------------------------------------------------------------|
-----------------------------------------------------------------------------|
-----------------------------------------------------------------------------|
----5--7-----5--2------------------------2x----------------------------------|
-2--3--5--2--3--0--4-4-4-5\4--4-4-4-5\4--------------------------------------|
-0--------0--------2-2-2-3\2--2-2-2-3\2--------------------------------------|
			   . .      . . .


-----------------------------------------------------------------------------|
-----------------------------------------------------------------------------|
-----------------------------------------------------------------------------|
---------------------------------------------------------------1x------------|
---7--7h8-----7---7h8-------5----7---7h8-----7---10-8---7-8-5----------------|
-0---0----0-0---0-----0-0-5----0---0-----0-0---0------0----------------------|
 .   .    . .   .     . .      .   .     . .   .      .


For the second part of verse I just play the intro twice

Pre-chorus

Chorus

Bridge
-----------------------------------------------------------------------------|
-----------------------------------------------------------------------------|
-----------------------------------------------------------------------------|
-----------------------------------------------------------------------------|
-7----9----12----10--22--2-2--22--2-2--22--2-2--22--2-2---7-(let ring)-------|
---------------------00--0-0--00--0-0--00--0-0--00--0-0----------------------|

Solo
-----------------------------------------------------------------------------|
-----------------------------------------------------------------------------|
-----------------------------------------------------------------------------|
-9\--9-9-7-9-10-10-10-9-7-7-5-7-9-9-9-7-5-5-4-5-7-5-4-5p4-5p4-5p4-5p4-5p4----|
-----------------------------------------------------------------------------|
-----------------------------------------------------------------------------|

-----------------------------------------------------------------------------|
-----------------------------------------------------------------------------|
-----------------------------------------------------------------------------|
-2-4-5-7-5-4-9-10-9-12-10-9-5-7-9-4-5-7-10p9-10p9-10p9-10p9-10p9-------------|
-----------------------------------------------------------------------------|
-----------------------------------------------------------------------------|

ENJOY!!!
comments
print report bad tab
11 comments total. Showing first comments.
0 reply
buckethead101 wrote on November 24 2004, 12:00 am

man I don't think my immortal is right but you did a great job.......

0 reply
gepeters wrote on March 17 2005, 12:00 am

Tunings are incorrect. Thank you for the hard workthough!

0 reply
mrgarry2u wrote on October 14 2005, 04:52 am

tabs were ok but the few lyrics were wrong... good try though

I want to post or [tab]
guest
You may want to rate the tab now too:
select rating
Please do not post tabs as comments. Select "correction" instead!