Oops, an error
Loading. Please wait.

Going Under Acoustic Tab

ver1
ver1

Whole song

Interactive

More versions @911Tabs.com
5,218 views 1 this week
no commentswrite comment
1 2 3 4 5
worth learning
x 1
add to favorites launch autoscroll
font size
0
reset
Autoscroll
+/-
esc
set tempo
stop
Contributor
WARNING: You are trying to view
                                    content from Ultimate-Guitar.com
                                    in an unauthorized application,
                                    which is prohibited.

                                    Please use an official Ultimate
                                    Guitar Tabs application for iPhone,
                                    iPad or Android to access legitimate
                                    chords, guitar, bass, and drum tabs
                                    from Ultimate-Guitar.com database.

                                    Type "ultimate guitar tabs" in Apple
                                    App Store's or Android Market's
                                    search to find the application.
                      Going Under Acoustic - Evanescence                        


Guitar dem
                                              PM PM   PM PM PM             
      W                   W                   E  E  S E  S  E  S S E  S S  
D#||-------------------|-------------------|------------------------------|
A#||-------------------|-------------------|------------------------------|
F#||-------------------|-------------------|--------x----------x-x-x--x-x-|
C#||-------------------|-------------------|--7--7--x-7--7--7--x-x-x--x-x-|
G#||-------------------|-------------------|--7--7--x-7--7--7--x-x-x--x-x-|
D#||-------------------|-------------------|--5--5--x-5--5--5--x-x-x--x-x-|


  PM PM   PM PM PM               PM PM   PM PM PM             
  E  E  S E  S  E  S S E  S S    E  E  S E  S  E  S S E  S S  
------------------------------|------------------------------|
------------------------------|------------------------------|
--------x----------x-x-x--x-x-|--------x----------x-x-x--x-x-|
--7--7--x-7--7--7--x-x-x--x-x-|--7--7--x-7--7--7--x-x-x--x-x-|
--7--7--x-7--7--7--x-x-x--x-x-|--7--7--x-7--7--7--x-x-x--x-x-|
--5--5--x-5--5--5--x-x-x--x-x-|--5--5--x-5--5--5--x-x-x--x-x-|


  PM PM   PM PM PM               PM PM   PM PM PM             
  E  E  S E  S  E  S S E  S S    E  E  S E  S  E  S S E  S S  
------------------------------|------------------------------|
------------------------------|------------------------------|
--------x----------x-x-x--x-x-|--------x----------x-x-x--x-x-|
--7--7--x-7--7--7--x-x-x--x-x-|--7--7--x-7--7--7--x-x-x--x-x-|
--7--7--x-7--7--7--x-x-x--x-x-|--7--7--x-7--7--7--x-x-x--x-x-|
--5--5--x-5--5--5--x-x-x--x-x-|--5--5--x-5--5--5--x-x-x--x-x-|


  PM PM   PM PM PM               PM PM   PM PM PM             
  E  E  S E  S  E  S S E  S S    E  E  S E  S  E  S S E  S S  
------------------------------|------------------------------|
------------------------------|------------------------------|
--------x----------x-x-x--x-x-|--------x----------x-x-x--x-x-|
--7--7--x-7--7--7--x-x-x--x-x-|--7--7--x-7--7--7--x-x-x--x-x-|
--7--7--x-7--7--7--x-x-x--x-x-|--7--7--x-7--7--7--x-x-x--x-x-|
--5--5--x-5--5--5--x-x-x--x-x-|--5--5--x-5--5--5--x-x-x--x-x-|


  PM PM   PM PM PM               PM PM   PM PM PM             
  E  E  S E  S  E  S S E  S S    E  E  S E  S  E  S S E  S S  
------------------------------|------------------------------|
------------------------------|------------------------------|
--------x----------x-x-x--x-x-|--------x----------x-x-x--x-x-|
--7--7--x-7--7--7--x-x-x--x-x-|--7--7--x-7--7--7--x-x-x--x-x-|
--7--7--x-7--7--7--x-x-x--x-x-|--7--7--x-7--7--7--x-x-x--x-x-|
--5--5--x-5--5--5--x-x-x--x-x-|--5--5--x-5--5--5--x-x-x--x-x-|


                                PM PM   PM PM PM             
  E  E  S E  E  E  S S S S S    E  E  S E  S  E  S S E  S S  
-----------------------------|------------------------------|
-----------------------------|------------------------------|
--x--x--x-x--x--x--x-x-x-x-x-|--------x----------x-x-x--x-x-|
--x--x--x-x--x--x--x-x-x-x-x-|--7--7--x-7--7--7--x-x-x--x-x-|
--x--x--x-x--x--x--x-x-x-x-x-|--7--7--x-7--7--7--x-x-x--x-x-|
--x--x--x-x--x--x--x-x-x-x-x-|--5--5--x-5--5--5--x-x-x--x-x-|


  PM PM   PM PM PM               PM PM   PM PM PM             
  E  E  S E  S  E  S S E  S S    E  E  S E  S  E  S S E  S S  
------------------------------|------------------------------|
------------------------------|------------------------------|
--------x----------x-x-x--x-x-|--------x----------x-x-x--x-x-|
--7--7--x-7--7--7--x-x-x--x-x-|--7--7--x-7--7--7--x-x-x--x-x-|
--7--7--x-7--7--7--x-x-x--x-x-|--7--7--x-7--7--7--x-x-x--x-x-|
--5--5--x-5--5--5--x-x-x--x-x-|--5--5--x-5--5--5--x-x-x--x-x-|


  PM PM   PM PM PM               PM PM   PM PM PM             
  E  E  S E  S  E  S S E  S S    E  E  S E  S  E  S S E  S S  
------------------------------|------------------------------|
------------------------------|------------------------------|
--------x----------x-x-x--x-x-|--------x----------x-x-x--x-x-|
--7--7--x-7--7--7--x-x-x--x-x-|--7--7--x-7--7--7--x-x-x--x-x-|
--7--7--x-7--7--7--x-x-x--x-x-|--7--7--x-7--7--7--x-x-x--x-x-|
--5--5--x-5--5--5--x-x-x--x-x-|--5--5--x-5--5--5--x-x-x--x-x-|


  PM PM   PM PM PM               PM PM   PM PM PM             
  E  E  S E  S  E  S S E  S S    E  E  S E  S  E  S S E  S S  
------------------------------|------------------------------|
------------------------------|------------------------------|
--------x----------x-x-x--x-x-|--------x----------x-x-x--x-x-|
--7--7--x-7--7--7--x-x-x--x-x-|--7--7--x-7--7--7--x-x-x--x-x-|
--7--7--x-7--7--7--x-x-x--x-x-|--7--7--x-7--7--7--x-x-x--x-x-|
--5--5--x-5--5--5--x-x-x--x-x-|--5--5--x-5--5--5--x-x-x--x-x-|


  PM PM   PM PM PM                                          
  E  E  S E  S  E  S S E  S S    Q    E.  S S S E  S S S S  
------------------------------|--1----1---1---1-1--1-1-1-1-|
------------------------------|--1----1---1---1-1--1-1-1-1-|
--------x----------x-x-x--x-x-|--2----2---2---2-2--2-2-2-2-|
--7--7--x-7--7--7--x-x-x--x-x-|--3----3---3---3-3--3-3-3-3-|
--7--7--x-7--7--7--x-x-x--x-x-|--3----3---3---3-3--3-3-3-3-|
--5--5--x-5--5--5--x-x-x--x-x-|--1----1---1---1-1--1-1-1-1-|


  Q    E.  S S S E  S S S S    Q    E.  S S S E  S S S S  
----------------------------|--1----1---1---1-1--1-1-1-1-|
----------------------------|--1----1---1---1-1--1-1-1-1-|
--5----5---5---5-5--5-5-5-5-|--2----2---2---2-2--2-2-2-2-|
--7----7---7---7-7--7-7-7-7-|--3----3---3---3-3--3-3-3-3-|
--7----7---7---7-7--7-7-7-7-|--3----3---3---3-3--3-3-3-3-|
--5----5---5---5-5--5-5-5-5-|--1----1---1---1-1--1-1-1-1-|


  Q    E.  S S S E  S S S S    Q    E.  S S S E  E  E   
--1----1---1---3-3--3-3-3-3-|--0----0---0-0---1--1--1--|
--1----1---1---3-3--3-3-3-3-|--1----1---1-1---1--1--1--|
--2----2---2---4-4--4-4-4-4-|--2----2---2-2-x-2--2--2--|
--3----3---3---5-5--5-5-5-5-|--2----2---2-2-x-3--3--3--|
--3----3---3---5-5--5-5-5-5-|--0----0---0-0-x-3--3--3--|
--1----1---1---3-3--3-3-3-3-|---------------x-1--1--1--|


  Q    E.  S S S E  E  E     Q    E.  S S S E  E  E   
--0----0---0-0-0-3--3--3--|--0----0---0-0---1--1--1--|
--1----1---1-1-0-3--3--3--|--1----1---1-1---1--1--1--|
--0----0---0-0-0-4--4--4--|--2----2---2-2-x-2--2--2--|
--2----2---2-2---5--5--5--|--2----2---2-2-x-3--3--3--|
--3----3---3-3---5--5--5--|--0----0---0-0-x-3--3--3--|
-----------------3--3--3--|---------------x-1--1--1--|


  Q    E.  S S S E  E  E     Q    E.  S S S E  E  E   
--0----0---0-0-0-3--3--3--|--0----0---0-0---1--1--1--|
--1----1---1-1-0-3--3--3--|--1----1---1-1---1--1--1--|
--0----0---0-0-0-4--4--4--|--2----2---2-2-x-2--2--2--|
--2----2---2-2---5--5--5--|--2----2---2-2-x-3--3--3--|
--3----3---3-3---5--5--5--|--0----0---0-0-x-3--3--3--|
-----------------3--3--3--|---------------x-1--1--1--|


  Q    E.  S S S E  E  E     Q    E.  S S S E  E  E   
--0----0---0-0-0-3--3--3--|--0----0---0-0---1--1--1--|
--1----1---1-1-0-3--3--3--|--1----1---1-1---1--1--1--|
--0----0---0-0-0-4--4--4--|--2----2---2-2-x-2--2--2--|
--2----2---2-2---5--5--5--|--2----2---2-2-x-3--3--3--|
--3----3---3-3---5--5--5--|--0----0---0-0-x-3--3--3--|
-----------------3--3--3--|---------------x-1--1--1--|


                             PM PM   PM PM PM             
  Q    E.  S S S E  E  E     E  E  S E  S  E  S S E  S S  
--0----0---0-0-0-3--3--3--|------------------------------|
--1----1---1-1-0-3--3--3--|------------------------------|
--0----0---0-0-0-4--4--4--|--------x----------x-x-x--x-x-|
--2----2---2-2---5--5--5--|--7--7--x-7--7--7--x-x-x--x-x-|
--3----3---3-3---5--5--5--|--7--7--x-7--7--7--x-x-x--x-x-|
-----------------3--3--3--|--5--5--x-5--5--5--x-x-x--x-x-|


  PM PM   PM PM PM               PM PM   PM PM PM             
  E  E  S E  S  E  S S E  S S    E  E  S E  S  E  S S E  S S  
------------------------------|------------------------------|
------------------------------|------------------------------|
--------x----------x-x-x--x-x-|--------x----------x-x-x--x-x-|
--7--7--x-7--7--7--x-x-x--x-x-|--7--7--x-7--7--7--x-x-x--x-x-|
--7--7--x-7--7--7--x-x-x--x-x-|--7--7--x-7--7--7--x-x-x--x-x-|
--5--5--x-5--5--5--x-x-x--x-x-|--5--5--x-5--5--5--x-x-x--x-x-|


  PM PM   PM PM PM               PM PM   PM PM PM             
  E  E  S E  S  E  S S E  S S    E  E  S E  S  E  S S E  S S  
------------------------------|------------------------------|
------------------------------|------------------------------|
--------x----------x-x-x--x-x-|--------x----------x-x-x--x-x-|
--7--7--x-7--7--7--x-x-x--x-x-|--7--7--x-7--7--7--x-x-x--x-x-|
--7--7--x-7--7--7--x-x-x--x-x-|--7--7--x-7--7--7--x-x-x--x-x-|
--5--5--x-5--5--5--x-x-x--x-x-|--5--5--x-5--5--5--x-x-x--x-x-|


  PM PM   PM PM PM               PM PM   PM PM PM             
  E  E  S E  S  E  S S E  S S    E  E  S E  S  E  S S E  S S  
------------------------------|------------------------------|
------------------------------|------------------------------|
--------x----------x-x-x--x-x-|--------x----------x-x-x--x-x-|
--7--7--x-7--7--7--x-x-x--x-x-|--7--7--x-7--7--7--x-x-x--x-x-|
--7--7--x-7--7--7--x-x-x--x-x-|--7--7--x-7--7--7--x-x-x--x-x-|
--5--5--x-5--5--5--x-x-x--x-x-|--5--5--x-5--5--5--x-x-x--x-x-|


  PM PM   PM PM PM               PM PM   PM PM PM             
  E  E  S E  S  E  S S E  S S    E  E  S E  S  E  S S E  S S  
------------------------------|------------------------------|
------------------------------|------------------------------|
--------x----------x-x-x--x-x-|--------x----------x-x-x--x-x-|
--7--7--x-7--7--7--x-x-x--x-x-|--7--7--x-7--7--7--x-x-x--x-x-|
--7--7--x-7--7--7--x-x-x--x-x-|--7--7--x-7--7--7--x-x-x--x-x-|
--5--5--x-5--5--5--x-x-x--x-x-|--5--5--x-5--5--5--x-x-x--x-x-|


  Q    E.  S S S E  S S S S    Q    E.  S S S E  S S S S  
--1----1---1---1-1--1-1-1-1-|----------------------------|
--1----1---1---1-1--1-1-1-1-|----------------------------|
--2----2---2---2-2--2-2-2-2-|--5----5---5---5-5--5-5-5-5-|
--3----3---3---3-3--3-3-3-3-|--7----7---7---7-7--7-7-7-7-|
--3----3---3---3-3--3-3-3-3-|--7----7---7---7-7--7-7-7-7-|
--1----1---1---1-1--1-1-1-1-|--5----5---5---5-5--5-5-5-5-|


  Q    E.  S S S E  S S S S    Q    E.  S S S E  S S S S  
--1----1---1---1-1--1-1-1-1-|--1----1---1---3-3--3-3-3-3-|
--1----1---1---1-1--1-1-1-1-|--1----1---1---3-3--3-3-3-3-|
--2----2---2---2-2--2-2-2-2-|--2----2---2---4-4--4-4-4-4-|
--3----3---3---3-3--3-3-3-3-|--3----3---3---5-5--5-5-5-5-|
--3----3---3---3-3--3-3-3-3-|--3----3---3---5-5--5-5-5-5-|
--1----1---1---1-1--1-1-1-1-|--1----1---1---3-3--3-3-3-3-|


  Q    E  S S S S E  E  S S    Q    E  S S S S E  Q     
------------------1--1--1-1-|--0----0----------3--3----|
------------------1--1--1-1-|--1----1----------3--3----|
--5----5--x-x-x-x-2--2--2-2-|--0----0--x-x-x-x-4--4----|
--7----7--x-x-x-x-3--3--3-3-|--2----2--x-x-x-x-5--5----|
--7----7--x-x-x-x-3--3--3-3-|--3----3--x-x-x-x-5--5----|
--5----5--x-x-x-x-1--1--1-1-|----------x-x-x-x-3--3----|


  Q    E  S S S S E  Q       Q    E  S S S S E  Q     
------------------1--1----|--0----0----------3--3----|
------------------1--1----|--1----1----------3--3----|
--5----5--x-x-x-x-2--2----|--0----0--x-x-x-x-4--4----|
--7----7--x-x-x-x-3--3----|--2----2--x-x-x-x-5--5----|
--7----7--x-x-x-x-3--3----|--3----3--x-x-x-x-5--5----|
--5----5--x-x-x-x-1--1----|----------x-x-x-x-3--3----|


  Q    E  S S S S E  Q       Q    E  S S S S E  Q     
------------------1--1----|--0----0----------3--3----|
------------------1--1----|--1----1----------3--3----|
--5----5--x-x-x-x-2--2----|--0----0--x-x-x-x-4--4----|
--7----7--x-x-x-x-3--3----|--2----2--x-x-x-x-5--5----|
--7----7--x-x-x-x-3--3----|--3----3--x-x-x-x-5--5----|
--5----5--x-x-x-x-1--1----|----------x-x-x-x-3--3----|


  Q    E  S S S S E  Q       Q    E  S S S S E  Q     
------------------1--1----|--0----0----------3--3----|
------------------1--1----|--1----1----------3--3----|
--5----5--x-x-x-x-2--2----|--0----0--x-x-x-x-4--4----|
--7----7--x-x-x-x-3--3----|--2----2--x-x-x-x-5--5----|
--7----7--x-x-x-x-3--3----|--3----3--x-x-x-x-5--5----|
--5----5--x-x-x-x-1--1----|----------x-x-x-x-3--3----|


  E  E  E  E  E  E  E  E     E  E  E  E  E  E  E  S S  
--1--1--1--1--1--1--1--1--|--0--0--0--0--0--0--0------|
--1--1--1--1--1--1--1--1--|--3--3--3--3--3--3--3------|
--2--2--2--2--2--2--2--2--|--1--1--1--1--1--1--1--0-0-|
--3--3--3--3--3--3--3--3--|--2--2--2--2--2--2--2--0-0-|
--3--3--3--3--3--3--3--3--|--2--2--2--2--2--2--2--0-0-|
--1--1--1--1--1--1--1--1--|--0--0--0--0--0--0--0------|


  E  E  E  E  E  E  E  E     E  E  E  E  E  E  E  E   
--1--1--1--1--1--1--1--1--|--1--1--1--1--1--1--1--1--|
--1--1--1--1--1--1--1--1--|--1--1--1--1--1--1--1--1--|
--2--2--2--2--2--2--2--2--|--2--2--2--2--2--2--2--2--|
--3--3--3--3--3--3--3--3--|--3--3--3--3--3--3--3--3--|
--3--3--3--3--3--3--3--3--|--3--3--3--3--3--3--3--3--|
--1--1--1--1--1--1--1--1--|--1--1--1--1--1--1--1--1--|


  E  E  E  E  E  E  E  E     E  E  E  E  E  Q.        Q    E  S S S S E  Q     
--1--1--1--1--1--1--1--1--|--0--0--0--0--0---------|------------------1--1----|
--1--1--1--1--1--1--1--1--|--3--3--3--3--3---------|------------------1--1----|
--2--2--2--2--2--2--2--2--|--1--1--1--1--1---------|--5----5--x-x-x-x-2--2----|
--3--3--3--3--3--3--3--3--|--2--2--2--2--2---------|--7----7--x-x-x-x-3--3----|
--3--3--3--3--3--3--3--3--|--2--2--2--2--2---------|--7----7--x-x-x-x-3--3----|
--1--1--1--1--1--1--1--1--|--0--0--0--0--0---------|--5----5--x-x-x-x-1--1----|


  Q    E  S S S S E  Q       Q    E  S S S S E  Q     
--0----0----------3--3----|------------------1--1----|
--1----1----------3--3----|------------------1--1----|
--0----0--x-x-x-x-4--4----|--5----5--x-x-x-x-2--2----|
--2----2--x-x-x-x-5--5----|--7----7--x-x-x-x-3--3----|
--3----3--x-x-x-x-5--5----|--7----7--x-x-x-x-3--3----|
----------x-x-x-x-3--3----|--5----5--x-x-x-x-1--1----|


  Q    E  S S S S E  E  S S    Q    E  S S S S E  Q     
--0----0----------3--3------|------------------1--1----|
--1----1----------3--3------|------------------1--1----|
--0----0--x-x-x-x-4--4--x-x-|--5----5--x-x-x-x-2--2----|
--2----2--x-x-x-x-5--5--x-x-|--7----7--x-x-x-x-3--3----|
--3----3--x-x-x-x-5--5--x-x-|--7----7--x-x-x-x-3--3----|
----------x-x-x-x-3--3--x-x-|--5----5--x-x-x-x-1--1----|


  Q    E  S S S S E  E  S S    Q    E  S S S S E  Q     
--0----0----------3--3------|------------------1--1----|
--1----1----------3--3------|------------------1--1----|
--0----0--x-x-x-x-4--4--x-x-|--5----5--x-x-x-x-2--2----|
--2----2--x-x-x-x-5--5--x-x-|--7----7--x-x-x-x-3--3----|
--3----3--x-x-x-x-5--5--x-x-|--7----7--x-x-x-x-3--3----|
----------x-x-x-x-3--3--x-x-|--5----5--x-x-x-x-1--1----|


  Q    E  S S S S E  Q       Q    E  S S S S E  Q     
--0----0----------3--3----|------------------1--1----|
--1----1----------3--3----|------------------1--1----|
--0----0--x-x-x-x-4--4----|--5----5--x-x-x-x-2--2----|
--2----2--x-x-x-x-5--5----|--7----7--x-x-x-x-3--3----|
--3----3--x-x-x-x-5--5----|--7----7--x-x-x-x-3--3----|
----------x-x-x-x-3--3----|--5----5--x-x-x-x-1--1----|


  Q    E  S S S S E  Q       Q    E  S S S S E  Q     
--0----0----------3--3----|------------------1--1----|
--1----1----------3--3----|------------------1--1----|
--0----0--x-x-x-x-4--4----|--5----5--x-x-x-x-2--2----|
--2----2--x-x-x-x-5--5----|--7----7--x-x-x-x-3--3----|
--3----3--x-x-x-x-5--5----|--7----7--x-x-x-x-3--3----|
----------x-x-x-x-3--3----|--5----5--x-x-x-x-1--1----|


  Q    E  S S S S E  Q       Q    E  S S S S E  Q     
--0----0----------3--3----|------------------1--1----|
--1----1----------3--3----|------------------1--1----|
--0----0--x-x-x-x-4--4----|--5----5--x-x-x-x-2--2----|
--2----2--x-x-x-x-5--5----|--7----7--x-x-x-x-3--3----|
--3----3--x-x-x-x-5--5----|--7----7--x-x-x-x-3--3----|
----------x-x-x-x-3--3----|--5----5--x-x-x-x-1--1----|


  Q    E  S S S S E  Q       Q    E  S S S S E  Q     
--0----0----------3--3----|------------------1--1----|
--1----1----------3--3----|------------------1--1----|
--0----0--x-x-x-x-4--4----|--5----5--x-x-x-x-2--2----|
--2----2--x-x-x-x-5--5----|--7----7--x-x-x-x-3--3----|
--3----3--x-x-x-x-5--5----|--7----7--x-x-x-x-3--3----|
----------x-x-x-x-3--3----|--5----5--x-x-x-x-1--1----|


  Q    E  S S S S E  Q       Q    E  S S S S E  Q     
--0----0----------3--3----|------------------1--1----|
--1----1----------3--3----|------------------1--1----|
--0----0--x-x-x-x-4--4----|--5----5--x-x-x-x-2--2----|
--2----2--x-x-x-x-5--5----|--7----7--x-x-x-x-3--3----|
--3----3--x-x-x-x-5--5----|--7----7--x-x-x-x-3--3----|
----------x-x-x-x-3--3----|--5----5--x-x-x-x-1--1----|


  Q    E  S S S S E  Q       Q    E  S S S S E  Q     
--0----0----------3--3----|------------------1--1----|
--1----1----------3--3----|------------------1--1----|
--0----0--x-x-x-x-4--4----|--5----5--x-x-x-x-2--2----|
--2----2--x-x-x-x-5--5----|--7----7--x-x-x-x-3--3----|
--3----3--x-x-x-x-5--5----|--7----7--x-x-x-x-3--3----|
----------x-x-x-x-3--3----|--5----5--x-x-x-x-1--1----|


  Q    E  S S S S E  Q       E  E  S E  S E  Q    E    
--0----0----------3--3----|--------------------------||
--1----1----------3--3----|--------------------------||
--0----0--x-x-x-x-4--4----|--------x-----------------||
--2----2--x-x-x-x-5--5----|--7--7--x-7--7-7----------||
--3----3--x-x-x-x-5--5----|--7--7--x-7--7-7----------||
----------x-x-x-x-3--3----|--5--5--x-5--5-5----------||




Duration Legend
---------------
W - whole
H - half
Q - quarter
E - 8th
S - 16th
T - 32nd
X - 64th
. - note dotted
|-n-|  - n-tuplets


Tablature Legend
----------------
L - tied note
x - dead note
g - grace note
(n) - ghost note
> - accentuded note
NH - natural harmonic
AH - artificial harmonic
TH - tapped harmonic
SH - semi harmonic
PH - pitch harmonic
h - hammer on
p - pull off
b - bend
br - bendRelease
pb - preBend
pbr - preBendRelease
brb - bendReleaseBend
\n/ - tremolo bar dip
\n - tremolo bar dive
-/n - tremolo bar Release up
/n\ - tremolo bar inverted dip
/n - tremolo bar return
-\n - tremolo bar Release down
S - shift slide
s - legato slide
/ -  slide into from below or out of upwards
\ -  slide into from above or out of downwards
~ - vibrato
W - wide vibrato
tr - trill
TP - tremolo picking
T - tapping
S - slap
P - pop
< - fade in
^ - brush up
v - brush down
comments
We did not receive enough feedback on this tab! Please rate:
print report bad tab
1 2 3 4 5
I want to post or [tab]
guest
You may want to rate the tab now too:
select rating
Please do not post tabs as comments. Select "correction" instead!