Oops, an error
Loading. Please wait.

Haunted Tab

ver4
ver4

Solo

Whole song

More versions @911Tabs.com
856 views 1 this week
no commentswrite comment
1 2 3 4 5
worth learning
x 1
Autoscroll
+/-
esc
set tempo
stop
Difficulty
intermediate
WARNING: You are trying to view
                                    content from Ultimate-Guitar.com
                                    in an unauthorized application,
                                    which is prohibited.

                                    Please use an official Ultimate
                                    Guitar Tabs application for iPhone,
                                    iPad or Android to access legitimate
                                    chords, guitar, bass, and drum tabs
                                    from Ultimate-Guitar.com database.

                                    Type "ultimate guitar tabs" in Apple
                                    App Store's or Android Market's
                                    search to find the application.
Evanescence - Haunted


LEGEND:

* = Mute the string. Not Palm mute. This is where the left hand and the right have stop
strings from vibrating.
-0---*-

x = Fret mute. Like palm mute but the fretting fingers sit on the strings half pushing
strings down for a muted sound. Often, all the fingers lay flat over all 6 strings
them all.
|--0--x-x-|
|--0--x-x-|

PM = Palm Mute. This is where the note is struck with the strumming palm resting
on the strings very close to the bridge. This is located below the strings and above the timing.
-0---0---0---0---3---0---2---0--|
 PM---------->       PM---------|      PM


/ = Slide Up. Where needed, Notify if it's a slow slide or a fast slide.
--5-/-7--


\ = Slide down.
--7-\-5--


PS = Pick Slide. The / or \ will signify the direction. This is located below the
and above the timing. --12-\-1--
    PS


QS = Quick slide. The / or \ will signify the direction. This is located below the
and above the timing. It's where you slide into the note but it's a fraction of a second.
nearly so fast that you hardly notice it. Start the note about 2 or 3 frets away from 
note, strike it as you are sliding and finish at the desired note.
|--------/7---|
|-0-0-0-0-----|
         QS
  1 e + a


VS = Volume Swell. Strike the note with the volume knob turned down and slowly increase volume.
   VS
---5------7--

VF = Volume Fade. Same as swell but reverse.


^ = Next note on that string isn't picked and is a continuation. Usually used to show
ons and Pull offs. Located on the string between the notes.
--6-^-4--

H = Hammer on. This is where your fretting hand frets down hard to create string
or continue vibration, without plucking the string. Located above strings.
     H
---5-^-7-


P = Pull off. Same as Hammer off but you flick the fretting finger off after a very
bend to have it flick back for the string to vibrate on the lower fret. It's like plucking
your fret finger as you take your finger off.
     P
---7-^-5-


T = Tap with the strumming hand on the indicated fret. Located the same as Hammer on and 
off.
   T  P    P    T    P    P
---19-^-15-^-12-^-19-^-15-^-12-


TH = Tap harmonic. This is when you fret a note and then tap the fret line on the 5th,
or 12th above the fret.
            TH
|--2--------14--


HR = Harmonic. It's where you lightly touch the string above the fret line for a split
as you pluck the string. Located above the strings.
   HR   HR  HR
---12---7---5---


PH = Pinch Harmonic. This is where the bottom of your picking thumb slightly touches the
as you pluck the string. Depending on the fret played, the distance from the bridge
the squeal happens differs.


F = Full bend. 2 frets. 1 whole step. Strike it then bend up where the F is located. So
F dead above the Note means to bend like a QS. And F a beat later means gradual bend up
that F.
   F
---8---

½ = Half bend. 1 fret. Half a step. Alt key 171.
   ½
---9---

¼ = Quarter bend.

F½ = 1 and a half steps.

R = Release bend.


WB\/ = Whammy bar dips or vibrato or bends.
        WB \/  WB\/\/\/\/  WBF     WB½   WB^^^^^
|----12---(12)-------------(12)----(12)---------


^^^ = Small vibrato located above the strings.
          ^^^^^^^^
-8-7-5------------


/\/\ = Wide vibrato located above the strings.
          /\/\/\/\
-8-7-5------------


. = Staccato note. It's short and sharp; crisp. Locating under strings.
-0---0---0---2---3---0---5---3-
             .           .   .


() = Not strummed but continued from the last strike of the note. Letting it ring out
this point. Usually used where the timing needs a beat writing so you know if it's the 8th
after the 3rd b3at or 4th beat. Something similar to that. Also where a slide doesn't 
the note but just lets it ring, and also where a note continues over into a new bar.
|-0---------2---------3--0------|-(0)--------3-/-(5)-|
  1    (2)  +   (3)   +  4        (1)        4    +


||.   .||
||.   .|| = Repeat Signs. Repeat content between the repeat signs.  So you see where the
starts, then play through until you see where the second set is, and then you repeat
to the first set. If there is X? above the "repeat end sign", then you repeat that 
of times. If there is no X? above the repeat end sign, then only repeat once and then
through.


W / = With. Meaning the tab following is played along with the Rhy Fig indicated. 
above strings.


[Wah V ^ V] = Wah pedal. V is pedal down, ^ is pedal up.  ^ ^ ^ ^  is gradually up.
above strings.

GTR1 Volume swell each note.
        /\/\/\/\/\         /\/\/\/\/\             /\/\/\/\/\
E|-------------------19--------------------|-18--------------------------------------|
B|--17-------------------------------------|--------------------20---------19--------|
G|-----------------------------------------|-----------------------------------------|
D|-----------------------------------------|-----------------------------------------|
A|-----------------------------------------|-----------------------------------------|
D|-----------------------------------------|-----------------------------------------|
 |
 |   1                3                       1                  3          4
 |
 | GTR2 Half volume.
 | VS               VS  VF                                      VS VF      VS     VF
 |--------------------0--------------------|---------------------12---------0--------|
 |-----------------------------------------|-----------------------------------------|
 |-----------------------------------------|-----------------------------------------|
 |-2---------------------------------------|-(2)-------------------------------------|
 |-----------------------------------------|-----------------------------------------|
 |-----------------------------------------|-----------------------------------------|

   1                  3                      (1)                 3          4

        /\/\/\/\/\         /\/\/\/\/\             /\/\/\/\/\                       X3
|---------------------20------------------|---19------------------------------------|
|----17-----------------------------------|----------------------20---------19------|
|-----------------------------------------|-----------------------------------------|
|-----------------------------------------|-----------------------------------------|
|-----------------------------------------|-----------------------------------------|
|-----------------------------------------|-----------------------------------------|
|
|    1                3                       1                  3          4
|
|
|VS VF      VS                                                 VS  VF
|-----------------------------------------|----------------------8------------------|
|-1---------------------------------------|-----------------------------------------|
|-----------------------------------------|-----------------------------------------|
|-----------------------------------------|-----------------------------------------|
|-----------3-----------------------------|-(3)-------------------------------------|
|-----------------------------------------|-----------------------------------------|

   1        2         3                     (1)                  3          4


GTR1 Volume swell each note.
        /\/\/\/\/\         /\/\/\/\/\             /\/\/\/\/\
|-------------------19--------------------|-18--------------------------------------|
|--17-------------------------------------|--------------------20---------19--------|
|-----------------------------------------|-----------------------------------------|
|-----------------------------------------|-----------------------------------------|
|-----------------------------------------|-----------------------------------------|
|-----------------------------------------|-----------------------------------------|
|
|   1                3                       1                  3          4
|
| GTR2 Half volume.
| VS               VS  VF                            VS  VF
|--------------------0--------------------|------------12---------------------------|
|-----------------------------------------|-----------------------------------------|
|-----------------------------------------|-----------------------------------------|
|-2---------------------------------------|-(2)-------------------------------------|
|-----------------------------------------|-----------------------------------------|
|-----------------------------------------|-----------------------------------------|

  1                  3                      (1)        2         3          4

        /\/\/\/\/\         /\/\/\/\/\             /\/\/\/\/\                       X3
|---------------------20------------------|---19------------------------------------|
|----17-----------------------------------|----------------------20---------19------|
|-----------------------------------------|-----------------------------------------|
|-----------------------------------------|-----------------------------------------|
|-----------------------------------------|-----------------------------------------|
|-----------------------------------------|-----------------------------------------|
|
|    1                3                       1                  3          4
|
|
|VS                                                                       VS  VF
|-----------------------------------------|---------------------------------10------|
|-----------------------------------------|-----------------------------------------|
|-----------------------------------------|-----------------------------------------|
|-----------------------------------------|-----------------------------------------|
|-3---------------------------------------|-(3)-------------------------------------|
|-----------------------------------------|-----------------------------------------|

  1                                         (1)                             4

GTR1 Volume swell each note.
        /\/\/\/\/\         /\/\/\/\/\             /\/\/\/\/\
|-------------------19--------------------|-18--------------------------------------|
|--17-------------------------------------|--------------------20---------19--------|
|-----------------------------------------|-----------------------------------------|
|-----------------------------------------|-----------------------------------------|
|-----------------------------------------|-----------------------------------------|
|-----------------------------------------|-----------------------------------------|
|
|   1                3                       1                  3          4
|
| GTR2 Half volume.
| VS                                                 VS  VF
|-----------------------------------------|------------12---------------------------|
|-----------------------------------------|-----------------------------------------|
|-----------------------------------------|-----------------------------------------|
|-2---------------------------------------|-(2)-------------------------------------|
|-----------------------------------------|-----------------------------------------|
|-----------------------------------------|-----------------------------------------|

  1                  3                      (1)        2         3          4

        /\/\/\/\/\         /\/\/\/\/\             /\/\/\/\/\                       X3
|---------------------20------------------|---19------------------------------------|
|----17-----------------------------------|----------------------20---------19------|
|-----------------------------------------|-----------------------------------------|
|-----------------------------------------|-----------------------------------------|
|-----------------------------------------|-----------------------------------------|
|-----------------------------------------|-----------------------------------------|
|
|    1                3                       1                  3          4
|
|
|VS
|-----------------------------------------|-----------------------------------------|
|-----------------------------------------|-----------------------------------------|
|-----------------------------------------|-----------------------------------------|
|-----------------------------------------|-----------------------------------------|
|-3---------------------------------------|-(3)-------------------------------------|
|-----------------------------------------|-----------------------------------------|

  1                                         (1)                             4

GTR1 End volume swell

|-----------------------------------------|-----------------------------------------|
|--17-*-----17-*-----19-*-----20-*--------|--17-*-----17-*-----20-*-----19-*--------|
|-----------------------------------------|-----------------------------------------|
|-----------------------------------------|-----------------------------------------|
|-----------------------------------------|-----------------------------------------|
|-----------------------------------------|-----------------------------------------|
|  1        2        3        4              1        2        3        4
|
|
|
|-----------------------------------------|-----------------------------------------|
|-----------------------------------------|-----------------------------------------|
|-----------------------------------------|-----------------------------------------|
|-2---------------------------------------|-(2)-------------------------------------|
|-----------------------------------------|-----------------------------------------|
|-----------------------------------------|-----------------------------------------|

  1


|-----------------------------------------|-----------------------------------------|
|--17-*-----17-*-----19-*-----20-*--------|--17-*-----17-*-----20-*-----------------|
|-----------------------------------------|-----------------------------------------|
|-----------------------------------------|-----------------------------------------|
|-----------------------------------------|-----------------------------------------|
|-----------------------------------------|-----------------------------------------|
|  1        2        3        4              1        2        3
|
|
|
|-----------------------------------------|-----------------------------------------|
|-----------------------------------------|-----------------------------------------|
|-----------------------------------------|-----------------------------------------|
|-----------------------------------------|-----------------------------------------|
|-3---------------------------------------|-(3)-------------------------------------|
|-----------------------------------------|-----------------------------------------|

  1


|-21-*-----21-*------21-*-----21-*--------|
|-----------------------------------------|
|-----------------------------------------|
|-----------------------------------------|
|-----------------------------------------|
|-----------------------------------------|

  1        2         3        4

(GTR2 uses a wah pedle. Slow lift on the 3rd beat, and a quick lift just before the 1st beat.)
<--Rhy Fig 1
||-----------------------------------------|-------------------------------------------|
||-----------------------------------------|-------------------------------------------|
||.----------------------------------------|-------------------------------------------|
||.-2-------2--------*-------x-x----0------|--0-------0--------*-------x-x----2--------|
||--2-------2--------*-------x-x----0------|--0-------0--------*-------x-x----2--------|
||--2-------2--------*-------x-x----0------|--0-------0--------*-------x-x----2--------|
                    PM--------------->                        PM-----------------------|
    1       2        3       4 e    a         1       2        3       4 e    a

                                                                      End Rhy Fig 1-->
|-----------------------------------------|--------------------------------------------|
|-----------------------------------------|--------------------------------------------|
|-----------------------------------------|--4-------4--------4------/-7-----------.---|
|--2-------2--------*-------x-x-----------|--4-------4--------4------/-7-----------.---|
|--2-------2--------*-------x-x----0------|--2-------2--------2------/-5---------------|
|--2-------2--------*-------x-x-----------|--------------------------------------------|
                    PM-----------------------------------------------------------------|
   1       2        3       4 e    a         1       2        3        4

(Wah lift on GTR 2 here.)
  GTR1
|-----------------------------------------|-----------------------------------------||
|-----------------------------------------|-----------------------------------------||
|-9---\---*-------------------------------|-----------------------------------------||
|-9---\---*-------------------------------|-----------------------------------------||
|-7---\---*-------------------------------|-----------------------------------------||
|-----------------------------------------|-----------------------------------------||
|          PM
| 1       2
|
|
| GTR2 (Can play both of these on the 1 guitar at the same time.)
|    VS          WB\/\/  VF
|-14----------------------*---------------|-----------------------------------------||
|-----------------------------------------|-----------------------------------------||
|-----------------------------------------|-----------------------------------------||
|-----------------------------------------|-----------------------------------------||
|-----------------------------------------|-----------------------------------------||
|-----------------------------------------|-----------------------------------------||
|  1      2      3      4
|
| GTR3 (Can play both of these on the 1 guitar at the same time.)
|                      F Slow bend-----------------------------------------------------|
|-----------------------------------------|--------------------------------------------|
|-15--------------------------------------|-(15)---------------------------------------|
|-----------------------------------------|--------------------------------------------|
|-----------------------------------------|--------------------------------------------|
|-----------------------------------------|--------------------------------------------|
|-----------------------------------------|--------------------------------------------|
  1      2    3      4

                                           X7
||--------------------------------------------|
||--------------------------------------------|
||.---------------------------------------.---|
||.-2-2-2---2-2-2-*-----2-*---2-*---------.---|
||--2-2-2---2-2-2-*-----2-*---2-*-------------|
||--2-2-2---2-2-2-*-----2-*---2-*-------------|
    PM----------------------------------------|
    1   a   +   e   (2) e     a 3


|---------------------------------------21-*---|
|----------------------------------------------|
|----------------------------------------------|
|--2-2-2---2-2-2-*-----2-*---2-*---------------|
|--2-2-2---2-2-2-*-----2-*---2-*---------------|
|--2-2-2---2-2-2-*-----2-*---2-*---------------|
   PM------------------------------------------|
   1   a   +   e   (2) e     a 3   (4)  +


Rhy Fig 1

|-----------------------------------------|-------------------------------------------|
|-----------------------------------------|-------------------------------------------|
|-----------------------------------------|-------------------------------------------|
|--2-------2--------*-------x-x----0------|--0-------0--------*-------x-x----2--------|
|--2-------2--------*-------x-x----0------|--0-------0--------*-------x-x----2--------|
|--2-------2--------*-------x-x----0------|--0-------0--------*-------x-x----2--------|
                    PM--------------->                        PM----------------------|
    1       2        3       4 e    a         1       2        3       4 e    a


|-----------------------------------------|-------------------------------------------|
|-----------------------------------------|-------------------------------------------|
|-----------------------------------------|--4-------4--------4--------4--------/-----|
|--2-------2--------*-------x-x-----------|--4-------4--------4--------4--------/-----|
|--2-------2--------*-------x-x----0------|--2-------2--------2--------2--------/-----|
|--2-------2--------*-------x-x-----------|-------------------------------------------|
                    PM----------------------------------------------------------------|
   1       2        3       4 e    a         1       2        3        4


|-----------------------------------------|-----------------------------------------|
|-----------------------------------------|-----------------------------------------|
|-6--------6----------------6-------------|-4--------4-----------------4------------|
|-6--------6----------------6-------------|-4--------4-----------------4------------|
|-4--------4----------------4-------------|-2--------2-----------------2------------|
|-----------------------------------------|-----------------------------------------|

   1       2                4               1        2                 4

|-----------------------------------------|-----------------------------------------|
|-----------------------------------------|-----------------------------------------|
|-6--------6----------------6-------------|-----------------------------------------|
|-6--------6----------------6-------------|-6--------6--------6--------6------------|
|-4--------4----------------4-------------|-6--------6--------6--------6------------|
|-----------------------------------------|-6--------6--------6--------6------------|

   1       2                4               1        2        3        4


|-----------------------------------------|-----------------------------------------|
|-----------------------------------------|-----------------------------------------|
|-6--------6--------6--------6------------|-4--------4--------4--------4------------|
|-6--------6--------6--------6------------|-4--------4--------4--------4------------|
|-4--------4--------4--------4------------|-2--------2--------2--------2------------|
|-----------------------------------------|-----------------------------------------|

   1       2        3        4              1        2        3        4


|-----------------------------------------|-----------------------------------------|
|-----------------------------------------|-----------------------------------------|
|-6--------6--------6--------6------------|-4--------4--------4--------4------------|
|-6--------6--------6--------6------------|-4--------4--------4--------4------------|
|-4--------4--------4--------4------------|-2--------2--------2--------2------------|
|-----------------------------------------|-----------------------------------------|

   1       2        3        4              1        2        3        4

Rhy Fig 1 X2

                                           X8
||-----------------------------------21-*-----|
||--------------------------------------------|
||.---------------------------------------.---|
||.-2-2-2---2-2-2-*-----2-*---2-*---------.---|
||--2-2-2---2-2-2-*-----2-*---2-*-------------|
||--2-2-2---2-2-2-*-----2-*---2-*-------------|
    PM----------------------------------------|
    1   a   +   e   (2) e     a 3    +

Now you slackers who write tab need to know some things about picking out music.

1. Head phones. Listen to 1 speaker at a time to hear the different guitars, without 
noise.

2. Use Media player and set the WOW effect to far right. This ups the volume of the mid
instruments. Lead needs to be far left.

3. Set Media player EQ to these settings. -14 -14 +5 -5 -5 -3 +6 +13 -14 -14. This cuts
cymbals and bass sounds and amplifies the mid range. Now you can actually hear the
better.
For lead, -14 -14 -14 -14 -14 -4 +4 -14 +14 -14

4. Put the bloody timing in for God's sake. I am so sick of Tab without the timing.

5. For fast note changes, you can slow down the play speed.

If you can't do all this, then you really aren't very knowledgeable about music and you
get serious and learn how.

I picked this out entirely by ear.

Feel free to copy and distribute this at will.

S. Hammon.
comments
We did not receive enough feedback on this tab! Please rate:
print report bad tab
1 2 3 4 5
I want to post or [tab]
guest
You may want to rate the tab now too:
select rating
Please do not post tabs as comments. Select "correction" instead!