Oops, an error
Loading. Please wait.

My Immortal Tab

ver7
ver7
More versions @911Tabs.com
6,121 views 45 this week
no commentswrite comment
1 2 3 4 5
not so good
x 1
Autoscroll
+/-
esc
set tempo
stop
Hey! There's an official Ultimate Guitar app which is ideal
for learning songs when you're away from computer. Get the app
WARNING: You are trying to view
                                    content from Ultimate-Guitar.com
                                    in an unauthorized application,
                                    which is prohibited.

                                    Please use an official Ultimate
                                    Guitar Tabs application for iPhone,
                                    iPad or Android to access legitimate
                                    chords, guitar, bass, and drum tabs
                                    from Ultimate-Guitar.com database.

                                    Type "ultimate guitar tabs" in Apple
                                    App Store's or Android Market's
                                    search to find the application.
My Immortal- Evanescence - BASIC ARRANGEMENT played in the key of A

E|---------------- 9--------------|---------------- 9--------------|
B|--------10--------------10------|-------- 9----------------------|
G|---- 9------ 9------ 9------ 9--|---- 9---- 9--------------------|
D|11------------------------------|11------------------------------|
A| 0------------------------------|--------------------------------|
E|--------------------------------| 9------------------------------|

E|---------------- 9--------------|---------------- 9--------------|
B|--------10--------------10------|-------- 9----------------------|
G|---- 9------ 9------ 9------ 9--|---- 9---- 9--------------------|
D|11------------------------------|11------------------------------|
A| 0------------------------------|--------------------------------|
E|--------------------------------| 9------------------------------|
                  







E|--------------------------------|--------------------------------|
B|-------------------------- 2-- 2|--------------------------------|
G|---- 2-- 2-- 2 2---- 2 2--------|-------- 4------ 4--------------|
D|---- 2------ 2 2---- 2-- 2------|---- 2------ 2------------------|
A| 0------------------------------| 4------------------------------|
E|--------------------------------|--------------------------------|

E|--------------------------------|--------------------------------|
B|--------------------------------|---- 2 2---- 3 2----------------|
G|---- 2-- 2-- 2 2---- 2 2-- 2-- 2|---- 4 4-- 4------ 4 2----------|
D|---- 2-- 2-- 2 2---- 2 2---- 2--|---- 2 2-- 2-- 2-------- 2------|
A| 0------------------------------| 4------------------------------|
E|--------------------------------|--------------------------------|

E|--------------------------------|---- 0 0 0----------------------|
B|---- 5 5 5-- 3 2----------------|---- 0 0 0-- 3 2------ 2-- 3 2--|
G|---- 2 2 2-- 2 2-- 2---- 2------|---- 4 4 4-- 4 4---- 4----------|
D|---- 2 2 2-- 2 2---- 2------ 2--|------------ 2 2----------------|
A| 0------------------------------| 4-------------- 4--------------|
E|--------------------------------|--------------------------------|

E|--------------------------------|---------------------- 4---- 5--|
B|---- 5 5 5-- 5 5-- 2-- 5--------|---- 5 5 5-- 5 5 5---------- 2--|
G|---- 2 2 2-- 2 2-- 2-- 2---- 2--|---- 4 4 4-- 4 4 4---------- 2--|
D|---- 2 2 2-- 2 2-- 2-- 2-- 2----|---- 6 6 6-- 6 6 6--------------|
A| 0------------------------------| 4-------------- 4--------------|
E|--------------------------------|--------------------------------|

E|------------ 4------ 4-- 4-- 5--| 5---- 5---- 4---- 4 4 4 4-- 5--|
B|------ 2---- 5------ 5-- 5-- 5--| 2---- 2---- 5---- 5 5-- 5-- 5--|
G|------ 2---- 4------ 4-- 4-- 4--|------------ 4---- 4 4-- 4-- 4--|
D|------ 2------------------------|--------------------------------|
A|---------- 0 4------------------|---------- 0 4------------------|
E| 2------------------------------| 2------------------------------|

E| 5---- 5---- 4---- 4 4 4 4 4----| 4------ 4-- 5---- 7-- 5-- 5----|
B| 2---- 2---- 5---- 5 5 5 5-- 5--| 5------ 5-- 5---- 5-- 5-- 2----|
G| 2---- 2---- 4---- 4 4 4 4-- 4--| 4---- 4---- 4---- 4-- 4-- 2----|
D|--------------------------------|--------------------------------|
A|---------- 0 4------------------|--------------------------------|
E| 2------------------------------| 0-- 0-- 0-- 0-- 0-- 0-- 0---- 2|

E|---- 5---- 4------ 5------ 5-- 7|---- 7-- 5-- 4---- 5-- 4--------|
B|---- 2---- 7------ 7------ 7-- 5|---- 5 5---- 5---- 5-- 5-- 7----|
G|---- 2------ 6------ 6------ 6 4|---- 4------ 4---- 4-- 4--------|
D|--------------------------------|--------------------------------|
A|------------ 5---------- 5------|---------------- 4--------------|
E|------------------------------ 0|------------------------------ 2|

E|------ 5-- 4------ 5------ 5-- 7|---- 7-- 5 4------ 5-- 4-- 5----|
B|------ 2-- 7------ 7------ 7-- 5|---- 5 5-- 5---------- 5-- 5----|
G|------ 2---- 6------ 6------ 6 4|---- 4---- 4------ 4-- 4-- 4----|
D|--------------------------------|--------------------------------|
A|------------ 5---------- 5------|-------------- 4----------------|
E|------------------------------ 0|------------------------------ 2|

E|------ 5-- 4------ 5------ 5-- 7|---- 7-- 5-- 4---- 5-- 4--------|
B|------ 2-- 7------ 7------ 7-- 5|---- 5 5---- 5---- 5-- 5-- 7----|
G|------ 2---- 6------ 6------ 6 4|---- 4------ 4---- 4-- 4--------|
D|--------------------------------|--------------------------------|
A|------------ 5---------- 5------|---------------- 4--------------|
E|------------------------------ 0|------------------------------ 2|

E|------ 5---- 4------ 5------ 4--|--------------------------------|
B|------ 2---- 7------ 7------ 5--|------------ 5------------------|
G|------ 2---- 6------ 6-- 6-- 4--|------ 4---------- 4------ 4----|
D|--------------------------------|---- 6------------------ 6------|
A|---------------- 5--------------|--------------------------------|
E|--------------------------------| 0---------------------------- 0|

E|---------------- 4---------- 5--|---------------------------- 4--|
B|------------ 5------------------|------------ 5-------------- 2--|
G|------ 4------------------------|-------- 7-- 7------ 7------ 2--|
D|-- 6----------------------------|------ 7---- 7------ 7-- 7------|
A|--------------------------------| 5---------- 5------------------|
E|--------------------------------|--------------------------------|

E|---- 5------ 5-------------- 5--| 7-- 7 5---- 4------ 5-- 4------|
B|---- 2------ 2---------- 2------| 5-- 5 5---- 5------ 5-- 5-- 7--|
G|------ 2---- 2------ 2----------| 4-- 4 4---- 4------ 4-- 4-- 6--|
D|--------------------------------|---------------------------- 7--|
A|--------------------------------|--------------------------------|
E| 2---------- 2------------------| 0---------- 0------------------|

E|---------------------------- 5--|---------------------- 9------ 7|
B|------------ 7---------- 7------|10----------10--------10------ 5|
G|------ 6---- 6------ 6----------| 7---------- 7---------------- 4|
D|------ 7---- 7---- 7------------| 7---------- 7------------------|
A| 5------ 0-- 5------------------|------------------------------ 4|
E|--------------------------------| 7-- 7-- 7-- 7-- 7-- 7 7-- 7----|

E|---------- 5-------------- 4----| 4-------- 5---------- 7------ 9|
B|---------- 5--------------------| 7-------- 7---------- 7------ 9|
G|---------- 4-------------- 4----| 6-------- 6---------- 6------ 9|
D|--------------------------------|--------------------------------|
A|-- 4-- 4-- 4-- 4---- 4-- 4 4----| 5-- 5-- 5 5-- 5-- 5-- 5-- 5----|
E|--------------------------------|------------------------------ 0|

E|---------- 7-------------- 5----|---- 5---- 4------ 5------ 5-- 7|
B|---------- 9----------10-- 2----|---- 2---- 7------ 7------ 7-- 5|
G|---------- 9---------- 9-- 2----|---- 2------ 6------ 6------ 6 4|
D|--------------------------------|--------------------------------|
A|--------------------------------|------------ 5---------- 5------|
E|---- 0-- 0 0---- 0-- 0-- 0-- 0 2|------------------------------ 0|

E|---- 7-- 5-- 4---- 5-- 4--------|------ 5-- 4------ 5------ 5-- 7|
B|---- 5 5---- 5---- 5-- 5-- 7----|------ 2-- 7------ 7------ 7-- 5|
G|---- 4------ 4---- 4-- 4--------|------ 2---- 6------ 6------ 6 4|
D|--------------------------------|--------------------------------|
A|---------------- 4--------------|------------ 5---------- 5------|
E|------------------------------ 2|------------------------------ 0|

E|---- 7-- 5 4------ 5-- 4-- 5----|------ 5-- 4------ 5------ 5-- 7|
B|---- 5 5-- 5---------- 5-- 5----|------ 2-- 7------ 7------ 7-- 5|
G|---- 4---- 4------ 4-- 4-- 4----|------ 2---- 6------ 6------ 6 4|
D|--------------------------------|--------------------------------|
A|-------------- 4----------------|------------ 5---------- 5------|
E|------------------------------ 2|------------------------------ 0|

E|---- 7-- 5-- 4---- 5-- 4--------|------ 5---- 4------ 5------ 4--|
B|---- 5 5---- 5---- 5-- 5-- 7----|------ 2---- 7------ 7------ 5--|
G|---- 4------ 4---- 4-- 4--------|------ 2---- 6------ 6-- 6-- 4--|
D|--------------------------------|--------------------------------|
A|---------------- 4--------------|---------------- 5--------------|
E|------------------------------ 2|--------------------------------|

E|--------------------------------|---------------- 4--------------|
B|------------ 5------------------|------------ 5--------------10--|
G|------ 4---------- 4------ 4----|------ 4------------------------|
D|---- 6------------------ 6------|-- 6----------------------------|
A|--------------------------------|--------------------------------|
E| 0---------------------------- 0|--------------------------------|

E|---------------- 9--------------|---------------- 9--------------|
B|--------------------------------|-------- 9----------------------|
G|------------------------ 9------|---- 9---- 9--------------------|
D|----11------11------11------11--|11------------------------------|
A| 0------------------------------|--------------------------------|
E|--------------------------------| 9------------------------------|

E|---------------- 9--------------|---------------- 9--------------|
B|--------10--------------10------|-------- 9----------------------|
G|---- 9------ 9------ 9------ 9--|---- 9---- 9--------------------|
D|11------------------------------|11------------------------------|
A| 0------------------------------|--------------------------------|
E|--------------------------------| 9------------------------------|

E|--------------------------------|--------------------------------|
B|-- 2----------------------------|--------------------------------|
G| 2------------------------------|--------------------------------|
D| 2------------------------------|--------------------------------|
A| 0------------------------------|--------------------------------|
E|--------------------------------|--------------------------------|
comments
We did not receive enough feedback on this tab! Please rate:
print report bad tab
1 2 3 4 5
I want to post or [tab]
guest
You may want to rate the tab now too:
select rating
Please do not post tabs as comments. Select "correction" instead!