Oops, an error
Loading. Please wait.

Local God Tab

4,652 views 3 this week
1 commentread comment
1 2 3 4 5
excellent!
x 7
Autoscroll
+/-
esc
set tempo
stop
Contributor
WARNING: You are trying to view
                                    content from Ultimate-Guitar.com
                                    in an unauthorized application,
                                    which is prohibited.

                                    Please use an official Ultimate
                                    Guitar Tabs application for iPhone,
                                    iPad or Android to access legitimate
                                    chords, guitar, bass, and drum tabs
                                    from Ultimate-Guitar.com database.

                                    Type "ultimate guitar tabs" in Apple
                                    App Store's or Android Market's
                                    search to find the application.
Local God
Romeo And Juliet Soundtrack
Wornds By Art Alexakis
Music My Everclear 

e|-------------------------------------7----------------|
B|-7--7--9--10-x--9--10--6/7--7--9--10-7--9--10--6/7----|
G|-8--8--8--8--x--8--8---7/8--8--8--8--8--8--8---7/8----|
D|-7--7--7--7--x--7--7---6/7--7--7--7--x--7--7---6/7----|
A|-9--9--9--9--x--9--9---8/9--9--9--9--x--9--9---8/9----|
E|-7--7--7--7--x--7--7---6/7--7--7--7--x--7--7---7/7----|

e|------------------------------------------------------|
B|-7--7--9--10-x--9--10--6/7--7--9--10-x--9--10---------|
G|-8--8--8--8--x--8--8---7/8--8--8--8--x--8--8----------|
D|-7--7--7--7--x--7--7---6/7--7--7--7--x--7--7----------|
A|-9--9--9--9--x--9--9---8/9--9--9--9--x--9--9----------|
E|-7--7--7--7--x--7--7---6/7--7--7--7--x--7--7----------|
                                                "Go!......"
  Guitar 1
e|----------------------------------------------------|
B|-7--7--9--10--x-----11-x---7--7--9--10--x-----11-x--|
G|-8--8--8--8---x--9--9--x---8--8--8--8---x--9--9--x--|
D|-7--7--7--7---x--8--8--x---7--7--7--7---x--8--8--x--|
A|-9--9--9--9---x--10-10-x---9--9--9--9---x--10-10-x--|
E|-7--7--7--7---x--8--8--x---7--7--7--7---x--8--8--x--|
 |Guitar 2                                            |
e|----------------------------------------------------|
B|----------------------------------------------------|
G|----------------------------------------------------|
D|-9--9--9--9------10-10-10--9--9--9--9------10-10-10-|
A|-9--9--9--9------10-10-10--9--9--9--9------10-10-10-|
E|-7--7--7--7------8--8--8---7--7--7--7------8--8--8--|

  G1
e|----------------------------------------------------|
B|-7--7--9--10--x-----11-x---7------------------------|
G|-8--8--8--8---x--9--9--x---8--8---8---8---8\--------|
D|-7--7--7--7---x--8--8--x---9----9---9---9-----------|
A|-9--9--9--9---x--10-10-x---9------------------------|
E|-7--7--7--7---x--8--8--x---7------------------------|
 |G2             			              |
e|----------------------------------------------------|
B|----------------------------------------------------|
G|----------------------------------------------------|
D|-9--9--9--9------10-10-10--9------------------------|
A|-9--9--9--9------10-10-10--9------------------------|
E|-7--7--7--7------8--8--8---7------------------------|

  G1      
e|----------------------------------------------------|
B|-7--7--9--10--x-----11-x---7--7--9--10--x-----11-x--|
G|-8--8--8--8---x--9--9--x---8--8--8--8---x--9--9--x--|
D|-7--7--7--7---x--8--8--x---7--7--7--7---x--8--8--x--|
A|-9--9--9--9---x--10-10-x---9--9--9--9---x--10-10-x--|
E|-7--7--7--7---x--8--8--x---7--7--7--7---x--8--8--x--|
 |G2                                                  |
e|----------------------------------------------------|
B|----------------------------------------------------|
G|----------------------------------------------------|
D|-9--9--9--9------10-10-10--9--9--9--9------10-10-10-|
A|-9--9--9--9------10-10-10--9--9--9--9------10-10-10-|
E|-7--7--7--7------8--8--8---7--7--7--7------8--8--8--|

  G1         
e|----------------------------------------------------|
B|-7--7--9--10--x-----11-x---7\-----------------------|
G|-8--8--8--8---x--9--9--x---8\-----------------------|
D|-7--7--7--7---x--8--8--x---9\--------------------4/-|
A|-9--9--9--9---x--10-10-x---9\--------------------4/-|
E|-7--7--7--7---x--8--8--x---7\--------------------2/-|
 |G2                                                  |
e|----------------------------------------------------|
B|----------------------------------------------------|
G|----------------------------------------------------|
D|-9--9--9--9------10-10-10--9\--------------------4/-|
A|-9--9--9--9------10-10-10--9\--------------------4/-|
E|-7--7--7--7------8--8--8---7\--------------------2/-|

MAIN RIFF 
  G1         
e|----------------------------------------------------| Do this part three 
B|-7--7--9--10--x-----11-x---7--7--9--10--x-----11-x--| times 
G|-8--8--8--8---x--9--9--x---8--8--8--8---x--9--9--x--|
D|-7--7--7--7---x--8--8--x---7--7--7--7---x--8--8--x--|
A|-9--9--9--9---x--10-10-x---9--9--9--9---x--10-10-x--|
E|-7--7--7--7---x--8--8--x---7--7--7--7---x--8--8--x--|
 |G2                                                  |
e|----------------------------------------------------|
B|----------------------------------------------------|
G|----------------------------------------------------|
D|-9--9--9--9------10-10-10--9--9--9--9------10-10-10-|
A|-9--9--9--9------10-10-10--9--9--9--9------10-10-10-|
E|-7--7--7--7------8--8--8---7--7--7--7------8--8--8--|

  G1       
e|----------------------------------------------------| Do this part once,
B|-7--7--9--10--x-----11-x---7-x----------------------| 
G|-8--8--8--8---x--9--9--x---8-x----------------------|
D|-7--7--7--7---x--8--8--x---9-x----------------------|
A|-9--9--9--9---x--10-10-x---9-x----------------------|
E|-7--7--7--7---x--8--8--x---7-x----------------------|
 |G2                                                  |
e|----------------------------------------------------|
B|----------------------------------------------------|
G|----------------------------------------------------|
D|-9--9--9--9------10-10-10--9\-----------------------|
A|-9--9--9--9------10-10-10--9\-----------------------|
E|-7--7--7--7------8--8--8---7\-----------------------|

(Main Riff x2)
You do that Romeo, be what you wanna be
Look like you running in place, do that stupid dance for me
Do that Romeo, that go-go Romeo
I see you twist and turn, you look so stupid, happy, and numb 
Be my Romeo, please be my voice in this world
I can't sing the songs that you sing, I can't find the gorgeous words
Will you be my Romeo? My go-go Romeo
I see you twist and turn you look so stupid 

  G2 (g1 silent)
e|-----------------------------------------------------|
B|-----------------------------------------------------|
G|-----------------------------------------------------|
D|-4/-9--9--9--9-----10-10-10\--5--5--5--5-----4--4--4-|
A|-4/-9--9--9--9-----10-10-10\--5--5--5--5-----4--4--4-|
E|-2/-7--7--7--7-----8--8--8-\--3--3--3--3-----2--2--2-|
pm......................................................
   I feel just like a local god when I'm with the boys
  
 G2 
e|--------------------------------------------------|
B|--------------------------------------------------|
G|--------------------------------------------------|
D|-9--9--9--9-----10-10-10\--5--5--5--5-----4--4--4-|
A|-9--9--9--9-----10-10-10\--5--5--5--5-----4--4--4-|
E|-7--7--7--7-----8--8--8-\--3--3--3--3-----2--2--2-|
pm..................................................
   We do what we want, yes we do what we want 

 G1
e|----7-----------8-------------3-----------2-------|
B|------7------------8-------------3-----------2----|
G|--------8-------------9-------------4-----------3-|
D|--------------------------------------------------|
A|--------------------------------------------------|
E|-7-------------------------3----------------------|
 |G2				   		    |
e|--------------------------------------------------| 
B|--------------------------------------------------|
G|--------------------------------------------------|
D|-9--9--9--9-----10-10-10\--5--5--5--5-----4--4--4-|
A|-9--9--9--9-----10-10-10\--5--5--5--5-----4--4--4-|
E|-7--7--7--7-----8--8--8-\--3--3--3--3-----2--2--2-|
pm...................................................
   I feel just like a local god when I'm with the boys

 G1
e|----7-----------8-------------3-------------------|
B|------7------------8-------------3----------------|
G|--------8-------------9-------------4-------------|
D|--------------------------------------------------|
A|--------------------------------------------------|
E|-7-------------------------3----------------------|
 |G2				   		    |
e|--------------------------------------------------| 
B|--------------------------------------------------|
G|--------------------------------------------------|
D|-9--9--9--9-----10-10-10\--5--5--5--5--4-------4/-|
A|-9--9--9--9-----10-10-10\--5--5--5--5--4-------4/-|
E|-7--7--7--7-----8--8--8-\--3--3--3--3--2-------2/-|
pm................................................... 
   We do what we want, yes we do what we want 

  Guitar 1
e|----------------------------------------------------|
B|-7--7--9--10--x-----11-x---7--7--9--10--x-----11-x--|
G|-8--8--8--8---x--9--9--x---8--8--8--8---x--9--9--x--|
D|-7--7--7--7---x--8--8--x---7--7--7--7---x--8--8--x--|
A|-9--9--9--9---x--10-10-x---9--9--9--9---x--10-10-x--|
E|-7--7--7--7---x--8--8--x---7--7--7--7---x--8--8--x--|
 |Guitar 2                                            |
e|----------------------------------------------------|
B|----------------------------------------------------|
G|----------------------------------------------------|
D|-9--9--9--9------10-10-10--9--9--9--9------10-10-10-|
A|-9--9--9--9------10-10-10--9--9--9--9------10-10-10-|
E|-7--7--7--7------8--8--8---7--7--7--7------8--8--8--|
					 Yeah, we do what we want	

  G1
e|----------------------------------------------------|
B|-7--7--9--10--x-----11-x---7------------------------|
G|-8--8--8--8---x--9--9--x---8--8---8---8---8\--------|
D|-7--7--7--7---x--8--8--x---9----9---9---9-----------|
A|-9--9--9--9---x--10-10-x---9------------------------|
E|-7--7--7--7---x--8--8--x---7------------------------|
 |G2             			              |
e|----------------------------------------------------|
B|----------------------------------------------------|
G|----------------------------------------------------|
D|-9--9--9--9------10-10-10--9------------------------|
A|-9--9--9--9------10-10-10--9------------------------|
E|-7--7--7--7------8--8--8---7------------------------|

  G1      
e|----------------------------------------------------|
B|-7--7--9--10--x-----11-x---7--7--9--10--x-----11-x--|
G|-8--8--8--8---x--9--9--x---8--8--8--8---x--9--9--x--|
D|-7--7--7--7---x--8--8--x---7--7--7--7---x--8--8--x--|
A|-9--9--9--9---x--10-10-x---9--9--9--9---x--10-10-x--|
E|-7--7--7--7---x--8--8--x---7--7--7--7---x--8--8--x--|
 |G2                                                  |
e|----------------------------------------------------|
B|----------------------------------------------------|
G|----------------------------------------------------|
D|-9--9--9--9------10-10-10--9--9--9--9------10-10-10-|
A|-9--9--9--9------10-10-10--9--9--9--9------10-10-10-|
E|-7--7--7--7------8--8--8---7--7--7--7------8--8--8--|
					 "Ah. Yeah  We do what we want."

  G1         
e|----------------------------------------------------|
B|-7--7--9--10--x-----11-x---7\-----------------------|
G|-8--8--8--8---x--9--9--x---8\-----------------------|
D|-7--7--7--7---x--8--8--x---9\-----------------------|
A|-9--9--9--9---x--10-10-x---9\-----------------------|
E|-7--7--7--7---x--8--8--x---7\-----------------------|
 |G2                                                  |
e|----------------------------------------------------|
B|----------------------------------------------------|
G|----------------------------------------------------|
D|-9--9--9--9------10-10-10--9\-----------------------|
A|-9--9--9--9------10-10-10--9\-----------------------|
E|-7--7--7--7------8--8--8---7\-----------------------|

(Main Riff x1)
Be my Romeo Tell me all about your love
Tell me all about your pain Baited breath and rubber glove
Be my Romeo My go-go Romeo
I see you twist and turn you look so fucking stupid 

  G2 (g1 silent)
e|-----------------------------------------------------|
B|-----------------------------------------------------|
G|-----------------------------------------------------|
D|-4/-9--9--9--9-----10-10-10\--5--5--5--5-----4--4--4-|
A|-4/-9--9--9--9-----10-10-10\--5--5--5--5-----4--4--4-|
E|-2/-7--7--7--7-----8--8--8-\--3--3--3--3-----2--2--2-|
pm......................................................
   "                 mmmmmm.....mmmmmm....mmmmmm Ah"

  G2 (g1 silent)
e|--------------------------------------------------| 
B|--------------------------------------------------| 
G|--------------------------------------------------|
D|-9--9--9--9-----10-10-10\--5--5--5--5-----4--4--4-|
A|-9--9--9--9-----10-10-10\--5--5--5--5-----4--4--4-|
E|-7--7--7--7-----8--8--8-\--3--3--3--3-----2--2--2-|
pm...................................................
    "Ahh                    Ayayayayaya."
  
 G1
e|----7-----------8-------------3-----------2-------|
B|------7------------8-------------3-----------2----|
G|--------8-------------9------------4------------3-|
D|--------------------------------------------------|
A|--------------------------------------------------|
E|-7-------------------------3----------------------|
 |G2				   		    |
e|--------------------------------------------------| 
B|--------------------------------------------------|
G|--------------------------------------------------|
D|-9--9--9--9-----10-10-10\--5--5--5--5-----4--4--4-|
A|-9--9--9--9-----10-10-10\--5--5--5--5-----4--4--4-|
E|-7--7--7--7-----8--8--8-\--3--3--3--3-----2--2--2-|
 |G3 						    |
e|--------------------------------------------------|
B|-4--4--4--4--5--5--5--5----3--3--3--3--2--2--2--2-|
G|--------------------------------------------------|
D|--------------------------------------------------|
A|--------------------------------------------------|
E|--------------------------------------------------|
I feel just like a local god when I'm with the boys

 G1
e|----7-----------8-------------3-------------------|
B|------7------------8-------------3----------------|
G|--------8-------------9-------------4-------------|
D|--------------------------------------------------|
A|--------------------------------------------------|
E|-7-------------------------3----------------------|
 |G2				   		    |
e|--------------------------------------------------| 
B|--------------------------------------------------|
G|--------------------------------------------------|
D|-9--9--9--9-----10-10-10\--5--5--5--5-----5--4--2-|
A|-9--9--9--9-----10-10-10\--5--5--5--5-----5--4--2-|
E|-7--7--7--7-----8--8--8-\--3--3--3--3-----3--2--0-|
 |G3 						    |
e|--------------------------------------------------|
B|-4--4--4--4--5--5--5--5----3--3--3--3--2b---------|
G|--------------------------------------------------|
D|--------------------------------------------------|
A|--------------------------------------------------|
E|--------------------------------------------------|
   We do what we want, yes we do what we want

G2
e|------------------------------------------------|
B|------------------------------------------------|
G|------------------------------------------------|
D|-2-2-2-2-2-2-2-2-2-2-2-2-2-2-2-2-2-2-2-2-2-2-2--|
A|-2-2-2-2-2-2-2-2-2-2-2-2-2-2-2-2-2-2-2-2-2-2-2--|
E|-0-0-0-0-0-0-0-0-0-0-0-0-0-0-0-0-0-0-0-0-0-0-0--|
 |G4					          |
e|------------------------------------------------|
B|------------------------------------------------|
G|------------------------------------------------|
D|----2--------2--------2-----2--------2--------2-|
A|-------2--------2--------------2--------2-------|
E|-0--------0--------0-----0--------0--------0----|
        Go!       Summer days can lead to the 

G2
e|------------------------------------------------|
B|------------------------------------------------|
G|------------------------------------------------|
D|-5-5-5-5-5-5-5-5-5-5-5-5-5-5-5-5-5-5-8--x-4-----|
A|-5-5-5-5-5-5-5-5-5-5-5-5-5-5-5-5-5-5-8--x-4-----|
E|-3-3-3-3-3-3-3-3-3-3-3-3-3-3-3-3-3-3-6--x-2-----|
 |G4				                  |
e|------------------------------------------------|
B|------------------------------------------------|
G|------------------------------------------------|
D|----5--------5--5b----5-----5-------------------|
A|-------5--------5b-------------5----------------|
E|-3--------3--------3-----3--------3-------------|
   bad times      The world gets larger everyday

G2
e|------------------------------------------------|
B|------------------------------------------------|
G|------------------------------------------------|
D|-2-2-2-2-2-2-2-2-2-2-2-2-2-2-2-2-2-2-2-2-2-2-2--|
A|-2-2-2-2-2-2-2-2-2-2-2-2-2-2-2-2-2-2-2-2-2-2-2--|
E|-0-0-0-0-0-0-0-0-0-0-0-0-0-0-0-0-0-0-0-0-0-0-0--|
 |G4						  |
e|------------------------------------------------|
B|------------------------------------------------|
G|------------------------------------------------|
D|----2--------2--------2-----2--------2--------2-|
A|-------2--------2--------------2--------2-------|
E|-0--------0--------0-----0--------0--------0----|
Yeah, yeah, the summer days can lead to the

G2
e|------------------------------------------------|
B|------------------------------------------------|
G|------------------------------------------------|
D|-5-5-5-5-5-5-5-5-5-5-5--7--------------------7/-|
A|-5-5-5-5-5-5-5-5-5-5-5--7--------------------7/-|
E|-3-3-3-3-3-3-3-3-3-3-3--5--------------------5/-|
 |G4					          |
e|------------------------------------------------|
B|------------------------------------------------|
G|------------------------------------------------|
D|----5--------5--------5--7----------------------|
A|-------5--------5-------------------------------|
E|-3--------3--------3----------------------------|
    bad blood             it leaves me feeling stupid, happy, and numb

  G1      
e|----------------------------------------------------|
B|-7--7--9--10--x-----11-x---7--7--9--10--x-----11-x--|
G|-8--8--8--8---x--9--9--x---8--8--8--8---x--9--9--x--|
D|-7--7--7--7---x--8--8--x---7--7--7--7---x--8--8--x--|
A|-9--9--9--9---x--10-10-x---9--9--9--9---x--10-10-x--|
E|-7--7--7--7---x--8--8--x---7--7--7--7---x--8--8--x--|
 |G2                                                  |
e|----------------------------------------------------|
B|----------------------------------------------------|
G|----------------------------------------------------|
D|-9--9--9--9------10-10-10--9--9--9--9------10-10-10-|
A|-9--9--9--9------10-10-10--9--9--9--9------10-10-10-|
E|-7--7--7--7------8--8--8---7--7--7--7------8--8--8--|
                    Ohhh............ Stupid Happy and Numb"
  G1         
e|----------------------------------------------------|
B|-7--7--9--10--x-----11-x---7------------------------|
G|-8--8--8--8---x--9--9--x---8------------------------|
D|-7--7--7--7---x--8--8--x---9------------------------|
A|-9--9--9--9---x--10-10-x---9------------------------|
E|-7--7--7--7---x--8--8--x---7------------------------|
 |G2                                                  |
e|----------------------------------------------------|
B|----------------------------------------------------|
G|----------------------------------------------------|
D|-9--9--9--9------10-10-10--9------------------------|
A|-9--9--9--9------10-10-10--9------------------------|
E|-7--7--7--7------8--8--8---7------------------------|
                             I feel so stupid, happy and numb
  G1      
e|----------------------------------------------------|
B|-7--7--9--10--x-----11-x---7--7--9--10--x-----11-x--|
G|-8--8--8--8---x--9--9--x---8--8--8--8---x--9--9--x--|
D|-7--7--7--7---x--8--8--x---7--7--7--7---x--8--8--x--|
A|-9--9--9--9---x--10-10-x---9--9--9--9---x--10-10-x--|
E|-7--7--7--7---x--8--8--x---7--7--7--7---x--8--8--x--|
 |G2                                                  |
e|----------------------------------------------------|
B|----------------------------------------------------|
G|----------------------------------------------------|
D|-9--9--9--9------10-10-10--9--9--9--9------10-10-10-|
A|-9--9--9--9------10-10-10--9--9--9--9------10-10-10-|
E|-7--7--7--7------8--8--8---7--7--7--7------8--8--8--|
                    mmmm............ Stupid Happy and Numb"
  G1         
e|----------------------------------------------------|
B|-7--7--9--10--x-----11-x---7------------------------|
G|-8--8--8--8---x--9--9--x---8------------------------|
D|-7--7--7--7---x--8--8--x---9------------------------|
A|-9--9--9--9---x--10-10-x---9------------------------|
E|-7--7--7--7---x--8--8--x---7------------------------|
 |G2                                                  |
e|----------------------------------------------------|
B|----------------------------------------------------|
G|----------------------------------------------------|
D|-9--9--9--9------10-10-10--9------------------------|
A|-9--9--9--9------10-10-10--9------------------------|
E|-7--7--7--7------8--8--8---7------------------------|
   
 G1								    
e|------------------------------------------------| x2
B|-4--4--4--4--5--5--5--5--3--3--3--3--2--2--2--2-|
G|------------------------------------------------|
D|------------------------------------------------|
A|------------------------------------------------|
E|------------------------------------------------|
   I feel so stupid
   I feel so stupid

 G1								    
e|------------------------------------------------| x2
B|-4--4--4--4--5--5--5--5--3--3--3--3--2--2--2--2-|
G|------------------------------------------------|
D|------------------------------------------------|
A|------------------------------------------------|
E|------------------------------------------------|
 |G3					          |
e|------------------------------------------------| 
B|-4--4--4--4--5--5--5--5--3--3--3--3--2--2--2--2-|
G|------------------------------------------------|
D|------------------------------------------------|
A|------------------------------------------------|
E|------------------------------------------------|
  I feel just like a local god when I'm with the boys
   We do what we want, we do what we want 

 G1								    
e|------------------------------------------------| x4
B|-4--4--4--4--5--5--5--5--3--3--3--3--2--2--2--2-|
G|------------------------------------------------|
D|------------------------------------------------|
A|------------------------------------------------|
E|------------------------------------------------|
 |G2				                  |
e|------------------------------------------------| 
B|------------------------------------------------|
G|------------------------------------------------|
D|-9--9--9--9-----10-10-10-5--5--5--5-----4--4--4-|
A|-9--9--9--9-----10-10-10-5--5--5--5-----4--4--4-|
E|-7--7--7--7-----8--8--8--3--3--3--3-----2--2--2-|
  I feel just like a local god when I'm with the boys
   We do what we want, we do what we want 
   We do what we want, we do what we want 
   We do what we want, we do what we want 

 G1
e|----7-----------8------------3-----------2-------| x3
B|------7------------8------------3-----------2----|
G|--------8-------------9-----------4------------3-|
D|-------------------------------------------------|
A|-------------------------------------------------|
E|-7------------------------3----------------------|
 |G2				  		   |
e|-------------------------------------------------| 
B|-------------------------------------------------|
G|-------------------------------------------------|
D|-9--9--9--9-----10-10-10--5--5--5--5-----4--4--4-|
A|-9--9--9--9-----10-10-10--5--5--5--5-----4--4--4-|
E|-7--7--7--7-----8--8--8---3--3--3--3-----2--2--2-|
   We do what we want, we do what we want 
   We do what we want, we do what we want 
   We do what we want, we do what we want 

 G1
e|----7-----------8------------3-------------------| 
B|------7------------8------------3----------------|
G|--------8-------------9-----------4--------------|
D|-------------------------------------------------|
A|-------------------------------------------------|
E|-7------------------------3----------------------|
 |G2				  		   |
e|-------------------------------------------------| 
B|-------------------------------------------------|
G|-------------------------------------------------|
D|-9--9--9--9-----10-10-10--5--5--5--5-----4--4--4-|
A|-9--9--9--9-----10-10-10--5--5--5--5-----4--4--4-|
E|-7--7--7--7-----8--8--8---3--3--3--3-----2--2--2-|
 |G3					           |
e|-------------------------------------------------|
B|----------------------------------------------7\-|
G|-------------------------------------------------|
D|-------------------------------------------------|
A|-------------------------------------------------|
E|-------------------------------------------------|
   We do what we want, Yeah, we do what we want!

 G1 
e|------------------------------------------------------| 
B|-7--7--9--10--x--9--10-x-----7--7--9--10--x--9--10-x--|
G|-8--8--8--8---x--8--8--x-----8--8--8--8---x--8--8--x--|
D|-7--7--7--7---x--7--7--x-----7--7--7--7---x--7--7--x--|
A|-9--9--9--9---x--9--9--x-----9--9--9--9---x--9--9--x--|
E|-7--7--7--7---x--7--7--x-----7--7--7--7---x--7--7--x--|
 |G2                                                    |
e|------------------------------------------------------|
B|------------------------------------------------------|
G|------------------------------------------------------|
D|-9--9--9--9------9--9--9-----9--9--9--9------9--9--9--|
A|-9--9--9--9------9--9--9-----9--9--9--9------9--9--9--|
E|-7--7--7--7------7--7--7-----7--7--7--7------7--7--7--|
 |G3					                |
e|------------------------------------------------------|
B|---------------------------------------------7\-------|
G|------------------------------------------------------|
D|------------------------------------------------------|
A|------------------------------------------------------|
E|------------------------------------------------------|
                                Yeah, We do what we want 

 G1 
e|------------------------------------------------------| x3
B|-7--7--9--10--x--9--10-x-----7--7--9--10--x--9--10-x--|
G|-8--8--8--8---x--8--8--x-----8--8--8--8---x--8--8--x--|
D|-7--7--7--7---x--7--7--x-----7--7--7--7---x--7--7--x--|
A|-9--9--9--9---x--9--9--x-----9--9--9--9---x--9--9--x--|
E|-7--7--7--7---x--7--7--x-----7--7--7--7---x--7--7--x--|
 |G2                                                    |
e|------------------------------------------------------|
B|------------------------------------------------------|
G|------------------------------------------------------|
D|-9--9--9--9------9--9--9-----9--9--9--9------9--9--9--|
A|-9--9--9--9------9--9--9-----9--9--9--9------9--9--9--|
E|-7--7--7--7------7--7--7-----7--7--7--7------7--7--7--|
                                Yeah, We do what we want 
				Yeah, We do what we want
				We do what we want

  G2
e|--------|
B|--------|
G|--------|
D|--9\----|
A|--9\----|
E|--7\----|	
1 comment total.
+1 reply
awesomeperson1 wrote on April 13 2010, 08:01 pm

this song is epic. i love romeo and juliet and this song and talk show host by radiohead really add to the movie. i just had to learn them, thanz amiliion
!

I want to post or [tab]
guest
You may want to rate the tab now too:
select rating
Please do not post tabs as comments. Select "correction" instead!