Oops, an error
Loading. Please wait.

Slow Motion Daydream Tab

641 views 1 this week
no commentswrite comment
1 2 3 4 5
please rate
add to favorites launch autoscroll
font size
0
reset
Autoscroll
+/-
esc
set tempo
stop
WARNING: You are trying to view
                                    content from Ultimate-Guitar.com
                                    in an unauthorized application,
                                    which is prohibited.

                                    Please use an official Ultimate
                                    Guitar Tabs application for iPhone,
                                    iPad or Android to access legitimate
                                    chords, guitar, bass, and drum tabs
                                    from Ultimate-Guitar.com database.

                                    Type "ultimate guitar tabs" in Apple
                                    App Store's or Android Market's
                                    search to find the application.
Slow Motion Daydream
All Lyrics By Art Alexakis
All Music By Everclear
All Tabbed By JR (soggypeaches@yahoo.com)

1) How To Win Friends And Influence People
2) Blackjack
3) I Want To Die A Beautiful Death
4) Volvo Driving Soccer Mom
5) Science Fiction
6) New Blue Champion
7) TV Show
8) Chrysanthemum
9) Sunshine (That Acid Summmer)
10) A Beautiful Life
11) The New York Times
12) White Noise

--------------------------------------------------------------------------------
HOW TO WIN FRIENDS AND INFLUENCE PEOPLE

e---------------------
b---------------------
g---------------------
d-11-11-11-11-11-11-11
a--------------------- Play This 4 Times
e-9--9--9--9--9--9--9-
                      Its A Beautiful 

e----------------------7--9
b--------------------------
g-10-10-10-10-10-10-10-----
d-11-11-11-11-11-11-11-----
a-11-11-11-11-11-11-11-----
e-9--9--9--9--9--9--9------
  Day!  Yeah 
  If You Look Up In The Air
  You Can See The Sky
  Its A Beautiful Day
  Yeah 
  If You Stare At The Sun, 
  You Would Burn Your Eyes

e-6~-------------7~
b-6~-------------7~
g-7~-------------8~
d-8~-------------9~
a-8~-------------9~
e-6~-------------7~
  I Do Not Believe In The Lucky Numbers



e-6~-------------7~
b-6~-------------7~
g-7~-------------8~
d-8~-------------9~
a-8~-------------9~
e-6~-------------7~
  No I do not believe in the wishing on the stars

e----------------------7--9----------------------7--9
b----------------------------------------------------
g----------------------------------------------------
d-11-11-11-11-11-11-11------11-11-11-11-11-11-11-----
a----------------------------------------------------
e-9--9--9--9--9--9--9-------9--9--9--9--9--9--9------
                                                    Yeah To Tell You The Truth

e-6~-------------7~
b-6~-------------7~
g-7~-------------8~
d-8~-------------9~
a-8~-------------9~
e-6~-------------7~
 I Know There Is A Good Reason For All Of Your Bad Dreams



e----------------------7--9----------------------7--9
b----------------------------------------------------
g----------------------------------------------------
d-11-11-11-11-11-11-11------11-11-11-11-11-11-11-----
a----------------------------------------------------
e-9--9--9--9--9--9--9-------9--9--9--9--9--9--9------
                            You Know Thats Its True

e-6~-------------7~
b-6~-------------7~
g-7~-------------8~
d-8~-------------9~
a-8~-------------9~
e-6~-------------7~
 People Love To Tell You Things That Will Break Your

e----------------------7--9----------------------7--9
b----------------------------------------------------
g----------------------------------------------------
d-11-11-11-11-11-11-11------11-11-11-11-11-11-11-----
a----------------------------------------------------
e-9--9--9--9--9--9--9-------9--9--9--9--9--9--9------
 Heart              
 Yeah People Love To Break Your Heart
 AWWWW 

 
e----------------------7--9
b--------------------------
g-10-10-10-10-10-10-10-----
d-11-11-11-11-11-11-11-----
a-11-11-11-11-11-11-11-----
e-9--9--9--9--9--9--9------
 People Love To Break Your Heart
 
e-6~-------------7~
b-6~-------------7~
g-7~-------------8~
d-8~-------------9~
a-8~-------------9~
e-6~-------------7~
 I do not believe in the things that i can not see

e----------------------7--9----------------------7--9
b----------------------------------------------------
g----------------------------------------------------
d-11-11-11-11-11-11-11------11-11-11-11-11-11-11-----
a----------------------------------------------------
e-9--9--9--9--9--9--9-------9--9--9--9--9--9--9------

 
e-6~-------------7~
b-6~-------------7~
g-7~-------------8~
d-8~-------------9~
a-8~-------------9~
e-6~-------------7~
 No i do not believe in the pretty disguise

e----------------------7--9----------------------7--9
b----------------------------------------------------
g----------------------------------------------------
d-11-11-11-11-11-11-11------11-11-11-11-11-11-11-----
a----------------------------------------------------
e-9--9--9--9--9--9--9-------9--9--9--9--9--9--9------
                                                     Yeah To Tell You The Truth

e-6~-------------7~
b-6~-------------7~
g-7~-------------8~
d-8~-------------9~
a-8~-------------9~
e-6~-------------7~
 I No They Want Me To Believe That They Know Whats 

e----------------------7--9----------------------7--9
b----------------------------------------------------
g----------------------------------------------------
d-11-11-11-11-11-11-11------11-11-11-11-11-11-11-----
a----------------------------------------------------
e-9--9--9--9--9--9--9-------9--9--9--9--9--9--9------
 Best For me                                     You Know Thats Its True

e-6~-------------7~
b-6~-------------7~
g-7~-------------8~
d-8~-------------9~
a-8~-------------9~
e-6~-------------7~
 Cause People Love To Hurt YOu When You Close Your 

e----------------------7--9----------------------7--9
b----------------------------------------------------
g----------------------------------------------------
d-11-11-11-11-11-11-11------11-11-11-11-11-11-11-----
a----------------------------------------------------
e-9--9--9--9--9--9--9-------9--9--9--9--9--9--9------
 Eyes 
 Yeah People Love Hurt You When You Close Your Eyes
 (You will never see it coming)



e----------------------7--9
b--------------------------
g-10-10-10-10-10-10-10-----
d-11-11-11-11-11-11-11-----
a-11-11-11-11-11-11-11-----
e-9--9--9--9--9--9--9------
 Yeah 
 You Will Never See It Coming
 Yeah 

(No Music) 
 Its A Beautiful 




e----------------------------------------
b----------------------------------------
g-10-10-10-10-10-10--6-6--6-6-5-5-5-5-3-3
d-11-11-11-11-11-11--7-7--7-7-6-6-6-6-4-4
a-11-11-11-11-11-11--7-7--7-7-6-6-6-6-4-4
e-9--9--9--9--9-9-9--5-5--5-5-4-4-4-4-2-2

Day ee-yeah-ee-yeah
Its A Beautiful Day 
ee-yeah-ee-yeah
Its A Beautiful Day
ee-yeah-ee-yeah
Its A Beautiful Day
ee-yeah-ee-yeah

(No Music)
Its A Beautiful 

e----------------------------------------
b----------------------------------------
g----------------------------------------
d-11-11-11-11-11-11--7-7--7-7-6-6-6-6-4-4
a----------------------------------------
e-9--9--9--9--9-9-9--5-5--5-5-4-4-4-4-2-2
 Day
 Look Up The Sky Is Coming Down 
 Such A Beautiful Day
 Look Up The Sky Is Comnig Down
 Its A Beautiful Day ee-yeah
 Look Up The Sky Is Coming Down 
 Its A Beautiful Day ee-yeah
 Look Up The Sky Is Coming Down 
 
(No Music)
Its  Beautiful 

e----------------------------------------
b----------------------------------------
g-10-10-10-10-10-10--6-6--6-6-5-5-5-5-3-3
d-11-11-11-11-11-11--7-7--7-7-6-6-6-6-4-4
a-11-11-11-11-11-11--7-7--7-7-6-6-6-6-4-4
e-9--9--9--9--9-9-9--5-5--5-5-4-4-4-4-2-2

Day ee-yeah-ee-yeah
Its A Beautiful Day 
ee-yeah-ee-yeah
Its A Beautiful Day
ee-yeah-ee-yeah
Its A Beautiful Day
ee-yeah-ee-yeah
LOOK UP IN THE AIR 
YOU WILL NEVER SEE IT COMNIG

e----------------------7--9
b--------------------------
g-10-10-10-10-10-10-10-----
d-11-11-11-11-11-11-11-----
a-11-11-11-11-11-11-11-----
e-9--9--9--9--9--9--9------
 OH 
 You Will Never See It Coming
 OH     
--------------------------------------------------------------------------------
BLACKJACK

Intro
e----------------------------------
b----------------------------------
g----------------------------------
d-6-6-6\4-4/6-6-6\4-4/6-6-6\4-4/6-6 Repeat
a-6-6-6\4-4/6-6-6\4-4/6-6-6\4-4/6-6
e-4-4-4\2-2/4-4-4\2-2/4-4-4\2-2/4-4 
                                    Ugh!

VERSE

e------------
b------------
g------------
d-6-6-6-6-6-X
a-6-6-6-6-6-X
e-4-4-4-4-4-X

Scary John Gets His Strong Arm On
He Can Make Me And Break Me 
Happy With His Blackjack

Scary John Gets His Heavy Hand On 
He smiles without his Eyes 
Nice And Easy With His Blackjack

Prechorus

e-----------------------------------------
b-----------------------------------------
g-9-9-9-9---------11-11-11-11-11-11-11-11-
d-9-9-9-9-9-9-9-9-11-11-11-11-11-11-11-11-
a-7-7-7-7-9-9-9-9-9--9--9--9--9--9--9--9--
e---------7-7-7-7-------------------------

Dont Tell Me That You Didnt See This Coming Down 

e------------------------------------------------------------------------
b------------------------------------------------------------------------
g------------------------------------------------------------------------
d-6-6-6\4-4/6-6-6\4-4/6-6-6\4-4/6-6-X-6-6-6\4-4/6-6-6\4-4/6-6-6\4-4/6-6-X
a-6-6-6\4-4/6-6-6\4-4/6-6-6\4-4/6-6-X-6-6-6\4-4/6-6-6\4-4/6-6-6\4-4/6-6-X
e-4-4-4\2-2/4-4-4\2-2/4-4-4\2-2/4-4-X-4-4-4\2-2/4-4-4\2-2/4-4-4\2-2/4-4-X 

e-----------------------------------------
b-----------------------------------------
g-9-9-9-9---------11-11-11-11-11-11-11-11-
d-9-9-9-9-9-9-9-9-11-11-11-11-11-11-11-11-
a-7-7-7-7-9-9-9-9-9--9--9--9--9--9--9--9--
e---------7-7-7-7-------------------------
 
Please Dont Say That This Isnt What You Wanted Now

e------------------------------------------------------------------------
b------------------------------------------------------------------------
g------------------------------------------------------------------------
d-6-6-6\4-4/6-6-6\4-4/6-6-6\4-4/6-6-X-6-6-6\4-4/6-6-6\4-4/6-6-6\4-4/6-6-X
a-6-6-6\4-4/6-6-6\4-4/6-6-6\4-4/6-6-X-6-6-6\4-4/6-6-6\4-4/6-6-6\4-4/6-6-X
e-4-4-4\2-2/4-4-4\2-2/4-4-4\2-2/4-4-X-4-4-4\2-2/4-4-4\2-2/4-4-4\2-2/4-4-X 

Verse 2


e------------
b------------
g------------
d-6-6-6-6-6-X
a-6-6-6-6-6-X
e-4-4-4-4-4-X

Scary Johnny Gets His Strong Arm On 
He can Make Me And Brake Me 
Happy with his Blackjack

Scary John Always Knows Whats Going On 
He is everywhere 
Happy With His Black Jack 


Prechorus

e-----------------------------------------
b-----------------------------------------
g-9-9-9-9---------11-11-11-11-11-11-11-11-
d-9-9-9-9-9-9-9-9-11-11-11-11-11-11-11-11-
a-7-7-7-7-9-9-9-9-9--9--9--9--9--9--9--9--
e---------7-7-7-7-------------------------

Dont Tell Me That You Didnt See This Coming Down 

e------------------------------------------------------------------------
b------------------------------------------------------------------------
g------------------------------------------------------------------------
d-6-6-6\4-4/6-6-6\4-4/6-6-6\4-4/6-6-X-6-6-6\4-4/6-6-6\4-4/6-6-6\4-4/6-6-X
a-6-6-6\4-4/6-6-6\4-4/6-6-6\4-4/6-6-X-6-6-6\4-4/6-6-6\4-4/6-6-6\4-4/6-6-X
e-4-4-4\2-2/4-4-4\2-2/4-4-4\2-2/4-4-X-4-4-4\2-2/4-4-4\2-2/4-4-4\2-2/4-4-X 

                                                           No No No
e-----------------------------------------
b-----------------------------------------
g-9-9-9-9---------11-11-11-11-11-11-11-11-
d-9-9-9-9-9-9-9-9-11-11-11-11-11-11-11-11-
a-7-7-7-7-9-9-9-9-9--9--9--9--9--9--9--9--
e---------7-7-7-7-------------------------
 
Please Dont Say That This Isnt What You Wanted Now

e------------------------------------------------------------------------
b------------------------------------------------------------------------
g------------------------------------------------------------------------
d-6-6-6\4-4/6-6-6\4-4/6-6-6\4-4/6-6-X-6-6-6\4-4/6-6-6\4-4/6-6-6\4-4/6-6-X
a-6-6-6\4-4/6-6-6\4-4/6-6-6\4-4/6-6-X-6-6-6\4-4/6-6-6\4-4/6-6-6\4-4/6-6-X
e-4-4-4\2-2/4-4-4\2-2/4-4-4\2-2/4-4-X-4-4-4\2-2/4-4-4\2-2/4-4-4\2-2/4-4-X 

Chorus

e---------------------------------------------------------
b---------------------------------------------------------
g-------------------------9-9-9-9-9-9-9-9-----------------
d-11-11-11-11-11-11-11-11-9-9-9-9-9-9-9-9--9-9-9-9-9-9-9-9
a-11-11-11-11-11-11-11-11-7-7-7-7-7-7-7-7--9-9-9-9-9-9-9-9
e-9--9--9--9--9--9--9--9-------------------7-7-7-7-7-7-7-7

 Yeah this is your American Dream
 Everything Is Simple With The White And The Black 
 You never have to see the gray anymore
 You will never have to be afraid
 When you are happy with the Blackjack

e--------------------------------------------------------------------
b--------------------------------------------------------------------
g--------------------------------------------------------------------
d-6-6-6\4-4/6-6-6\4-4/6-6-6\4-4/6-6-X-6-6-6\4-4/6-6-6\4-4/6-6-6\4-4-5
a-6-6-6\4-4/6-6-6\4-4/6-6-6\4-4/6-6-X-6-6-6\4-4/6-6-6\4-4/6-6-6\4-4-5
e-4-4-4\2-2/4-4-4\2-2/4-4-4\2-2/4-4-X-4-4-4\2-2/4-4-4\2-2/4-4-4\2-2-3

 When You Are Happy With The Black Jack 
 I Hope you're happy with the Black Jack

Middle Part: (bass arranged for guitar)

e----------
b----------
g----------
d-6-6-6-6-6
a-6-6-6-6-6
e-4-4-4-4-4
 
 Scary John wants To Kill My Song
 He doesn't like the fact 
 I'm not happy with the black jack 
 
 I dont Want to hear the words that he has to say e-yeah-e-yeah-e-yeah-e-yeah


e-----------------------------------------
b-----------------------------------------
g-9-9-9-9---------11-11-11-11-11-11-11-11-
d-9-9-9-9-9-9-9-9-11-11-11-11-11-11-11-11-
a-7-7-7-7-9-9-9-9-9--9--9--9--9--9--9--9--
e---------7-7-7-7-------------------------

Dont Tell Me That You Didnt See This Coming Down 

e------------------------------------------------------------------------
b------------------------------------------------------------------------
g------------------------------------------------------------------------
d-6-6-6\4-4/6-6-6\4-4/6-6-6\4-4/6-6-X-6-6-6\4-4/6-6-6\4-4/6-6-6\4-4/6-6-X
a-6-6-6\4-4/6-6-6\4-4/6-6-6\4-4/6-6-X-6-6-6\4-4/6-6-6\4-4/6-6-6\4-4/6-6-X
e-4-4-4\2-2/4-4-4\2-2/4-4-4\2-2/4-4-X-4-4-4\2-2/4-4-4\2-2/4-4-4\2-2/4-4-X 


e-----------------------------------------
b-----------------------------------------
g-9-9-9-9---------11-11-11-11-11-11-11-11-
d-9-9-9-9-9-9-9-9-11-11-11-11-11-11-11-11-
a-7-7-7-7-9-9-9-9-9--9--9--9--9--9--9--9--
e---------7-7-7-7-------------------------

Please Don't Tell me that this isnt what you wanted now

e------------------------------------------------------------------------
b------------------------------------------------------------------------
g------------------------------------------------------------------------
d-6-6-6\4-4/6-6-6\4-4/6-6-6\4-4/6-6-X-6-6-6\4-4/6-6-6\4-4/6-6-6\4-4/6-6-X
a-6-6-6\4-4/6-6-6\4-4/6-6-6\4-4/6-6-X-6-6-6\4-4/6-6-6\4-4/6-6-6\4-4/6-6-X
e-4-4-4\2-2/4-4-4\2-2/4-4-4\2-2/4-4-X-4-4-4\2-2/4-4-4\2-2/4-4-4\2-2/4-4-X 


e-----------------------------------------
b-----------------------------------------
g-9-9-9-9---------11-11-11-11-11-11-11-11-
d-9-9-9-9-9-9-9-9-11-11-11-11-11-11-11-11-
a-7-7-7-7-9-9-9-9-9--9--9--9--9--9--9--9--
e---------7-7-7-7-------------------------

 Please Dont Tell Me That This Isnt What You Asked For 


e---------------------------------------------------------
b---------------------------------------------------------
g-------------------------9-9-9-9-9-9-9-9-----------------
d-11-11-11-11-11-11-11-11-9-9-9-9-9-9-9-9--9-9-9-9-9-9-9-9
a-11-11-11-11-11-11-11-11-7-7-7-7-7-7-7-7--9-9-9-9-9-9-9-9
e-9--9--9--9--9--9--9--9-------------------7-7-7-7-7-7-7-7
  
  Be Careful What You Ask For 
  Be Careful What You Ask For
  Be Careful What You Ask For
  Yeah This Is Your American Dream 
  Oh Everything is simple with the white and the black 
  You never have to see the gray anymore 
  You will never have to be afraid
  When You Are Happy With The Blackjack 


e--------------------------------------------------------------------
b--------------------------------------------------------------------
g--------------------------------------------------------------------
d-6-6-6\4-4/6-6-6\4-4/6-6-6\4-4/6-6-X-6-6-6\4-4/6-6-6\4-4/6-6-6\4-4-5
a-6-6-6\4-4/6-6-6\4-4/6-6-6\4-4/6-6-X-6-6-6\4-4/6-6-6\4-4/6-6-6\4-4-5
e-4-4-4\2-2/4-4-4\2-2/4-4-4\2-2/4-4-X-4-4-4\2-2/4-4-4\2-2/4-4-4\2-2-3

When You Are Happy With The Blackjack
I Hope You're Happy With the Blackjack
When You Are Happy With The Blackjack
I Hope You're Happy With the Blackjack

Outro

e-----------------
b-----------------
g-----------------
d-4-4--4-4--4-4-5-
a-4-4--4-4--4-4-5-
e-2-2--2-2--2-2-3-
     UGH
     Yeah This Is Your American Dream
     This IS Your American Dream 
     This Is Your America Dream

e----
b----
g----
d-4-4
a-4-4
e-2-2

 This Is Your American Dream    
--------------------------------------------------------------------------------
I WANT TO DIE A BEAUTIFUL DEATH

The Spacy Intro:
e---
b---
g---
d---
a---
e-11\


Guitar 1
e-------------------------------
b-------------------------------
g-------------------------------
d-4-4-4-4-4-4-4-4-4-4-4-4-4-4-4-
a-4-4-4-4-4-4-4-4-4-4-4-4-4-4-4-
e-2-2-2-2-2-2-2-2-2-2-2-2-2-2-2-
pm.............................
 Everybody Here In This Small Town 
 Looks Used And Abused In Pain 
 Everyone here's lookin outside in
 Seems like nothing ever changes

Guitar 1
e-------------------------------
b-------------------------------
g-------------------------------
d-4-4-4-4-4-4-4-4-4-4-4-4-4-4-4-
a-4-4-4-4-4-4-4-4-4-4-4-4-4-4-4-
e-2-2-2-2-2-2-2-2-2-2-2-2-2-2-2-
pm.............................

Guitar 2
e----
b-8--
g---8
d----
a----
e----
 Everybody They Just wanna have a good time
 Everybody They just wanna forget
 Everybody Wants To Feel Like They Did 
 When The Sky Looked Good And The World Was Perfect 

Both Guitars
e--------------------
b--------------------
g-4~---------------6~
d-4~---------------6~
a-2~---------------4~
e--------------------
 I dont care I Just Wanna Die Pretty      


e--------------------------------
b--------------------------------
g-8-8-8-8------------------------
d-8-8-8-8-4-4-4-4-6-6-6-6-4-4-4-4
a-6-6-6-6-4-4-4-4-6-6-6-6-4-4-4-4
e---------2-2-2-2-4-4-4-4-2-2-2-2
 I just wanna get lost in the motion
 I just wanna get lost in my beautiful self
 I just wanna get lost in the city 

e--------------------
b--------------------
g--------------------
d-9-9-9-9-9-9-9-9-11-
a-9-9-9-9-9-9-9-9-11-
e-7-7-7-7-7-7-7-7-9--
 I Dont Wanna Live Forever 
 I Want To Die A Beautiful Death

e--------------------
b--------------------
g--------------------
d-4-4-4-4-4-4-4-4-4-4
a-4-4-4-4-4-4-4-4-4-4
e-2-2-2-2-2-2-2-2-2-2
pm...................

Guitar 1
e--------------------
b--------------------
g--------------------
d-4-4-4-4-4-4-4-4-4-4
a-4-4-4-4-4-4-4-4-4-4
e-2-2-2-2-2-2-2-2-2-2
pm...................

Guitar 2
e----
b-8--
g---8
d----
a----
e----

 Yeah I've Gotta Get The Hell Out Of This Town 
 Everybodies Looking Upside Down 
 Everyone here's just lookin for the same pain
 It really seems like nothing ever changes

 Everybody They just wanna find a slow ride
 Everybody They just wanna get by
 Everyone Wants To Feel Like The Did When The Sky Looked High
 And The World Was Simple

 Both Guitars
e--------------------
b--------------------
g-4~---------------6~
d-4~---------------6~
a-2~---------------4~
e--------------------
 I dont care I Just Wanna Die Pretty      



e--------------------------------
b--------------------------------
g-8-8-8-8------------------------
d-8-8-8-8-4-4-4-4-6-6-6-6-4-4-4-4
a-6-6-6-6-4-4-4-4-6-6-6-6-4-4-4-4
e---------2-2-2-2-4-4-4-4-2-2-2-2
 I just wanna get lost in the motion
 I just wanna get lost in my beautiful self
 I just wanna get lost in the city 



e--------------------
b--------------------
g--------------------
d-9-9-9-9-9-9-9-9-11-
a-9-9-9-9-9-9-9-9-11-
e-7-7-7-7-7-7-7-7-9--
 I Dont Wanna Live Forever 
 I Want To Die A Beautiful Death

Guitar 1
e-------------------------
b-------------------------
g-8-8---------------------
d-8-8----4-4-----6-6---4-4
a-6-6----4-4-----6-6---4-4
e--------2-2-----4-4---2-2

Guitar 2

e----------------------------
b-----16\-----10\----7\----4\
g----------------------------
d----------------------------
a----------------------------
e----------------------------
 I Just Wanna Die A Beautiful Death
 I Just Wanna Die A Beautiful Death
 I Just Wanna Die A Beautiful 

Both Guitars
e--------------------
b--------------------
g--------------------
d-9-9-9-9-9-9-9-9-11-
a-9-9-9-9-9-9-9-9-11-
e-7-7-7-7-7-7-7-7-9-- 
 Death 

(No Music) 
I Just Wanna Die Pretty

e---
b---
g---
d-9~
a-9~
e-7~ 
 Oh Oh Oh Oh 
 I Just Wanna Die Pretty
 Oh Oh Oh Oh 
 I Just Wanna Die Pretty 
 I Just Wanna Die Pretty
 Sometimes I Just Wanna Die

(Feedback)
I Just Wanna Get Lost In The Moment
I Just wanna Get Lost Inside the city tonight
I Just wanna Get Lost Indise Myself
I dont care about nothing


Guitar 1
e------------
b------------
g-pick scrape\
d-pick scrape\
a-pick scrape\
e------------
 WOOOOOOOAAAAAAAAAAH

Both Guitars

e--------------------------------
b--------------------------------
g-8-8-8-8------------------------
d-8-8-8-8-4-4-4-4-6-6-6-6-4-4-4-4
a-6-6-6-6-4-4-4-4-6-6-6-6-4-4-4-4
e---------2-2-2-2-4-4-4-4-2-2-2-2
 I just wanna get lost in the motion
 I just wanna get lost in my beautiful self
 I just wanna get lost in the city 

e--------------------
b--------------------
g--------------------
d-9-9-9-9-9-9-9-9-11-
a-9-9-9-9-9-9-9-9-11-
e-7-7-7-7-7-7-7-7-9--
 I Dont Wanna Live Forever 
 I Want To Die A Beautiful Death

Guitar 1
e-------------------------
b-------------------------
g-8-8---------------------
d-8-8----4-4-----6-6---4-4
a-6-6----4-4-----6-6---4-4
e--------2-2-----4-4---2-2

Guitar 2


e----------------------------
b-----16\-----10\----7\----4\
g----------------------------
d----------------------------
a----------------------------
e----------------------------
 I Just Wanna Die A Beautiful Death
 I Just Wanna Die A Beautiful Death
 I Just Wanna Die A Beautiful 

Both Guitars
e--------------------
b--------------------
g--------------------
d-9-9-9-9-9-9-9-9-11-
a-9-9-9-9-9-9-9-9-11-
e-7-7-7-7-7-7-7-7-9-- 
 Death 

(No Music) 
I Just Wanna Die Pretty 
--------------------------------------------------------------------------------
VOLVO DRIVING SOCCER MOM

e-------
b-------
g-------
d-10-10-
a-10-10-
e-8--8-- 
  Na Na
  Na Na 
  Na Na
  Na Na

(No Music)
You KNow I Used To Be A 

e----------------------
b----------------------
g----------------------
d-10-10--7-7--5-5--3-3/
a-10-10--7-7--5-5--3-3/
e-8--8---5-5--3-3--1-1/
 Bad Girl 
 I Got Busy In The Bathroom In The High School Prom
 Yeah I Used To Be A Dancer At The Local Strip Club 
 But

e------------------------
b------------------------
g------------------------
d-2-2--2-2--3-3--3-3--5-5/
a-2-2--2-2--3-3--3-3--5-5/
e-0-0--0-0--1-1--1-1--3-3/
 Now I Know
 My Right Wing From My Wrong

e----------------------
b----------------------
g----------------------
d-10-10--7-7--5-5--3-3/
a-10-10--7-7--5-5--3-3/
e-8--8---5-5--3-3--1-1/
 Yeah ee-yeah 
 I really used to be a bad girl 
 I had a threesome with my sister and her boyfriend Tom
 You Know I Used TO Be A Real Wild Child 
 But 

e------------------------
b------------------------
g------------------------
d-2-2--2-2--3-3--3-3--5-5/
a-2-2--2-2--3-3--3-3--5-5/
e-0-0--0-0--1-1--1-1--3-3/ 
 Now, I am
 A Volvo Driving Soccer Mom


e---------------------
b---------------------
g---------------------
d-10-10--6-6--5-5--3-3
a-10-10--6-6--5-5--3-3
e-8--8---4-4--3-3--1-1
 Na na Na na
 Volvo Driving Soccer Mom
 Na na Na na
 Volvo Driving SOccer Mom
 Na na Na na 
 Na na Na na

e----------------------
b----------------------
g----------------------
d-10-10--7-7--5-5--3-3/
a-10-10--7-7--5-5--3-3/
e-8--8---5-5--3-3--1-1/
 You Know I used to be A Bad Girl 
 I Got Busted For A Posession of my Wizard Shaped Bong
 I used to love to do the things they'd tell me not to do 
 But Now, Im different
 Now I Sing A new Song

 I Really used to be a bad girl
 I got ganged-banged in the bathroom of my highschool prom
 Yes I used to be a real wild child 
 
e------------------------
b------------------------
g------------------------
d-2-2--2-2--3-3--3-3--5-5/
a-2-2--2-2--3-3--3-3--5-5/
e-0-0--0-0--1-1--1-1--3-3/ 
 But Now, I am 
 A Volvo Driving Soccer Mom

e---------------------
b---------------------
g---------------------
d-10-10--6-6--5-5--3-3
a-10-10--6-6--5-5--3-3
e-8--8---4-4--3-3--1-1
 Na na Na na
 Volvo Driving Soccer Mom
 Na na Na na
 Volvo Driving SOccer Mom
 Na na Na na 
 Na na Na na
 Volvo Driving SOccer Mom

Middle Riff
e-------------------------------------------------
b-------------------------------------------------
g-------------------------------------------------
d-10-10-10-10-10-10-10-10-10-10-10-10-10-10-10-10-
a-10-10-10-10-10-10-10-10-10-10-10-10-10-10-10-10-
e-8--8--8--8--8--8--8--8--8--8--8--8--8--8--8--8--
Middle Riff Cont.



e-------------------------------------------------
b-------------------------------------------------
g-10-10-10-10-10-10-10-10-10-10-10-10-10-10-10-10-
d-10-10-10-10-10-10-10-10-10-10-10-10-10-10-10-10-
a-8--8--8--8--8--8--8--8--8--8--8--8--8--8--8--8--
e-------------------------------------------------
Middle Riff Cont.
e--------------------------------
b--------------------------------
g-7-7-7-7-7-7-7-7-7-7-7-7-7-7-7-7
d-7-7-7-7-7-7-7-7-7-7-7-7-7-7-7-7
a-5-5-5-5-5-5-5-5-5-5-5-5-5-5-5-5
e--------------------------------
Middle Riff Cont.
e-------------------------------------------------
b-------------------------------------------------
g-10-10-10-10-10-10-10-10-10-10-10-10-10-10-10-10-
d-10-10-10-10-10-10-10-10-10-10-10-10-10-10-10-10-
a-8--8--8--8--8--8--8--8--8--8--8--8--8--8--8--8--
e-------------------------------------------------
 Where Do All The Porn Stars Go
 When The Lights Go Down 
 (i wonder where)
 I Wonder Where All The Porn Stars Go 
 Causse When You Need One They Are Never around

e-------
b-------
g-------
d-------
a-11-11-
e-9--9--

Middle Riff
e-------------------------------------------------
b-------------------------------------------------
g-------------------------------------------------
d-10-10-10-10-10-10-10-10-10-10-10-10-10-10-10-10-
a-10-10-10-10-10-10-10-10-10-10-10-10-10-10-10-10-
e-8--8--8--8--8--8--8--8--8--8--8--8--8--8--8--8--
Middle Riff Cont.
e-------------------------------------------------
b-------------------------------------------------
g-10-10-10-10-10-10-10-10-10-10-10-10-10-10-10-10-
d-10-10-10-10-10-10-10-10-10-10-10-10-10-10-10-10-
a-8--8--8--8--8--8--8--8--8--8--8--8--8--8--8--8--
e-------------------------------------------------
Middle Riff Cont.
e--------------------------------
b--------------------------------
g-7-7-7-7-7-7-7-7-7-7-7-7-7-7-7-7
d-7-7-7-7-7-7-7-7-7-7-7-7-7-7-7-7
a-5-5-5-5-5-5-5-5-5-5-5-5-5-5-5-5
e--------------------------------
Middle Riff Cont.
e-------------------------------------------------
b-------------------------------------------------
g-10-10-10-10-10-10-10-10-10-10-10-10-10-10-10-10-
d-10-10-10-10-10-10-10-10-10-10-10-10-10-10-10-10-
a-8--8--8--8--8--8--8--8--8--8--8--8--8--8--8--8--
e-------------------------------------------------
 Heard They Moved Out To The Suburbs
 And Now They Are Blonde Bland, Middle Class Republican Wives
 They Got Blonde Bland Middle class republican children
 Blonde Bland Middle Class Repubilcan Lives

e-------
b-------
g-------
d-------
a-11-11-
e-9--9--
 HUH

e-------------------------------------------------------------------------
b-------------------------------------------------------------------------
g---------------------10-10-X-X-10-10-X-X-7-7-X-X-7-7-X-X-10-10-X-X-10-10-
d-10-10-X-X-10-10-X-X-10-10-X-X-10-10-X-X-7-7-X-X-7-7-X-X-10-10-X-X-10-10-
a-10-10-X-X-10-10-X-X-8--8--X-X-8--8--X-X-5-5-X-X-5-5-X-X-8--8--X-X-8--8--
e-8--8--X-X-8--8--X-X-----------------------------------------------------
 Where Do All The Born Starts GO 
 When The Lights Go Down 
 
e-------
b-------
g-------
d-------
a-11-11-
e-9--9--
 Yeah 

e-------------------------------------------------------------------------
b-------------------------------------------------------------------------
g---------------------10-10-X-X-10-10-X-X-7-7-X-X-7-7-X-X-10-10-X-X-10-10-
d-10-10-X-X-10-10-X-X-10-10-X-X-10-10-X-X-7-7-X-X-7-7-X-X-10-10-X-X-10-10-
a-10-10-X-X-10-10-X-X-8--8--X-X-8--8--X-X-5-5-X-X-5-5-X-X-8--8--X-X-8--8--
e-8--8--X-X-8--8--X-X-----------------------------------------------------
 I Think I know Where All The Porn Stars Go
 They All Become
 VOLVO DRIVING SOCCER MOM

 
e-------
b-------
g-------
d-------
a-11-11-
e-9--9--

e---------------------
b---------------------
g---------------------
d-10-10--6-6--5-5--3-3
a-10-10--6-6--5-5--3-3
e-8--8---4-4--3-3--1-1
 Na na Na na
 Volvo Driving Soccer Mom
 Na na Na na
 Volvo Driving SOccer Mom
 Na na Na na 
 Na na Na na
 Volvo Driving SOccer Mom

e-------
b-------
g-------
d-10-10-
a-10-10-
e-8--8--
 Na na 
 na na 
 Volvo Driving Soccer Mom

e----
b----
g----
d-10-
a-10-
e-8--   
--------------------------------------------------------------------------------
SCIENCE FICTION

e-----7-7-
b-----7-7-
g-----8-8-
d-9-9-----
a-9-9-----
e-7-7-----
 There Is Always One In Every crowd
 You Can Hear Them When You Think Your Alone
 They Sound Like Metal On Metal 
 Obnoxious and loud
 So Dont Let go

e-7-7-7-7-4-4-4-4-9--9--9--9--9--9--9--9--9-
b-7-7-7-7-4-4-4-4-9--9--9--9--9--9--9--9--9-
g-8-8-8-8-5-5-5-5-10-10-10-10-10-10-10-10-10
d-9-9-9-9-6-6-6-6-11-11-11-11-11-11-11-11-11
a-9-9-9-9-6-6-6-6-11-11-11-11-11-11-11-11-11
e-7-7-7-7-4-4-4-4-9--9--9--9--9--9--9--9--9-
 Dont Listen To The Sound 
 Of Those People You Know 
 Slowly Falling Apart 
 And Falling Down Now

e-----7-7-
b-----7-7-
g-----8-8-
d-9-9-----
a-9-9-----
e-7-7-----
 When I Think Im Alone 
 I watch the news on my girlfreinds TV
 Its Like a bad B movie 
 Aww somtimes I cant comprehend all the stupid things that I see 
 So dont let go 

e-7-7-7-7-4-4-4-4-9--9--9--9--9--9--9--9--9-
b-7-7-7-7-4-4-4-4-9--9--9--9--9--9--9--9--9-
g-8-8-8-8-5-5-5-5-10-10-10-10-10-10-10-10-10
d-9-9-9-9-6-6-6-6-11-11-11-11-11-11-11-11-11
a-9-9-9-9-6-6-6-6-11-11-11-11-11-11-11-11-11
e-7-7-7-7-4-4-4-4-9--9--9--9--9--9--9--9--9-
  You Cant Believe Your Eyes 
  Yeah When Everything They Show YOu 
  Just Makes You Wanna Cry
  And YOu Dont Wanna KNow That you need to remember
  Life is always getting better

e-----7-7-
b-----7-7-
g-----8-8-
d-9-9-----
a-9-9-----
e-7-7-----
 There is always one in every crowd 
 Yeah You Hear Them When You Think Your Alone 
 It all just seems like Science Fiction 
 No one knows what they are talking about

(Strings)
 So dont let go 
 Dont Listen To The Sounds 
 Of Those People You Know 
 Slowly Falling Apart
 And Falling Down Now
 You Need To Remember 
 Life Is Always Getting Better
 
e-7-7-7-7-9--9--9--9--9--7-7-7-7-7-7-7-7
b-7-7-7-7-9--9--9--9--9--4-4-4-7-7-7-7-7
g-8-8-8-8-10-10-10-10-10-5-5-5-5-8-8-8-8
d-9-9-9-9-11-11-11-11-11-6-6-6-6-9-9-9-9
a-9-9-9-9-11-11-11-11-11-6-6-6-6-9-9-9-9
e-7-7-7-7-9--9--9--9--9--4-4-4-4-7-7-7-7
 Life Is Always Getting Better 
 Life Is Always Getting Better 
 For A While

e-7
b-7
g-8
d-9
a-9
e-7     
--------------------------------------------------------------------------------
NEW BLUE CHAMPION

Guitar 1 (electric)

e------4----------6------------9
b--------4---------6---------9--
g---5--------7-----------10-----
d-6--------8----------11-------- 
a-------------------------------
e-------------------------------

Guitar 2 (acoustic)

e-4-4---4-2-2-2-------------------
b-4-4---4-2-2-2---4-4--4-4-4-4-6-6
g-5-5---5-3-3-3---4-4--4-4-4-4-6-6
d-6-6---6-4-4-4---4-4--4-4-4-4-6-6
a-6-6---6-4-4-4---2-2--2-2-2-2-4-4
e-4-4---4-2-2-2-------------------
 I dont Wanna Hear You Say Your Sorry 
 I dont wanna hear you say we can start all over again
   I know you must think that im stupid
 Well I might be stupid for the rest of my life 
 But I’ll never be stupid for you again
 I Just Want It All To Go Away
 
Electric Only
e----------------------------------------------------------------
b----------------------------------------------------------------
g-5-5-5-5-5-5-5--3-3-3-3-3-3--8-8-8-8-8-8-8-10-10-10-10-10-10-10-
d-6-6-6-6-6-6-6--4-4-4-4-4-4--9-9-9-9-9-9-9-11-11-11-11-11-11-11-
a-6-6-6-6-6-6-6--4-4-4-4-4-4--9-9-9-9-9-9-9-11-11-11-11-11-11-11-
e-4-4-4-4-4-4-4--2-2-2-2-2-2--7-7-7-7-7-7-7-9--9--9--9--9--9--9--
 Yeah
Just go away
 Yeah 

e----------------------------------------------------------------
b----------------------------------------------------------------
g-5-5-5-5-5-5-5--3-3-3-3-3-3--8-8-8-8-8-8-8-10-10-10-10-10-10-10-
d-6-6-6-6-6-6-6--4-4-4-4-4-4--9-9-9-9-9-9-9-11-11-11-11-11-11-11-
a-6-6-6-6-6-6-6--4-4-4-4-4-4--9-9-9-9-9-9-9-11-11-11-11-11-11-11-
e-4-4-4-4-4-4-4--2-2-2-2-2-2--7-7-7-7-7-7-7-9--9--9--9--9--9--9--
 I can see the light above me 
 I hear the sound of a brand song
 I don’t wanna hear your preaches cause I know whats right
 I know whats wrong

I can see the light above me
I hear the sound of a brand new day 
I can picture the lies without you 
 And I don’t think things Are Ever gonna change 
 I Just Want It All To Go Away


Guitar 1 (electric)
e------4----------6------------9
b--------4---------6---------9--
g---5--------7-----------10-----
d-6--------8----------11-------- 
a-------------------------------
e-------------------------------

Guitar 2 (acoustic)

e-4-4---4-2-2-2-------------------
b-4-4---4-2-2-2---4-4--4-4-4-4-6-6
g-5-5---5-3-3-3---4-4--4-4-4-4-6-6
d-6-6---6-4-4-4---4-4--4-4-4-4-6-6
a-6-6---6-4-4-4---2-2--2-2-2-2-4-4
e-4-4---4-2-2-2-------------------
 I don’t wanna hear about you damage
I don’t wanna hear you say
That you think Im damaged too
Becuause I Know You Know that 
The damage in me is from the horrible things you say and do
I know that the damage in me 
Comes from the damage in you

(no music)
I just want it all to go away

e----------------------------------------------------------------
b----------------------------------------------------------------
g-5-5-5-5-5-5-5--3-3-3-3-3-3--8-8-8-8-8-8-8-10-10-10-10-10-10-10-
d-6-6-6-6-6-6-6--4-4-4-4-4-4--9-9-9-9-9-9-9-11-11-11-11-11-11-11-
a-6-6-6-6-6-6-6--4-4-4-4-4-4--9-9-9-9-9-9-9-11-11-11-11-11-11-11-
e-4-4-4-4-4-4-4--2-2-2-2-2-2--7-7-7-7-7-7-7-9--9--9--9--9--9--9--
 I can see the light above me 
 I hear the sound of a brand new song
 I d
e----------------------------------------------------------------
b----------------------------------------------------------------
g-5-5-5-5-5-5-5--3-3-3-3-3-3--8-8-8-8-8-8-8-10-10-10-10-10-10-10-
d-6-6-6-6-6-6-6--4-4-4-4-4-4--9-9-9-9-9-9-9-11-11-11-11-11-11-11-
a-6-6-6-6-6-6-6--4-4-4-4-4-4--9-9-9-9-9-9-9-11-11-11-11-11-11-11-
e-4-4-4-4-4-4-4--2-2-2-2-2-2--7-7-7-7-7-7-7-9--9--9--9--9--9--9--
 Yeah
Just go away
 Yeah 
I dont wanna talk about it
I dont wanna hear your lies
I dont wanna talk about it
And I dont understand Why You just do no realize

E-----------------
B-----------------
g-13-11-10-8-5-6-4
D-----------------
A-----------------
E-----------------

Guitar 1 (electric)

e------4----------6------------9
b--------4---------6---------9--
g---5--------7-----------10-----
d-6--------8----------11-------- 
a-------------------------------
e-------------------------------

Guitar 2 (acoustic)

e-4-4---4-2-2-2-------------------
b-4-4---4-2-2-2---4-4--4-4-4-4-6-6
g-5-5---5-3-3-3---4-4--4-4-4-4-6-6
d-6-6---6-4-4-4---4-4--4-4-4-4-6-6
a-6-6---6-4-4-4---2-2--2-2-2-2-4-4
e-4-4---4-2-2-2-------------------
 I dont Wanna Hear You Say Your Sorry 
 I dont wanna hear you say we can start all over again
 Woah Oh Woah GO

e----------------------------------------------------------------
b----------------------------------------------------------------
g-5-5-5-5-5-5-5--3-3-3-3-3-3--8-8-8-8-8-8-8-10-10-10-10-10-10-10-
d-6-6-6-6-6-6-6--4-4-4-4-4-4--9-9-9-9-9-9-9-11-11-11-11-11-11-11-
a-6-6-6-6-6-6-6--4-4-4-4-4-4--9-9-9-9-9-9-9-11-11-11-11-11-11-11-
e-4-4-4-4-4-4-4--2-2-2-2-2-2--7-7-7-7-7-7-7-9--9--9--9--9--9--9--
 I can see the light above me 
 I hear the sound of a brand song
 I don’t wanna hear your preaches cause I know whats right
 I know whats wrong

I can see the light above me
I hear the sound of a brand new day 
I can picture the lies without you 
 And I don’t think things Are Ever gonna change 
 I Just Want It All To Go Away

Guitar 2 (acoustic)

e-4-4---4-2-2-2-------------------
b-4-4---4-2-2-2---4-4--4-4-4-4-6-6
g-5-5---5-3-3-3---4-4--4-4-4-4-6-6
d-6-6---6-4-4-4---4-4--4-4-4-4-6-6
a-6-6---6-4-4-4---2-2--2-2-2-2-4-4
e-4-4---4-2-2-2-------------------
 I Can see the light above me
 I hear the sound of brand new song
 I don’t wanna hear your reasons 
 Cause I know whats rigt
 I know whats wrong     
--------------------------------------------------------------------------------
TV SHOW

e-11---11----12----11
b---12----12----12---
g--------------------
d--------------------
a--------------------
e--------------------

GUITAR 1 (acoustic)
e------------------------------------------------------
b-4~---------------------------------------------------
g-4~---------------------------------------------------
d-4~---------------------------------------------------
a-2~---------------------------------------------------
e------------------------------------------------------

Guitar 2 (electric) *slightly disorted

e------------------------------------------------------
b------------------------------------------------------
g------------------------------------------------------
d-9-9-9-9-9-9-9-9-9-9-9-9-9-9-9-9-9-9-9-9-9-9-9-9-9-9-9
a-9-9-9-9-9-9-9-9-9-9-9-9-9-9-9-9-9-9-9-9-9-9-9-9-9-9-9
e-7-7-7-7-7-7-7-7-7-7-7-7-7-7-7-7-7-7-7-7-7-7-7-7-7-7-7
pm.....................................................
  I Walk around in the Market, Late At Night
  I Walk Around in the empty house, And I dont know why

Guitar 1 
e-4~-----5~---------------4~--------------0~-------------------------------
b-4~-----5~---------------4~--------------0~-------------------------------
g-4~-----4~---------------4~--------------1~-------------------------------
d-6~-----5~---------------6~--------------2~-------------------------------
a-6~-----5~---------------6~--------------2~-------------------------------
e-4~-----3~---------------4~--------------0~-------------------------------

Guitar 2 
e--------------------------------------------------------------------------
b-----------------------------------------9~-------------------------------
g-----------------------------------------9~-------------------------------
d-6~------5~--------------6~--------------9~-------------------------------
a-6~------5~--------------6~--------------7~-------------------------------
e-4~------3~--------------4~-----------------------------------------------
I need to be Close to the light So I Walk Around In The Middle OF The Night

GUITAR 1 
e------------------------------------------------------
b-4~---------------------------------------------------
g-4~---------------------------------------------------
d-4~---------------------------------------------------
a-2~---------------------------------------------------
e------------------------------------------------------

Guitar 2 

e------------------------------------------------------
b------------------------------------------------------
g------------------------------------------------------
d-9-9-9-9-9-9-9-9-9-9-9-9-9-9-9-9-9-9-9-9-9-9-9-9-9-9-9
a-9-9-9-9-9-9-9-9-9-9-9-9-9-9-9-9-9-9-9-9-9-9-9-9-9-9-9
e-7-7-7-7-7-7-7-7-7-7-7-7-7-7-7-7-7-7-7-7-7-7-7-7-7-7-7
pm.....................................................
 I Drive Around In The Neigborhood, I wanna lose my house
 I drive around on the freeway, guess i wanna lose myself

Guitar 1 
e-4~-----5~---------------4~--------------0~-------------------------------
b-4~-----5~---------------4~--------------0~-------------------------------
g-4~-----4~---------------4~--------------1~-------------------------------
d-6~-----5~---------------6~--------------2~-------------------------------
a-6~-----5~---------------6~--------------2~-------------------------------
e-4~-----3~---------------4~--------------0~-------------------------------

Guitar 2 
e--------------------------------------------------------------------------
b-----------------------------------------9~-------------------------------
g-----------------------------------------9~-------------------------------
d-6~------5~--------------6~--------------9~-------------------------------
a-6~------5~--------------6~--------------7~-------------------------------
e-4~------3~--------------4~-----------------------------------------------
Turn The Key, Turn the dial, listen to the radio and just drive for a while 

Guitar 1
e------
b-4-4-4
g-4-4-4
d-4-4-4
a-2-2-2
e------

Guitar 2
e------
b------
g------
d-9-9-9
a-9-9-9
e-7-7-7
pm......
         Yeah Now I Got No Place To Go

Guitar 1
e-0~-----2~---------------3~-------------------------------------
b-0~-----2~---------------3~------------------4-4-4-4-4-4-4-4-4-4
g-1~-----3~---------------4~------------------4-4-4-4-4-4-4-4-4-4
d-2~-----4~---------------5~------------------4-4-4-4-4-4-4-4-4-4
a-2~-----4~---------------5~------------------2-2-2-2-2-2-2-2-2-2
e-0~-----2~---------------3~-------------------------------------

Guitar 2 *Still slightly distorted
e----------------------------------------------------------------
b----------------------------------------------------------------
g----------------------------------------------------------------
d-2~-----4~---------------5~------------------9-9-9-9-9-9-9-9-9-9
a-2~-----4~---------------5~------------------9-9-9-9-9-9-9-9-9-9
e-0~-----2~---------------3~------------------7-7-7-7-7-7-7-7-7-7
  I wish i could come home  To a life that is just like a TV Show
  I wish i could see my television family waiting for me 
  Where No one fights, and no one screams, No one lies and no one leaves
  I dont care how the story ends, i wanna feel, like im living again


e-11--11--12--11
b---12--12--12--
g---------------
d---------------
a---------------
e---------------


Guitar 2 (turn distorion up)
e---------------
b---------------
g---------------
d-9-9-9-9-9-9-9-
a-9-9-9-9-9-9-9-
e-7-7-7-7-7-7-7-
pm.............
I Drive Away from the city
I need to see the sky
I Drive away from the bad things
That Make Me Close my eyes


Guitar 2
e--------------------------------------------------------------------------
b-----------------------------------------9~-------------------------------
g-----------------------------------------9~-------------------------------
d-6~------5~--------------6~--------------9~-------------------------------
a-6~------5~--------------6~--------------7~-------------------------------
e-4~------3~--------------4~-----------------------------------------------

Leave It All, In the past, drive away going no wher fast

e------
b------
g------
d-9-9-9
a-9-9-9
e-7-7-7
       Yeah Now I Got no where to go 

Guitar 2
e----------------------------------------------------------------
b----------------------------------------------------------------
g----------------------------------------------------------------
d-2~-----4~---------------5~------------------9-9-9-9-9-9-9-9-9-9
a-2~-----4~---------------5~------------------9-9-9-9-9-9-9-9-9-9
e-0~-----2~---------------3~------------------7-7-7-7-7-7-7-7-7-7
  I wish I Could Come Home To A Life that is jus like a TV show
  I wish i could see my televison family waiting for me
  Where no one fights and no one screams
  No one lies and no one leaves
  I dont care how the story ends....
  I wanna feel like i used to feel

Guitar 2 (full distortion)
e------
b------
g------
d-5-5-5
a-5-5-5
e-3-3-3
       I wanna feel like Im living Again

Guitar 2 

e---------------------------------
b---------------------------------
g-4-4--4-4-4----------6-6--6-6-9-9
d-4-4--4-4-4-4-4--4-4-6-6--6-6-9-9
a-2-2--2-2-2-4-4--4-4-4-4--4-4-7-7
e------------2-2--2-2-------------

Woah Im living again 
Woah Im lving Again
Woah Breathing Out and Breathing In
Woah Im living Again

Guitar 2
e---
b---
g-4~
d-4~
a-2~
e---
  I walk away from the circle
  Need To Find Myself

e-11--11--11--11
b---12--12--12--
g---------------
d---------------
a---------------
e---------------
  I think I Need To Start Over......

Guitar 2
e--------
b--------
g-Scrape\
d-Scrape\
a-Scrape\
e--------
 Need to start making friends.....

Guitar 2
e------------
b------------
g------------
d-6-6-----2-2
a-6-6-----2-2
e-4-4-----0-0
 Breath out
 Breath In 
 I wish i could do it all over again

e--------------------
b--------------------
g--------------------
d-9-9-9-9-9-9-9-9-9-9
a-9-9-9-9-9-9-9-9-9-9
e-7-7-7-7-7-7-7-7-7-7
                      I wish i could do it all over again
e----------------------------------------------------
b----------------------------------------------------
g----------------------------------------------------
d-2-2-X-X-X-X-4-4-X-X-X-X-5-5-X-X-X-X-9-9-9-9-9-9-9-9
a-2-2-X-X-X-X-4-4-X-X-X-X-5-5-X-X-X-X-9-9-9-9-9-9-9-9
e-0-0-X-X-X-X-2-2-X-X-X-X-3-3-X-X-X-X-7-7-7-7-7-7-7-7
  I wish I could go home
  To a life that is one that i used to know
  I wish i could someday see 
  Everything Back The Way it used to be 
  Where no one cries and no one screams
  Where no one hits you and no one leaves
  Everybody knows how the story ends
  All the bad guys loose and the good guys win
  I wish i could it all over again

e---
b---
g---
d-9~
a-9~
e-7~
     oooooo i wanna feel someday i can really start living again

Guitar 1
e-------------2-2-X-X--------------------
b-4-4-X-X-X-X-2-2-X-X-6-6-X-X-X-X-9-9-X-X
g-4-4-X-X-X-X-3-3-X-X-6-6-X-X-X-X-9-9-X-X
d-4-4-X-X-X-X-4-4-X-X-6-6-X-X-X-X-9-9-X-X
a-2-2-X-X-X-X-4-4-X-X-4-4-X-X-X-X-7-7-X-X
e-------------2-2-X-X--------------------

 Woah Im living Again 
 Woah Im Living Again 
 Woah Im Living Again
 Woooooooah I am living Again

Guitar 2
e---------------------------------
b---------------------------------
g-4-4--4-4-4----------6-6--6-6-9-9
d-4-4--4-4-4-4-4--4-4-6-6--6-6-9-9
a-2-2--2-2-2-4-4--4-4-4-4--4-4-7-7
e------------2-2--2-2-------------
 Woah Im Living Again 
 Woah Im Living Again 
 Woah Im Living Again 
 Woah I am Living Again

Guitar 2
e--
b--
g-4
d-4
a-2
e--
--------------------------------------------------------------------------------
CHRYSANTHEMUM

ALL STRINGS TUNED DOWN A HALF STEP

Eb|------------------------------------
Bb|------------------------------------
Gb|------0---------0---------------0---
Db|---9----------9-------------11------
Ab|-7------7--10-----10/----12-------12
Eb|------------------------------------
   Yes I Hate The Way I Feel And It Makes No Sence
   Five Months Gone And All I Got 
   Pretty Pink Flowers On A Chain Link Fence
   And I Dont Like What It Means Cause I Know Ther Is More To Come

Eb|-------------------------------
Bb|-------------------------------
Gb|------0--------0-----------0---
Db|----5--------1----------2------
Ab|-3------3--2------2---0-------0
Eb|-------------------------------
   I Cant Go Home Without Crysanthemum


Eb|------------------------------------
Bb|------------------------------------
Gb|------0---------0---------------0---
Db|---9----------9-------------11------
Ab|-7------7--10-----10/----12-------12
Eb|------------------------------------
   I walk around lost and I dont know why
   Dont See The faces or the places that i should recognize
   Its like that dream where it looks like home
   But it dont look right

Eb|-------------------------------
Bb|-------------------------------
Gb|------0--------0-----------0---
Db|----5--------1----------2------
Ab|-3------3--2------2---0-------0
Eb|-------------------------------
   Yes I will look everywhere tonight

Eb|------------------------------------
Bb|------------------------------------
Gb|------0---------0---------------0---
Db|---9----------9-------------11------
Ab|-7------7--10-----10/----12-------12
Eb|------------------------------------

Eb|-------------------------------
Bb|-------------------------------
Gb|------0--------0-----------0---
Db|----5--------1----------2------
Ab|-3------3--2------2---0-------0
Eb|-------------------------------
    I will not stop until i make things right
    I cant go home until I see the sun
    I Cant Go Home with out Chysanthemum


Eb|-------
Bb|-------
Gb|-------
Db|-------
Ab|2/7---7
Eb|----0--
           No I 

Eb|-------------|
Bb|-------------|
Gb|----0-------0|
Db|--5-------1--|
Ab|3-----3-2----|
Eb|-------------|
   Can Go Home Without Chrysanthemum

Eb|-------
Bb|-------
Gb|-------
Db|-------
Ab|2/7---7
Eb|----0--      
--------------------------------------------------------------------------------
SUNSHINE (THAT ACID SUMMER)

~DRUM INTRO~

e-----------------------------
b-----------------------------
g-3-3-3---3-3-3-3-3-3---8-8-8-
d-4-4-4---4-4-4-4-4-4---9-9-9-
a-4-4-4---4-4-4-4-4-4---9-9-9-
e-2-2-2---2-2-2-0-2-2---7-7-7-
 Whooo 
 Go 
 Whoo

e---------------------------------
b---------------------------------
g---------------------------------
d-3-3-3-3-3-3-3-3-3-3-3-4-4-3-4-3-
a-3-3-3-3-3-3-3-3-3-3-3-3-3-3-3-3-
e---------------------------------
  Roll And Tumble With Your Big Heart Falling
  Roll And Tumble Alone 
  Reach Forever With Your Dirty Hands Rolling
  Reach For Something You Will Never Know
  
  I heard ya singing in a Taco Bell Bathroom 
  I heard ya singing a Cheap Trick Song
  Yeah We Sing Surrender all the way to County Line
  Cause When I 

e---------------2~
b-4~------------2~
g-4~------------3~
d-4~------------4~
a-2~------------4~
e---------------2~
  Listen To That Music 
  It Makes Me Think Of Summer Time
  (Summer Time)


e---------------------------------
b---------------------------------
g---------------------------------
d-3-3-3-3-3-3-3-3-3-3-3-4-4-3-4-3-
a-3-3-3-3-3-3-3-3-3-3-3-3-3-3-3-3-
e---------------------------------
  Yeah That Acid Summer We Were 

e---------------2~
b-4~------------2~
g-4~------------3~
d-4~------------4~
a-2~------------4~
e---------------2~
   Wasted And Happy
   We Where Laughing In The Sunshine




e-----------------------------
b-----------------------------
g-3-3-3---3-3-3-3-3-3---8-8-8-
d-4-4-4---4-4-4-4-4-4---9-9-9-
a-4-4-4---4-4-4-4-4-4---9-9-9-
e-2-2-2---2-2-2-0-2-2---7-7-7-
  Twist And Turn With Your Bright Eyes Shining
  Twist And Turn In The California Sun
  Wait Forever For The Life That You Dream of 

e---------------2~
b-4~------------2~
g-4~------------3~
d-4~------------4~
a-2~------------4~
e---------------2~
  You wait For Something That Will Never Come

e-----------------------------
b-----------------------------
g-3-3-3---3-3-3-3-3-3---8-8-8-
d-4-4-4---4-4-4-4-4-4---9-9-9-
a-4-4-4---4-4-4-4-4-4---9-9-9-
e-2-2-2---2-2-2-0-2-2---7-7-7-
  Twist And Turn In The Slow Motion Daydream 
  Twist And Turn In Your Own Sweet Hell
  I Don’t get So Close To The Fire Anymore
  But When I 

 

e---------------2~
b-4~------------2~
g-4~------------3~
d-4~------------4~
a-2~------------4~
e---------------2~ 
  Think About You Now
  It makes me think of Summertime

e-----------------------------
b-----------------------------
g-3-3-3---3-3-3-3-3-3---8-8-8-
d-4-4-4---4-4-4-4-4-4---9-9-9-
a-4-4-4---4-4-4-4-4-4---9-9-9-
e-2-2-2---2-2-2-0-2-2---7-7-7-
  Yeah That Acid Summer We Were

e---------------2~
b-4~------------2~
g-4~------------3~
d-4~------------4~
a-2~------------4~
e---------------2~ 
  Wasted And Happy
  We Were Laughing In The Sunshine


Guitar 1
e-----------------------------
b-----------------------------
g-3-3-3---3-3-3-3-3-3---8-8-8-
d-4-4-4---4-4-4-4-4-4---9-9-9-
a-4-4-4---4-4-4-4-4-4---9-9-9-
e-2-2-2---2-2-2-0-2-2---7-7-7-

Guitar 2
E---------
B---------
g-3h-4-3-3
D---------
A---------
E---------
 Laughin in the sunshine
 Laughin in the sunshine
 In The Sunshine

Guitar 1
E----------------
B----------------
g-3-3-3-3-3-3-3-3
d-3-3-3-3-3-3-3-3
A----------------
E----------------

Guitar 2
E------------------
B------------------
g-15-15-15-15-15-15
D------------------
A------------------
E------------------
 Twist And Turn With Your Bright Eyes Shinin
Twist And Turn in The California Sun
Wait forever for the life that you dream of

e---------------2~
b-4~------------2~
g-4~------------3~
d-4~------------4~
a-2~------------4~
e---------------2~ 
 You wait for something that will never come

Guitar 1
E------------
B------------
g-3-3-3-3-3-3
d-4-4-4-4-4-4
a-4-4-4-4-4-4
e-2-2-2-2-2-2
PM……………………………


Guitar 2
E---------------------
B---------------------
g-15-15-15-15-15-15-15
D---------------------
A---------------------
E---------------------
 Twist And Turn In The Slow Motion Free Fall
 Twist And Turn In Your Own Good Time
 I cant watch you twisting And Turning Anymore
 Now I 



e---------------2~
b-4~------------2~
g-4~------------3~
d-4~------------4~
a-2~------------4~
e---------------2~ 
 Never Thought I Good Time would turn into a life style
 
Guitar 1
E------------
B------------
g-3-3-3-3-3-3
d-4-4-4-4-4-4
a-4-4-4-4-4-4
e-2-2-2-2-2-2
PM……………………………

Guitar 2
E---------------------
B---------------------
g-15-15-15-15-15-15-15
D---------------------
A---------------------
E---------------------
  No I Just Cant Watch You Anymore
  But When I 



E-----------------
b-4~------------2~
g-4~------------3~
d-4~------------4~
a-2~------------4~
e---------------2~
 Think about that Summer Time It Always Seems To Make Me Smile 

e-----------------------------
b-----------------------------
g-3-3-3---3-3-3-3-3-3---8-8-8-
d-4-4-4---4-4-4-4-4-4---9-9-9-
a-4-4-4---4-4-4-4-4-4---9-9-9-
e-2-2-2---2-2-2-0-2-2---7-7-7-
 Yeah That Acid Summer We Were



E-----------------
b-4~------------2~
g-4~------------3~
d-4~------------4~
a-2~------------4~
e---------------2~
  Wasted and happy
  We Were Laughing In The Sunshine


Guitar 1
e-----------------------------
b-----------------------------
g-3-3-3---3-3-3-3-3-3---8-8-8-
d-4-4-4---4-4-4-4-4-4---9-9-9-
a-4-4-4---4-4-4-4-4-4---9-9-9-
e-2-2-2---2-2-2-0-2-2---7-7-7-

Guitar 2
E---------
B---------
g-3h-4-3-3
D---------
A---------
E---------
 GO Go Go Go 
 WOOOOOOOOOO

(play during Solo)

We Were Laughing In The Sunshine


Guitar 1
e-----------------------------
b-----------------------------
g-3-3-3---3-3-3-3-3-3---8-8-8-
d-4-4-4---4-4-4-4-4-4---9-9-9-
a-4-4-4---4-4-4-4-4-4---9-9-9-
e-2-2-2---2-2-2-0-2-2---7-7-7-

Guitar 2
E---------
B---------
g-3h-4-3-3
D---------
A---------
E---------
  We Were laughing In The Sunshine 

E---
B---
g-3~
d-4~
a-4~
e-2~    
--------------------------------------------------------------------------------
A BEAUTIFUL LIFE

(strings)
You Seem To Make The Sam Mistakes Everyday
Sometimes Its Hard To Open Your Eyes
You Want To Be The Only Cake on the table
Yeah You Say you don’t like surprises
You Want to Find a pretty place you can stay

Yeah You Just Don’t Wanna Live in LA


e------0--0-----0----
b----2------2-----2--
g---3--------3------3
d-0------------------
a--------------------
e--------------------
  Yeah 


e-6~--8~-----6~-----6~
b-6~--8~-8~--6~-10~-6~
g-7~--9~-8~--7~-10~-7~
d-8~--10~8~--8~-10~-8~
a---------------------
e---------------------
  I Just Wanna Be Where The Sun Shines Down 
  I Just Wanna Be Where The Sun Shines Down 
  I Just wanna be with you

E------------------------------------------------
B------------------------------------------------
G------------------------------------------------
d-12-12-12-12-12-12-12-12-12-4-4-4-4-4-4-4-4-4-4-
a-12-12-12-12-12-12-12-12-12-4-4-4-4-4-4-4-4-4-4-
e-10-10-10-10-10-10-10-10-10-2-2-2-2-2-2-2-2-2-2-
 PM ……………………………….................................
 Oh 
  I really hate the way you push me away
  I Do Not like it when you shut me out
  I say I love you but I don’t really know you
  I wanna change it but I Don’t know how
  I wanna leave when it gets ugly and cold
  I wanna leave when but I got no where to go YEAH

E---------------------------------------------
B---------------------------------------------
G------------8-8-X-X---------10-10-X-X--------
d-8~----10~--8-8-X-X-8-8-X-X-10-10-X-X-8-8-X-X
a-8~----10~--6-6-X-X-8-8-X-X-8--8--X-X-8-8-X-X
e-6~----8~-----------6-6-X-X-----------6-6-X-X
  I Just wanna Be where the sun shines down
  I Just wanna be where the Sun Shines Down 
  On A Beautiful Life
  I Just Wanna Find A Beautiful Life
  I Wanna be where the sun shines down 
  I Just wanna find a beautiful Life

E----
B----
g-7-7
d-8-8
a-8-8
e-6-6
  I Don’t Care Where We Go I Don’t Care What We Do 
  

E------------------------------------------------
B------------------------------------------------
G------------------------------------------------
d-12-12-12-12-12-12-12-12-12-4-4-4-4-4-4-4-4-4-4-
a-12-12-12-12-12-12-12-12-12-4-4-4-4-4-4-4-4-4-4-
e-10-10-10-10-10-10-10-10-10-2-2-2-2-2-2-2-2-2-2-
 PM ……………………………….................................
  You Seem To Make The Same Mistakes All The Time
  Sometimes Its Not So Hard To Understand Why
  You Say You Hate The Things That You Have Done
  Yeah You Have Been Running With Your Back to the sun
  You Wanna Find a place you don’t have to hide
  You Say you’re happy just to be alive

E---------------------------------------------
B---------------------------------------------
G------------8-8-X-X---------10-10-X-X--------
d-8~----10~--8-8-X-X-8-8-X-X-10-10-X-X-8-8-X-X
a-8~----10~--6-6-X-X-8-8-X-X-8--8--X-X-8-8-X-X
e-6~----8~-----------6-6-X-X-----------6-6-X-X
  I Just wanna Be where the sun shines down
  I Just wanna be where the Sun Shines Down 
  On A Beautiful Life
  I Just Wanna Find A Beautiful Life
  I Wanna be where the sun shines down 
  I Just wanna find a beautiful Life

E----
B----
g-7-7
d-8-8
a-8-8
e-6-6
  I Don’t Care Where We Go I Don’t Care What We Do 
  As Long As I Can Be With You
  I Just wanna be with you      
--------------------------------------------------------------------------------
THE NEW YORK TIMES

ALL STRINGS TUNED DOWN A HALF STEP
Eb------------------------------------------------------------------------- 
Bb------------------------------------------------------------------------- 
Gb-9-9-9-9-9-9-9-9--------------------------------------------------------- 
Db-9-9-9-9-9-9-9-9-9-9-9-9-9-9-9-9-11-11-11-11-11-11-11-11-7-7-7-7-7-7-7-7- 
Ab-7-7-7-7-7-7-7-7-9-9-9-9-9-9-9-9-11-11-11-11-11-11-11-11-7-7-7-7-7-7-7-7- 
Eb-----------------7-7-7-7-7-7-7-7-9--9--9--9--9--9--9--9--5-5-5-5-5-5-5-5- 
play this 2 times 

Verse 1: 
Eb------------------------------------- 
Bb------------------------------------- 
Gb------------------------------------- 
Db-2-2-2-2-2-2-2-2--------------------- 
Ab-2-2-2-2-2-2-2-2-5-5/11-11-\7-7/9-9-2 
Eb-0-0-0-0-0-0-0-0-7-7/9--9--\5-5/7-7-0 
pm ............... 
It Makes No Sense To Me 
I was living In A Different World When I Heard the News 
I Keep on having the same bad dreams 
And It Makes me Wanna Hurt All The People Who Have Done This Thing To You 

Chorus 1: 
Eb------------------------------------------------------------------------- 
Bb------------------------------------------------------------------------- 
Gb-9-9-9-9-9-9-9-9--------------------------------------------------------- 
Db-9-9-9-9-9-9-9-9-9-9-9-9-9-9-9-9-11-11-11-11-11-11-11-11-7-7-7-7-7-7-7-7- 
Ab-7-7-7-7-7-7-7-7-9-9-9-9-9-9-9-9-11-11-11-11-11-11-11-11-7-7-7-7-7-7-7-7- 
Eb-----------------7-7-7-7-7-7-7-7-9--9--9--9--9--9--9--9--5-5-5-5-5-5-5-5- 
When I See Your Face 
I Can See You Smile 
I read all about in the New York Times 
When I See Your Eyes I Can See Your Life 
When I think about what happened It just makes me Crazy 

Verse 2: 
Eb------------------------------------- 
Bb------------------------------------- 
Gb------------------------------------- 
Db-2-2-2-2-2-2-2-2--------------------- 
Ab-2-2-2-2-2-2-2-2-5-5/11-11-\7-7/9-9-2 
Eb-0-0-0-0-0-0-0-0-7-7/9--9--\5-5/7-7-0 
pm ............... 
This makes no sense to me 
This eye for an eye thing It has gone too far 
I dont know anyone who does not hurt inside 
I would Like To Believe we could learn from this 
And maybe some day we can make things right. 

CHORUS 2: 
Eb---------------- 
Bb---------------- 
Gb---------------- 
Db-4-4--6-6-6--7-7 
Ab-4-4--6-6-6--7-7 
Eb-2-2--4-4-4--5-5 
I Wanna Believe In This World 
I Wanna Believe In This Life 
I Wanna Believe In a World That does not seem real when you read between the lines 

Chorus 1: 
Eb------------------------------------------------------------------------- 
Bb------------------------------------------------------------------------- 
Gb-9-9-9-9-9-9-9-9--------------------------------------------------------- 
Db-9-9-9-9-9-9-9-9-9-9-9-9-9-9-9-9-11-11-11-11-11-11-11-11-7-7-7-7-7-7-7-7- 
Ab-7-7-7-7-7-7-7-7-9-9-9-9-9-9-9-9-11-11-11-11-11-11-11-11-7-7-7-7-7-7-7-7- 
Eb-----------------7-7-7-7-7-7-7-7-9--9--9--9--9--9--9--9--5-5-5-5-5-5-5-5- 
When I See Your Face 
I Can See You Smile I
read all about in my New York Times 
When I See Your Eyes I Can See Your Life 
When I Read the words about you It just makes me Crazy 

CHORUS 2: 
Eb---------------- 
Bb---------------- 
Gb---------------- 
Db-4-4--6-6-6--7-7 
Ab-4-4--6-6-6--7-7 
Eb-2-2--4-4-4--5-5 
I Wanna Believe In This World 
I Wanna Believe In This Life 
I Wanna Believe In a World That does not seem real when you read between the lines 

Middle Part 
Eb-0--0--0--0--0 
Bb-0--0--0--0--0 
Gb-1--8--X--6--8 
Db-2--9--11-7--9 
Ab-2--9--11-7--9 
Eb-0--7--9--5--7 
Oh Gotta Read Between The Lines 
Woah-oh-oh-oh 
You Gotta Read Between The Lines 
Woah-oh Woah 
Yeah I really wanna believe i can make thing right 


Eb---------------- 
Bb---------------- 
Gb---------------- 
Db-4-4--6-6-6--7-7 
Ab-4-4--6-6-6--7-7 
Eb-2-2--4-4-4--5-5 
pm ............... 
I wanna believe I can learn how to feel alright inside 

Eb---------------- 
Bb---------------- 
Gb---------------- 
Db-4-4--6-6-6--7-7 
Ab-4-4--6-6-6--7-7 
Eb-2-2--4-4-4--5-5 
I wanna Believe I can learn how to make things right 
OH 

CHORUS 2: 
Eb---------------- 
Bb---------------- 
Gb---------------- 
Db-4-4--6-6-6--7-7 
Ab-4-4--6-6-6--7-7 
Eb-2-2--4-4-4--5-5 
I Wanna Believe In This World I Wanna Believe In This Life 
I Wanna Believe In a World That does not seem real 
when you read The New York Times 

Chorus 1: 
Eb------------------------------------------------------------------------- 
Bb------------------------------------------------------------------------- 
Gb-9-9-9-9-9-9-9-9--------------------------------------------------------- 
Db-9-9-9-9-9-9-9-9-9-9-9-9-9-9-9-9-11-11-11-11-11-11-11-11-7-7-7-7-7-7-7-7- 
Ab-7-7-7-7-7-7-7-7-9-9-9-9-9-9-9-9-11-11-11-11-11-11-11-11-7-7-7-7-7-7-7-7- 
Eb-----------------7-7-7-7-7-7-7-7-9--9--9--9--9--9--9--9--5-5-5-5-5-5-5-5- 
When I See Your Face 
I Can See You Smile I read all about in my New York Times 
When I See Your Eyes I Can See Your Life 
When I Read the words about you 
It just makes me Crazy 
When I Close My Eyes 
You Seem So Alive 
When I think about what happened 
it makes me wanna believe I can make things right 

CHORUS 2: 
Eb---------------- 
Bb---------------- 
Gb---------------- 
Db-4-4--6-6-6--7-7
Ab-4-4--6-6-6--7-7
Eb-2-2--4-4-4--5-5 
I wanna believe 
I wanna believe 
I wanna believe 
OH 

Eb---------------- 
Bb---------------- 
Gb---------------- 
Db-4-4--6-6-6--7-7 
Ab-4-4--6-6-6--7-7 
Eb-2-2--4-4-4--5-5 
I Wanna Believe In This World 
I Wanna Believe In This Life 
I Wanna Believe In a World That does not seem real 
when you read The New York Times 
Eb--- 
Bb--- 
Gb--- 
Db-11 
Ab-11 
Eb-9- 
let this ring out       
--------------------------------------------------------------------------------
WHITE NOISE

Guitar 1
e-7-7-7-7-7-7-7-
b-X-X-X-X-X-X-X-
g-4-4-4-4-4-4-4-
D---------------
A---------------
E---------------

Guitar 2
E------------
B------------
G------------
d-9-9-9-9-9-9
a-9-9-9-9-9-9
e-7-7-7-7-7-7

  All The People That You Know That Say Your Ready To Break Down

Both Guitars 
E----------------------
B----------------------
G-----9-9---------9-9-9
d-9-9-9-9-6-6-6-6-9-9-9
A-9-9-7-7-6-6-6-6-7-7-7
e-7-7-----4-4-4-4------

Guitar 1
e-7-7-7-7-7-7-7-
b-X-X-X-X-X-X-X-
g-4-4-4-4-4-4-4-
D---------------
A---------------
E---------------

Guitar 2
E------------
B------------
G------------
d-9-9-9-9-9-9
a-9-9-9-9-9-9
e-7-7-7-7-7-7
 All The People That You Know That Say Your Ready To Fall

Both Guitars 

E-----------------------
B-----------------------
G------9-9-----------9-9
d-9-9--9-9--6-6-6-6--9-9
A-9-9--7-7--6-6-6-6--7-7
e-7-7-------4-4-4-4-----

Guitar 1
e-7-7-7-7-7-7-7-
b-X-X-X-X-X-X-X-
g-4-4-4-4-4-4-4-
D---------------
A---------------
E---------------

Guitar 2
E------------
B------------
G------------
d-9-9-9-9-9-9
a-9-9-9-9-9-9
e-7-7-7-7-7-7
  OH

Guitar 1
e-7-7-7-7-7-7-7-
b-X-X-X-X-X-X-X-
g-4-4-4-4-4-4-4-
D---------------
A---------------
E---------------

Guitar 2
E------------
B------------
G------------
d-9-9-9-9-9-9
a-9-9-9-9-9-9
e-7-7-7-7-7-7

 I Hope You Know That You Are Better Than They Think You Are
 
Both Guitars 

E-----------------------
B-----------------------
G------9-9-----------9-9
d-9-9--9-9--6-6-6-6--9-9
A-9-9--7-7--6-6-6-6--7-7
e-7-7-------4-4-4-4-----
 I Hope You Know That You Have Never Really Tried
 
Guitar 1
e-7-7-7-7-7-7-7-
b-X-X-X-X-X-X-X-
g-4-4-4-4-4-4-4-
D---------------
A---------------
E---------------

Guitar 2
E------------
B------------
G------------
d-9-9-9-9-9-9
a-9-9-9-9-9-9
e-7-7-7-7-7-7
  I hope you know that you are never alone
  You got a good friend on the inside
  WOAH


Both Guitars 

E-----------------------
B-----------------------
G------9-9-----------9-9
d-9-9--9-9--6-6-6-6--9-9
A-9-9--7-7--6-6-6-6--7-7
e-7-7-------4-4-4-4-----

   I Just wanna be there When you need to find your feet
   On the solid ground
   WOAH
   I Just wanna catch you when you fall down 
   When You Fall Down 
 
   All The People That You Know That Say
   Your Living In White Noise
   Yeah 
   All The People That You Know That Say
   Your Living In Hell
   They Don’t Know Anything
    
   I have to say that you are better than they say you are
   I have to say that you are stronger than you know
   I have to say that you are smart enough to handle
   Any stone that anyone could through
   WOAH

   I Just wanna be there when you need to find your feet on the 
   Solid ground
   WOAH
   I Just wanna catch you when you fall down

E------------------------------
B------------------------------
G------------------------------
d-9-9-9---4-4-4---6-6-6---2-2-2
a-9-9-9---4-4-4---6-6-6---2-2-2
e-7-7-7---2-2-2---4-4-4---0-0-0
  Catch you when you fall down

E---------
B---------
g-8b-8b-8b
D---------
A---------
e---------
  To all the people that you know that say your ready to break down YEAH
  To all the people that you know that say your ready to fall UH

Both Guitars 

E-----------------------
B-----------------------
G------9-9-----------9-9
d-9-9--9-9--6-6-6-6--9-9
A-9-9--7-7--6-6-6-6--7-7
e-7-7-------4-4-4-4-----
  I have to say that you are better than they say you are
  I have to say that you are better than them all 
  I have to tell you than you have an easy answer when you need someone to call 

WOAH 
I just need to
Be there when
You feel like you
Just need to come down

I just wanna be there
When you need to
Find yourself on
The solid ground

I just wanna catch you
When you fall down


E------------------------------
B------------------------------
G------------------------------
d-9-9-9---4-4-4---6-6-6---2-2-2
a-9-9-9---4-4-4---6-6-6---2-2-2
e-7-7-7---2-2-2---4-4-4---0-0-0
  Catch you when you fall down
 
E------------------
B------------------
G------------------
d-9-9-9-9-9-9-9-9-9
a-9-9-9-9-9-9-9-9-9
e-7-7-7-7-7-7-7-7-7
comments
We did not receive enough feedback on this tab! Please rate:
print report bad tab
1 2 3 4 5
I want to post or [tab]
guest
You may want to rate the tab now too:
select rating
Please do not post tabs as comments. Select "correction" instead!