Oops, an error
Loading. Please wait.

Songs From An American Movie Part 1 - Learning How To Smile Tab

2,535 views 1 this week
1 commentread comment
1 2 3 4 5
excellent!
x 3
add to favorites launch autoscroll
font size
0
reset
Autoscroll
+/-
esc
set tempo
stop
Contributor
WARNING: You are trying to view
                                    content from Ultimate-Guitar.com
                                    in an unauthorized application,
                                    which is prohibited.

                                    Please use an official Ultimate
                                    Guitar Tabs application for iPhone,
                                    iPad or Android to access legitimate
                                    chords, guitar, bass, and drum tabs
                                    from Ultimate-Guitar.com database.

                                    Type "ultimate guitar tabs" in Apple
                                    App Store's or Android Market's
                                    search to find the application.
Songs From An American Movie Volume 1: Learning How To Smile          
Lyrics By Art Alexakis
Music By Everclear

Song From an American Movie Part 1


(Banjo/Mandolin arranged for guitar: played easiest with a capo on 12th fret)
e|-----15------15------15------15------15------15-----15------15--|x1
B|-----15--12--15------15--12--15------15--12--15-----15--12--15--| 
G|-12--------------12--------------12--------------12-------------|
D|----------------------------------------------------------------|
A|----------------------------------------------------------------|
E|----------------------------------------------------------------|

   G
e|----------------------------------------------------------------|x1
B|----------3-----------3--5b-5p3-----------3----------3--5b-5p3--|
G|----------0-----------0-------------------0----------0----------|
D|------0-----------0-------------------0-----------0-------------|
A|----------------------------------------------------------------|
E|-\0h3---------0h3-----------------0h3---------0h3---------------|
 |                                                                |
e|-----15------15------15------15------15------15-----15----------|
B|-----15--12--15------15--12--15------15--12--15-----15-17p15p12-|
G|-12--------------12--------------12--------------12-------------|
D|----------------------------------------------------------------|
A|----------------------------------------------------------------|
E|----------------------------------------------------------------|

   G
e|----------------------------------------------------------------|x1
B|---------3-----------3--5b-5p3-----------3--------------3-------|
G|---------0-----------0-------------------0----------0h2---------|
D|-----0-----------0-------------------0-----------0--------------|
A|----------------------------------------------------------------|
E|-0h3---------0h3-----------------0h3---------0h3----------------|
 |                                                                |
e|-----15------15------15------15------15------15-----15----------|
B|-----15--12--15------15--12--15------15--12--15-----15-17p15p12-| 
G|-12--------------12--------------12--------------12-------------|
D|----------------------------------------------------------------|
A|----------------------------------------------------------------|
E|----------------------------------------------------------------|

   D               C9              G
e|---------2------------------------------------------------------|x3
B|---------3---------------3---------------3--------------3-------|
G|-----2-------2-----------0---------------0----------0h2---------|
D|-0-------------------2-------2-------0-----------0--------------|
A|-----------------3----------------------------------------------|
E|---------------------------------0h3---------0h3----------------|
 |                                                                |
e|-----15------15------15------15------15------15-----15----------|
B|-----15--12--15------15--12--15------15--12--15-----15-17p15p12-| 
G|-12--------------12--------------12--------------12-------------|
D|----------------------------------------------------------------|
A|----------------------------------------------------------------|
E|----------------------------------------------------------------|
The only thing that ever made sense to me
Is the words to a song from an American movie
The only thing that ever made sense in my life
 
   Bm                              C9
e|-------------------------------------------------3-------0------|x1
B|-----------------3-----------------------------------3-------3--|
G|---------4-----------4-------4-----------0----------------------|
D|-----4-------4-----------4-----------2-------2------------------|
A|-2-------------------------------0h3----------------------------|
E|----------------------------------------------------------------|
 |                                                                |
e|-----15------15------15------15------15------15------15---------|
B|-----15--12--15--12--15--12--15------15--12--15--12--15--12--15-| 
G|-12------------------------------12-----------------------------|
D|----------------------------------------------------------------|
A|----------------------------------------------------------------|
E|----------------------------------------------------------------|
Is the sound of my little girl laughing through the window of a summer night

   G
e|----------------------------------------------------------------|x1
B|---------3---------------3---------------3--------------3-------|
G|---------0---------------0---------------0--------------0-------|
D|-----0-------0-------0-------0-------0-------0------0------0----|
A|----------------------------------------------------------------|
E|-0h3-------------0h3-------------0h3-------------0h3------------|
 |                                                                |
e|-----15--------------15--------------15-------------15----------|
B|-----15-17p15p12-----15-17p15p12-----15-17p15p12----15-17p15p12-|
G|-12--------------12--------------12--------------12-------------|
D|----------------------------------------------------------------|
A|----------------------------------------------------------------|
E|----------------------------------------------------------------|
I sit alone in the back yard wishing I could be inside

   Bm                              C9
e|-------------------------------------------------3-x------------|x1
B|-----------------3-------------------------------3-x------------|
G|---------4-----------4-------4-----------0----------------------|
D|-----4-------4-----------4-----------2-------2------------------|
A|-2-------------------------------0h3----------------------------|
E|----------------------------------------------------------------|
 |                                                                |
e|-----15------15------15------15------15------15-----------------|
B|-----15--12--15--12--15--12--15------15--12--15--12-x-----------| 
G|-12------------------------------12-----------------------------|
D|----------------------------------------------------------------|
A|----------------------------------------------------------------|
E|----------------------------------------------------------------|
Just the sound of my little girl laughing makes me happy to be alive.

   G
e|----------------------------------------------------------------|x3
B|---------3-----------3--5b-5p3-----------3----------3---5b-5p3--|
G|---------0-----------0-------------------0----------0-----------|
D|-----0-----------0-------------------0-----------0--------------|
A|----------------------------------------------------------------|
E|-0h3---------0h3-----------------0h3---------0h3----------------|
 |                                                                |
e|-----15------15------15--------------15------15-----15----------|
B|-----15--12--15------15-17p15p12-----15--12--15-----15-17p15p12-|
G|-12--------------12--------------12--------------12-------------|
D|----------------------------------------------------------------|
A|----------------------------------------------------------------|
E|----------------------------------------------------------------|
     Makes me happy just to be alive
     Makes me happy just to be alive
     Makes me happy just to be alive

   G
e|----------------------------------------------------------------|x1
B|---------3-----------3--5--3--0---------------------------------|
G|---------0-----------0-----------0------------------------------|
D|-----0-----------0----------------------------------------------|
A|----------------------------------------------------------------|
E|-0h3---------0h3------------------------------------------------|
 |                                                                |
e|-----15------15------15-----------------------------------------|
B|-----15--12--15------15-17p15p12--------------------------------|
G|-12--------------12--------------12-----------------------------|
D|----------------------------------------------------------------|
A|----------------------------------------------------------------|
E|----------------------------------------------------------------|\


Here We Go Again
               
e|-----------------------------------------------|
B|----------6--x-x-x-x-x-x-x-x-x-x-x-x-x---------|
G|--3h5--3--5--x-x-x-x-x-x-x-x-x-x-x-x-x---------|
D|--------------(scratching with a wah-wah)------|
A|-----------------------------------------------|
E|-----------------------------------------------|

!NOTE! - this part below is WRONG. For the correct part, see the suggestions
at the bottom of the tab. Thanks to all those who pointed it out.
    C                                      C#   
e|-----------------------------------------------|
B|-----------------------------------------------|
G|--5--5-------5--5-------5--5-------5--5--6-----|
D|--5--5-------5--5-------5--5-------5--5--6-----|
A|--3--3-------3--3-------3--3-------3--3--4-----|
E|-----------------------------------------------|

   C                C#      C
e|--------------------------0---------------------|
B|--------------------------1---------------------|
G|-5--5-------5--5--6-------0---------------------|
D|-5--5-------5--5--6-------2---------------------|
A|-3--3-------3--3--4-------3---------------------|
E|------------------------------------------------|
                             Ohhhhhh......

    C                                      C#   
e|-----------------------------------------------| x3
B|-----------------------------------------------|
G|--5--5-------5--5-------5--5-------5--5--6-----|
D|--5--5-------5--5-------5--5-------5--5--6-----|
A|--3--3-------3--3-------3--3-------3--3--4-----|
E|-----------------------------------------------|
Oh, you know I like to watch you sleep
No, I don't wanna touch you
You'll get mad at me
No, I don't wanna think about the bad times
Oh, anyone can have a bad year

    C                                    B   A  
e|-----------------------------------------------| 
B|-----------------------------------------------|
G|--5--5-------5--5-------5--5-------5---4---2---|
D|--5--5-------5--5-------5--5-------5---4---2---|
A|--3--3-------3--3-------3--3-------3---2---0---|
E|-----------------------------------------------|
 |                                               |
e|-----------------------------------------------|
B|-----------------------------------13--12--10--|
G|-----------------------------------------------|
D|-------------------------------------10--10--10|
A|-----------------------------------------------|
E|-----------------------------------------------|
             Now I don't want you to show me

      A   G   F 
e|-----------------------------------------------|
B|-----------------------------------------------|
G|-----------------------------------------------|
D|----7---5---3----------------------------------|
A|----7---5---3----------------------------------|
E|----5---3---1----------------------------------|
 |                                               |
e|-----------------------------------------------|
B|-8--10--8---6--------1-3-4-4-4p3---------------|
G|-----------------2-----------------------------|
D|-----------------------------------------------|
A|-----------------------------------------------|
E|-----------------------------------------------|   
  Do not want you to know me     The way I used to be

    C                                    B   A  
e|-----------------------------------------------| 
B|-----------------------------------------------|
G|--5--5-------5--5-------5--5-------5---4---2---|
D|--5--5-------5--5-------5--5-------5---4---2---|
A|--3--3-------3--3-------3--3-------3---2---0---|
E|-----------------------------------------------|
 |                                               |
e|-----------------------------------------------|
B|-----------------------------------13--12--10--|
G|-----------------------------------------------|
D|-------------------------------------10--10--10|
A|-----------------------------------------------|
E|-----------------------------------------------|
     All these good things we have would not mean a damn to me

      A   G   F 
e|-----------------------------------------------|
B|-----------------------------------------------|
G|-----------------------------------------------|
D|----7---5---3----------------------------------|
A|----7---5---3----------------------------------|
E|----5---3---1----------------------------------|
 |                                               |
e|-----------------------------------------------|
B|-8--10--8---6--------1-3-4-4-4p3---------------|
G|-----------------2-----------------------------|
D|-----------------------------------------------|
A|-----------------------------------------------|
E|-----------------------------------------------|   
I don't wanna hear those words you feel you have to say

   C                C#      C
e|--------------------------0---------------------|
B|--------------------------1---------------------|
G|-5--5-------5--5--6-------0---------------------|
D|-5--5-------5--5--6-------2---------------------|
A|-3--3-------3--3--4-------3---------------------|
E|------------------------------------------------|
When you find out how I used to be back in the day

    C                                      C#   
e|-----------------------------------------------| x3
B|-----------------------------------------------|
G|--5--5-------5--5-------5--5-------5--5--6-----|
D|--5--5-------5--5-------5--5-------5--5--6-----|
A|--3--3-------3--3-------3--3-------3--3--4-----|
E|-----------------------------------------------|
Yea, you know I like the way you slide
Yes, I like it when you do that slow glide
Please don't bad talk all those good times
Don't ask for answers baby 

    C                                    B   A  
e|-----------------------------------------------| 
B|-----------------------------------------------|
G|--5--5-------5--5-------5--5-------5---4---2---|
D|--5--5-------5--5-------5--5-------5---4---2---|
A|--3--3-------3--3-------3--3-------3---2---0---|
E|-----------------------------------------------|
 |                                               |
e|-----------------------------------------------|
B|-----------------------------------13--12--10--|
G|-----------------------------------------------|
D|-------------------------------------10--10--10|
A|-----------------------------------------------|
E|-----------------------------------------------|
  That you do not wanna hear     I don't want you to make me

      A   G   F 
e|-----------------------------------------------|
B|-----------------------------------------------|
G|-----------------------------------------------|
D|----7---5---3----------------------------------|
A|----7---5---3----------------------------------|
E|----5---3---1----------------------------------|
 |                                               |
e|-----------------------------------------------|
B|-8--10--8---6--------1-3-4-4-4p3---------------|
G|-----------------2-----------------------------|
D|-----------------------------------------------|
A|-----------------------------------------------|
E|-----------------------------------------------|   
Do not need you to break me of all my childish ways

    C                                    B   A  
e|-----------------------------------------------| 
B|-----------------------------------------------|
G|--5--5-------5--5-------5--5-------5---4---2---|
D|--5--5-------5--5-------5--5-------5---4---2---|
A|--3--3-------3--3-------3--3-------3---2---0---|
E|-----------------------------------------------|
 |                                               |
e|-----------------------------------------------|
B|-----------------------------------13--12--10--|
G|-----------------------------------------------|
D|-------------------------------------10--10--10|
A|-----------------------------------------------|
E|-----------------------------------------------|
I'm still the same you know. Dumb rock hard and good you go..
I still hear the voices calling me from

      A   G   F 
e|-----------------------------------------------|
B|-----------------------------------------------|
G|-----------------------------------------------|
D|----7---5---3----------------------------------|
A|----7---5---3----------------------------------|
E|----5---3---1----------------------------------|
 |                                               |
e|-----------------------------------------------|
B|-8--10--8---6--------1-3-4-4-4p3---------------|
G|-----------------2-----------------------------|
D|-----------------------------------------------|
A|-----------------------------------------------|
E|-----------------------------------------------|   
  Back in the day

   C                C#      C
e|--------------------------0---------------------|
B|--------------------------1---------------------|
G|-5--5-------5--5--6-------0---------------------|
D|-5--5-------5--5--6-------2---------------------|
A|-3--3-------3--3--4-------3---------------------|
E|------------------------------------------------|
Oh baby can't you see there ain't no place I'd rather be

   F                G 
e|-----------------------------------------------|
B|-----------------------------------------------|
G|-----------------------------------------------|
D|-3-3-3-3-3-3-3-3--5-5-5-5-5-5-5-5-5------------|
A|-3-3-3-3-3-3-3-3--5-5-5-5-5-5-5-5-5------------|
E|-1-1-1-1-1-1-1-1--3-3-3-3-3-3-3-3-3------------|
Then watching dirty movies in that happy room with you

   C           B    A
e|-----------------------------------------------|
B|-----------------------------------------------|
G|-5-5-5-5-5-5-4-4--2-2-2-2-2-2-2-2-2------------|
D|-5-5-5-5-5-5-4-4--2-2-2-2-2-2-2-2-2------------|
A|-3-3-3-3-3-3-2-2--0-0-0-0-0-0-0-0-0------------|
E|-----------------------------------------------|
  Sittin' on my mattress in the corner, eating chinese food

   F                G 
e|-----------------------------------------------|
B|-----------------------------------------------|
G|-----------------------------------------------|
D|-3-3-3-3-3-3-3-3--5-5-5-5-5-5-5-5-5------------|
A|-3-3-3-3-3-3-3-3--5-5-5-5-5-5-5-5-5------------|
E|-1-1-1-1-1-1-1-1--3-3-3-3-3-3-3-3-3------------|
   I hear that voice in my head say here we go again

    C                                      C#   
e|-----------------------------------------------|
B|-----------------------------------------------|
G|--5--5-------5--5-------5--5-------5--5--6-----|
D|--5--5-------5--5-------5--5-------5--5--6-----|
A|--3--3-------3--3-------3--3-------3--3--4-----|
E|-----------------------------------------------|
                         Now here we go again

   C                C#      C
e|--------------------------0---------------------|
B|--------------------------1---------------------|
G|-5--5-------5--5--6-------0---------------------|
D|-5--5-------5--5--6-------2---------------------|
A|-3--3-------3--3--4-------3---------------------|
E|------------------------------------------------|
                               I know you like the way I rock

    C                                      C#   
e|-----------------------------------------------| x3
B|-----------------------------------------------|
G|--5--5-------5--5-------5--5-------5--5--6-----|
D|--5--5-------5--5-------5--5-------5--5--6-----|
A|--3--3-------3--3-------3--3-------3--3--4-----|
E|-----------------------------------------------|
 |					         |
e|-----------------------------------------------|
B|------7p5--------------------------------------|
G|---------8p5-----------------------------------|
D|-----------------------------------------------|
A|-----------------------------------------------|
E|-----------------------------------------------|

Sometimes I just need to drown out all the bad talk
I could not care less what your friends say
Someone's always talking shit 

    C                                    B   A  
e|-----------------------------------------------| 
B|-----------------------------------------------|
G|--5--5-------5--5-------5--5-------5---4---2---|
D|--5--5-------5--5-------5--5-------5---4---2---|
A|--3--3-------3--3-------3--3-------3---2---0---|
E|-----------------------------------------------|
 |                                               |
e|-----------------------------------------------|
B|-----------------------------------13--12--10--|
G|-----------------------------------------------|
D|-------------------------------------10--10--10|
A|-----------------------------------------------|
E|-----------------------------------------------|
	about the old day            You do not need to remind me

      A   G   F 
e|-----------------------------------------------|
B|-----------------------------------------------|
G|-----------------------------------------------|
D|----7---5---3----------------------------------|
A|----7---5---3----------------------------------|
E|----5---3---1----------------------------------|
 |                                               |
e|-----------------------------------------------|
B|-8--10--8---6--------1-3-4-4-4p3---------------|
G|-----------------2-----------------------------|
D|-----------------------------------------------|
A|-----------------------------------------------|
E|-----------------------------------------------|   
  That I left it all behind me  those things I used to do

    C                                    B   A  
e|-----------------------------------------------| 
B|-----------------------------------------------|
G|--5--5-------5--5-------5--5-------5---4---2---|
D|--5--5-------5--5-------5--5-------5---4---2---|
A|--3--3-------3--3-------3--3-------3---2---0---|
E|-----------------------------------------------|
 |                                               |
e|-----------------------------------------------|
B|-----------------------------------13--12--10--|
G|-----------------------------------------------|
D|-------------------------------------10--10--10|
A|-----------------------------------------------|
E|-----------------------------------------------|
 I don't want that older life cause I am so in love with you

      A   G   F 
e|-----------------------------------------------|
B|-----------------------------------------------|
G|-----------------------------------------------|
D|----7---5---3----------------------------------|
A|----7---5---3----------------------------------|
E|----5---3---1----------------------------------|
 |                                               |
e|-----------------------------------------------|
B|-8--10--8---6--------1-3-4-4-4p3---------------|
G|-----------------2-----------------------------|
D|-----------------------------------------------|
A|-----------------------------------------------|
E|-----------------------------------------------|   
  I can barely hear it calling me from back in the day

   C                C#      C
e|--------------------------0---------------------|
B|--------------------------1---------------------|
G|-5--5-------5--5--6-------0---------------------|
D|-5--5-------5--5--6-------2---------------------|
A|-3--3-------3--3--4-------3---------------------|
E|------------------------------------------------|
Oh baby can't you see there ain't no place I'd rather be

   F                G 
e|-----------------------------------------------|
B|-----------------------------------------------|
G|-----------------------------------------------|
D|-3-3-3-3-3-3-3-3--5-5-5-5-5-5-5-5-5------------|
A|-3-3-3-3-3-3-3-3--5-5-5-5-5-5-5-5-5------------|
E|-1-1-1-1-1-1-1-1--3-3-3-3-3-3-3-3-3------------|
Then watching dirty movies in that happy room with you

   C           B    A
e|-----------------------------------------------|
B|-----------------------------------------------|
G|-5-5-5-5-5-5-4-4--2-2-2-2-2-2-2-2-2------------|
D|-5-5-5-5-5-5-4-4--2-2-2-2-2-2-2-2-2------------|
A|-3-3-3-3-3-3-2-2--0-0-0-0-0-0-0-0-0------------|
E|-----------------------------------------------|
  Sittin' on my mattress in the corner, eating chinese food

   F                G 
e|-----------------------------------------------|
B|-----------------------------------------------|
G|-----------------------------------------------|
D|-3-3-3-3-3-3-3-3--5-5-5-5-5-5-5-5-5------------|
A|-3-3-3-3-3-3-3-3--5-5-5-5-5-5-5-5-5------------|
E|-1-1-1-1-1-1-1-1--3-3-3-3-3-3-3-3-3------------|
   I hear that voice in my head say here we go again

    C                                      C#   
e|-----------------------------------------------|
B|-----------------------------------------------|
G|--5--5-------5--5-------5--5-------5--5--6-----|
D|--5--5-------5--5-------5--5-------5--5--6-----|
A|--3--3-------3--3-------3--3-------3--3--4-----|
E|-----------------------------------------------|
 |                                               |
e|-----------------------------------------4-3---|
B|-----------------------------------------6-5---|
G|-----------------------------------------6-5---|
D|-----------------------------------------------|
A|-----------------------------------------------|
E|-----------------------------------------------|
                                    Yeah here we go again

    C                                      C#   
e|-----------------------------------------------| x2
B|-----------------------------------------------|
G|--5--5-------5--5-------5--5-------5--5--6-----|
D|--5--5-------5--5-------5--5-------5--5--6-----|
A|--3--3-------3--3-------3--3-------3--3--4-----|
E|-----------------------------------------------|
 |                                               |
e|-----------------------------------------4-3---|
B|------7p5--------------------------------6-5---|
G|---------8p5-----------------------------6-5---|
D|-----------------------------------------------|
A|-----------------------------------------------|
E|-----------------------------------------------|
						Oh baby, here we go again
   I know, I know, I know, I know

   C
e|-----------------------------------------------|
B|-----------------------------------------------|
G|-5-5-5-5-5-5-5-5-5-----------------------------|
D|-5-5-5-5-5-5-5-5-5-----------------------------|
A|-3-3-3-3-3-3-3-3-3-----------------------------|
E|-----------------------------------------------|
   I know....    Oh baby, baby can't you see

   F                G 
e|-----------------------------------------------|
B|-----------------------------------------------|
G|-----------------------------------------------|
D|-3-3-3-3-3-3-3-3--5-5-5-5-5-5-5-5-5------------|
A|-3-3-3-3-3-3-3-3--5-5-5-5-5-5-5-5-5------------|
E|-1-1-1-1-1-1-1-1--3-3-3-3-3-3-3-3-3------------|
Yes I know you have some doubts I know you don't believe

   C           B    A
e|-----------------------------------------------|
B|-----------------------------------------------|
G|-5-5-5-5-5-5-4-4--2-2-2-2-2-2-2-2-2------------|
D|-5-5-5-5-5-5-4-4--2-2-2-2-2-2-2-2-2------------|
A|-3-3-3-3-3-3-2-2--0-0-0-0-0-0-0-0-0------------|
E|-----------------------------------------------|
I know you think I'm crazy and I know you're just like me  

   F                G 
e|-----------------------------------------------|
B|-----------------------------------------------|
G|-----------------------------------------------|
D|-3-3-3-3-3-3-3-3--5-5-5-5-5-5-5-5-5------------|
A|-3-3-3-3-3-3-3-3--5-5-5-5-5-5-5-5-5------------|
E|-1-1-1-1-1-1-1-1--3-3-3-3-3-3-3-3-3------------|
When I hear that voice inside me makes me wanna jump right in

    C                                         
e|-----------------------------------------------| 
B|-----------------------------------------------|
G|--5--5-------5--5-------5--5--5--5--5--5--5--5-|
D|--5--5-------5--5-------5--5--5--5--5--5--5--5-|
A|--3--3-------3--3-------3--3--3--3--3--3--3--3-|
E|-----------------------------------------------|
Say here we go, here we go, here we go, here we go again

   F                G 
e|-----------------------------------------------|
B|-----------------------------------------------|
G|-----------------------------------------------|
D|-3-3-3-3-3-3-3-3--5-5-5-5-5-5-5-5-5------------|
A|-3-3-3-3-3-3-3-3--5-5-5-5-5-5-5-5-5------------|
E|-1-1-1-1-1-1-1-1--3-3-3-3-3-3-3-3-3------------|
Lets go watch some dirty movies, yes, in that nasty little room

   C           B    A
e|-----------------------------------------------|
B|-----------------------------------------------|
G|-5-5-5-5-5-5-4-4--2-2-2-2-2-2-2-2-2------------|
D|-5-5-5-5-5-5-4-4--2-2-2-2-2-2-2-2-2------------|
A|-3-3-3-3-3-3-2-2--0-0-0-0-0-0-0-0-0------------|
E|-----------------------------------------------|
Sit there on the mattress while we eat that greasy Chinese food

   F                G 
e|-----------------------------------------------|
B|-----------------------------------------------|
G|-----------------------------------------------|
D|-3-3-3-3-3-3-3-3--5----------------------------|
A|-3-3-3-3-3-3-3-3--5----------------------------|
E|-1-1-1-1-1-1-1-1--3----------------------------|
I hear that voice in my head say here we go again

    C                                      C#   
e|-----------------------------------------------| x2
B|-----------------------------------------------|
G|--5--5-------5--5-------5--5-------5--5--6-----|
D|--5--5-------5--5-------5--5-------5--5--6-----|
A|--3--3-------3--3-------3--3-------3--3--4-----|
E|-----------------------------------------------|
 |                                               |
e|-----------------------------------------4-3---|
B|-----------------------------------------6-5---|
G|-----------------------------------------6-5---|
D|-----------------------------------------------|
A|-----------------------------------------------|
E|-----------------------------------------------|                     
    Ohh...                      Baby here we go again

e|-----------3/----------------------------------|
B|-----------5/----------------------------------|
G|-----------5/----------------------------------|
D|-----------------------------------------------|
A|-----------------------------------------------|
E|-----------------------------------------------|


AM Radio

"KHJ Los Angeles. Portions of the day's programming are 
reproduced by means of electrical transcription or tape recordings."

    D#              G#       A#  G#
e|--3--3--3--3-3-3--4--4--4--6-6-4-4----| x2 
B|--4--4--4--4-4-4--4--4--4--4-4-4-4----|
G|--------------------------------------|
D|--------------------------------------|
A|--------------------------------------|
E|--------------------------------------|

    D#             G#    A#  G#  
e|--------------6--4--4--6-6-4-4---| x2
B|--8--8--8-8-8-8--4--4--6-6-4-4---|
G|--8--8--8-8-8-8--5--5--7-7-5-5---|
D|--8--8--8-8-8--------------------|
A|---------------------------------|
E|---------------------------------|
 |                                 |
e|-11--11--11--11--11--11--11--11--|
B|---------------------------------|
G|---------------------------------|
D|---------------------------------|
A|---------------------------------|
E|---------------------------------|

    D#             G#    A#  G#  
e|--------------6--4--4--6-6-4-4---| x4
B|--8--8--8-8-8-8--4--4--6-6-4-4---|
G|--8--8--8-8-8-8--5--5--7-7-5-5---|
D|--8--8--8-8-8--------------------|
A|---------------------------------|
E|---------------------------------|
A VCR and a DVD 
There wasn't none of that crap back in 1970
We didn't know about a world wide web
It was a whole different game being played 
Back when I was a kid
You wanna get down in a cool way? 
Picture yourself on a beautiful day
With the big bell bottoms and groovy long hair
Just a walking in style with a portable CD player

    D#             G#    A#  G#  
e|--------------6--4--4--6-6-4-4---| x2
B|--8--8--8-8-8-8--4--4--6-6-4-4---|
G|--8--8--8-8-8-8--5--5--7-7-5-5---|
D|--8--8--8-8-8--------------------|
A|---------------------------------|
E|---------------------------------|
 |                                 |
e|--11--11--11--11--11--11--11--11-|
B|---------------------------------|
G|---------------------------------|
D|---------------------------------|
A|---------------------------------|
E|---------------------------------|
No you listen to the music on the AM radio
Yea, you can hear the music on the AM radio

    D#             G#    A#  G#  
e|--------------6--4--4--6-6-4-4---| x4
B|--8--8--8-8-8-8--4--4--6-6-4-4---|
G|--8--8--8-8-8-8--5--5--7-7-5-5---|
D|--8--8--8-8-8--------------------|
A|---------------------------------|
E|---------------------------------|
Flash back to '72
Another summer in the neighbrohood
Hanging out with nothing to do
Sometimes we go driving around in my sister's Pinto
Crusing with the windows rolled down
We listen to the radio station
We were too damn poor to buy the 8-track tapes
But it was a good time don't wanna be inside
My momma wanna watch that TV
All God damn night
   
   C           F       G#      A#
   ^  ^  ^  ^  ^ ^ ^ ^ ^ ^ ^ ^ ^
e|----------------------------------------|
B|----------------------------------------|
G|----------------------------------------|
D|-10-10-10-10-3-3-3-3-6-6-6-6-8----------|
A|-10-10-10-10-3-3-3-3-6-6-6-6-8----------|
E|-8--8--8--8--1-1-1-1-4-4-4-4-6----------|
I'd be in bed with the radio on
I would listen to it all night long
Just to hear my favorite song
You'd have to wait but you could hear it on the AM radio

    D#             G#    A#  G#  
e|--------------6--4--4--6-6-4-4---| x2
B|--8--8--8-8-8-8--4--4--6-6-4-4---|
G|--8--8--8-8-8-8--5--5--7-7-5-5---|
D|--8--8--8-8-8--------------------|
A|---------------------------------|
E|---------------------------------|
 |                                 |
e|--11--11--11--11--11--11--11--11-|
B|---------------------------------|
G|---------------------------------|
D|---------------------------------|
A|---------------------------------|
E|---------------------------------|
AM radio
Yea, you could hear the music
On the AM radio
I can still hear momma say
"Boy turn that radio down!"

e|-------------------------------6-8-------8-6-------|
B|------------6-8----------8-6-8-----8-8-------8-6---|
G|---5-8-5-8------8-8----8-------------------------5-|
D|-8-------------------------------------------------|
A|---------------------------------------------------|
E|---------------------------------------------------|
 "Oh Mom, not that show again. I don't wanna watch that show. 
Can't we watch Good Times with Chico and the Man or something cool? 
Turn it off!"

    D#             G#    A#  G#  
e|--------------6--4--4--6-6-4-4---| x2
B|--8--8--8-8-8-8--4--4--6-6-4-4---|
G|--8--8--8-8-8-8--5--5--7-7-5-5---|
D|--8--8--8-8-8--------------------|
A|---------------------------------|
E|---------------------------------|
Things changed back in '75
We were all growing up on the in and the outside
We got in trouble with the police man
We got busted for getting high 
In the back of my friend's van

    D#             G#    A#  G#  
e|--------------6--4--4--6-6-4-4---| x1
B|--8--8--8-8-8-8--4--4--6-6-4-4---|
G|--8--8--8-8-8-8--5--5--7-7-5-5---|
D|--8--8--8-8-8--------------------|
A|---------------------------------|
E|---------------------------------|
 |    ^  ^  ^  ^  ^  ^  ^  ^  ^    |
e|---------------------------------| 
B|---------------------------------|
G|----8--8--8--8--8--8--8--8--8----|
D|----8--8--8--8--8--8--8--8--8----|
A|----6--6--6--6--6--6--6--6--6----|
E|---------------------------------|
I remember 1977 
I started going to concerts
And I saw the Led Zeppelin

    D#             G#    A#  G#  
e|--------------6--4--4--6-6-4-4---| x1
B|--8--8--8-8-8-8--4--4--6-6-4-4---|
G|--8--8--8-8-8-8--5--5--7-7-5-5---|
D|--8--8--8-8-8--------------------|
A|---------------------------------|
E|---------------------------------|
 |    ^  ^  ^  ^      full         |
e|------------------16b-----11-11b-| 
B|---------------------------------|
G|----8--8--8--8-------------------|
D|----8--8--8--8-------------------|
A|----6--6--6--6-------------------|
E|---------------------------------|
I got a guitar on Christmas Day
I dreamed that Jimmy Page would come to Santa Monica and teach me to play

   C                               F
e|-----------------------------------------------------------------|
B|-----------------------------------------------------------------|
G|-----------------------------------------------------------------|
D|-10------10------10------10------3-------3-------3-------3-------|
A|-10------10------10------10------3-------3-------3-------3-------|
E|-8-------8-------8-------8-------1-------1-------1-------1-------|
 |                                                                 |
e|-------10-11b-11-------10-11b-11-------10-11b-11-------10-11b-11-| 
B|-11h13-----------11h13-----------11h13-----------11h13-----------|
G|-----------------------------------------------------------------|
D|-----------------------------------------------------------------|
A|-----------------------------------------------------------------|
E|-----------------------------------------------------------------|
Teach me to play  Jimmy Page    

   G#
e|-----------------------------------------------------------------|
B|-----------------------------------------------------------------|
G|-----------------------------------------------------------------|
D|-6-------6-------6-------6-------6-------6-------6-------6-------|
A|-6-------6-------6-------6-------6-------6-------6-------6-------|
E|-4-------4-------4-------4-------4-------4-------4-------4-------|
 |                                                                 |
e|-------10-11b-11-------10-11b-11-------10-11b-11------11------11-| 
B|-11h13-----------11h13-----------11h13-----------11h13---11h13---|
G|-----------------------------------------------------------------|
D|-----------------------------------------------------------------|
A|-----------------------------------------------------------------|
E|-----------------------------------------------------------------|
Teach me to play  Teach me to play

   C           F       G#      A#
e|------------------------------------|
B|------------------------------------|
G|------------------------------------|
D|-10-10-10-10-3-3-3-3-6-6-6-6-8-8----|
A|-10-10-10-10-3-3-3-3-6-6-6-6-8-8----|
E|-8--8--8--8--1-1-1-1-4-4-4-4-6-6----|
 |                                    |
e|-11b-11b-11b-11b-11b-11b-11b-11b----|
B|------------------------------------|
G|------------------------------------|
D|------------------------------------|
A|------------------------------------|
E|------------------------------------|
There isn't any other place that I need to go
There isn't anything that I need to know
That I did not learn from the radio

             D#
e|-----------------------------------------------|
B|-----------------------------------------------|
G|-----------6/-/--------------------------------|
D|-----------6/-/--------------------------------|
A|-----------4/-/--------------------------------|
E|-----------------------------------------------|
 |                                               |
e|-----------------------\14-14-14-14-14-14-14-x-|
B|-----------------------------------------------|
G|-----------------------\11-11-11-11-11-11-11-x-|
D|-----------------------------------------------|
A|-----------------------------------------------|
E|-----------------------------------------------|
                                               Ha ha ha 

                                     A#  G#  
e|-----------------------------------6-6-4-4-----|
B|-----------------------------------6-6-4-4-----|
G|-----------------------------------7-7-5-5-----|
D|-----------------------------------------------|
A|-----------------------------------------------|
E|-----------------------------------------------|
            Yeah, when things gets stupid and I just don't know

    D#             G#    A#  G#  
e|--------------6--x-x-x-6-6-4-4---| x6
B|--8--8--x-x-x-8--x-x-x-6-6-4-4---|
G|--8--8--x-x-x-8--x-x-x-7-7-5-5---|
D|--8--8--x-x-x--------------------|
A|---------------------------------|
E|---------------------------------|
   When I find my happy
I listen to the music on the AM Radio
You can hear the music on the AM Radio
I like pop, I like soul, I like rock, but I never liked disco 
We like pop, we like soul, we like rock, but we never liked disco 

    D#             G#    A#  G#  
e|--------------6--4--4--6-6-4-4---| x4
B|--8--8--8-8-8-8--4--4--6-6-4-4---|
G|--8--8--8-8-8-8--5--5--7-7-5-5---|
D|--8--8--8-8-8--------------------|
A|---------------------------------|
E|---------------------------------|
 |                                 |
e|-11--11--11--11--11--11--11--11--|
B|---------------------------------|
G|---------------------------------|
D|---------------------------------|
A|---------------------------------|
E|---------------------------------|
We like pop, we like soul, we like rock, but we never liked disco 
We like pop, we like soul, we like rock, but we never liked disco 
AM Radio... No we never liked disco 
AM Radio... No we never liked disco 
AM Radio... No we never liked disco 
AM Radio... No we never liked disco 

    D#             G#    A#  G#  
e|--------------6--4--4--6-6-4-4---| x4
B|--8--8--8-8-8-8--4--4--6-6-4-4---|
G|--8--8--8-8-8-8--5--5--7-7-5-5---|
D|--8--8--8-8-8--------------------|
A|---------------------------------|
E|---------------------------------|
 |                                 |
e|-------11-11b-11--16b-16p14-16b--|
B|-11h13---------------------------|
G|---------------------------------|
D|---------------------------------|
A|---------------------------------|
E|---------------------------------|

Suggestion from Mike (LeadGtr4FB@aol.com)

 The one thing I saw that could be more accurate is the intro for AM Radio. 
The way you had it seemed easier but sounds better when played like this.

e|-7---7-----7-----7-----5--5--5---7-7--5-5----|
B|-9---9-9---9-9---9-9---5--5--5---9-9--7-7----|
G|-9---9-9---9-9---9-9---6--6--6---8-8--6-6----|
D|-----9-----9-----9---------------------------|
A|---------------------------------------------|
E|---------------------------------------------|

This is repeated a few times during the intro but also at some random times
during the rest of the song.

Brown Eyed Girl

(No guitar) 
Sha la la la la la la la la la la la
Sha la la la la la la la la la la la

   G               C               G               D   
e|---------3---------------3---------------3---------------3-2-0---|
B|-----3-----3---3-----1-----1---1-----3-----3---3-----3---------3-|
G|---0---0-----0-----0---0-----0-----0---0-----0-----2---2---------|
D|-------------------------------------------------0---------------|
A|-----------------3-----------------------------------------------|
E|-3-------------------------------3-------------------------------|
 |                                                                 |
 |bass                                                             |
G|-----------------------------------------------------------------|
D|-------------------0-2-0-------------------------0---4-5---------|
A|---0-2-0---------3-------3---------0-2-0-------------------------|
E|-3-------3-----------------------3-------3-----------------------|
     I hear a song makes me think about a girl I used to know
     I sing along when I hear it on the radio now

   G               C               G               D   
e|--------------------------------------3--------------------------|
B|--------------------------------------3--------------------------|
G|------------------------------------4---4------------------------|
D|-----------------------------------------------------------------|
A|-----------------------------------------------------------------|
E|---------------------------------3-------------------------------|
 |                                                                 |
 |bass                                                             |
G|-----------------------------------------------------------------|
D|-------------------------------------------------0---------------|
A|-----------------3-----------------------------------------------|
E|-3-------------------------------3-------------------------------|
   Hey, now here we go   days when the rain came
 
   G               C               G               D   
e|-----3--------------------------------3--------------------------|
B|-----3--------------------------------3--------------------------|
G|---4---4----------------------------4---4------------------------|
D|-----------------------------------------------------------------|
A|-----------------------------------------------------------------|
E|-3-------------------------------3-------------------------------|
 |                                                                 |
 |bass                                                             |
G|-----------------------------------------------------------------|
D|-------------------------------------------------0---------------|
A|-----------------3-----------------------------------------------|
E|-3-------------------------------3-------------------0-0h2-------|
   Way down in  the hollow    yeah, playing a new game
 
   G               C               G                D 
e|---------3---------------8---------------3---------------10-------|
B|-----3-----3---3-----8-----8---8-----3-----3---3-----10----11--11-|
G|---4---4-----4-----9---9-----9-----4---4-----4-----11--11----11---|
D|------------------------------------------------------------------|
A|------------------------------------------------------------------|
E|-3---------------8---------------3---------------10---------------|
 |                                                                  |
 |bass                                                              |
G|---------------------------------0-0-0-0--------------------------|
D|-------------------------0-2-4-------------------0-0-0-0----------|
A|-------------0-2-3-3-3--------------------2--3--------------------|
E|-3---3---3------------------------------------------------0-0-2---|
Laughing, and a running, hey, hey Skipping and a jumping 
in the misty morning fog with our hearts a thumpin' 

   C    B     D                G       E
e|-----------------------------------------------|
B|-----------------------------------------------|
G|-5----4-----7------------------------9---------|
D|-5----4-----7----------------5-------9---------|
A|-3----2-----5----------------5-------7---------|
E|-----------------------------3-----------------|
 |                                               |
G|-----------------------------------------------|
D|-------------------------------------2--0-2-0--|
A|-3----2-----5----------------------3-----------|
E|---------------------3-5-3-2-3-----------------|
  and you,  my brown eyed girl
 
   C    B     D                G    
e|-----------------------------------------------|
B|-----------------------------------------------|
G|-5----4-----7----------------------------------|
D|-5----4-----7----------------5-----------------|
A|-3----2-----5----------------5-----------------|
E|-----------------------------3-----------------|
 |                                               |
G|-----------------------------------------------|
D|-----------------------------------------------|
A|-3----2-----5----------------------------------|
E|---------------------3-5-3-2-3-----------------|
You, my brown eyed girl
 
    D
e|--------5-------5-------5-------5-------5------|
B|------7-------7-------7-------7-------7--------|
G|--7-7-----7-7-----7-7-----7-7-----7-7----------|
D|--7--------------------------------------------|
A|--5--------------------------------------------|
E|-----------------------------------------------|
 |                                               |
G|-----------------------------------------------|
D|------7-------7-------7-------7-------7--------|
A|--5-5---5-5-5---5-5-5---5-5-5---5-5-5---5------|
E|-----------------------------------------------|
   Do you remember when...                   yeah, we used to sing

   G               C               G                D 
e|-----3-----------3-----------------3--------------5---------------|
B|-----3-----------5-----------------3--------------7---------------|
G|---4-------------5-----------------4--------------7---------------|
D|-5---------------5----------------5---------------7---------------|
A|-5---------------3----------------5---------------5---------------|
E|-3-------------------------------3--------------------------------|
 |                                                                  |
 |bass                                                              |
G|------------------------------------------------------------------|
D|-------------------------0-2-0--------------------0-2-0-----------|
A|-------------0-2-3-3-3--------------------2--3-----------3-2-0----|
E|-3---3---3-----------------------3-3-3----------------------------|
Sha la la la la la la la la la la la
Sha la la la la la la la la la la la

   C    B     D         G    
e|-------------------------------------------------|
B|-------------------------------------------------|
G|-5----4-----7------------------------------------|
D|-5----4-----7---------5-5----5-5----5-5----5-5---|
A|-3----2-----5---------5-5----5-5----5-5----5-5---|
E|----------------------3-3----3-3----3-3----3-3---|
 |                                                 |
G|-------------------------------------------------|
D|-------------------------------------------------|
A|-3----2-----5----------------------------------5-|
E|----------------------3-3----3-3----3-3----3-3---|
I hear a song makes me think about a girl I used to know, Hey hey hey hey

   C    B     D         G    
e|-----------------------------------------------|
B|---------------------------------------12b-----|
G|-5----4-----7----------------------------------|
D|-5----4-----7---------5------------------------|
A|-3----2-----5---------5------------------------|
E|----------------------3------------------------|
 |                                               |
G|-----------------------------------------------|
D|-----------------------------------------------|
A|-3----2-----5----------------------------------|
E|----------------------3------------------------| 
I sing along when I hear it on the radio now

   G               C               G               D   
e|-----3--------------------------------3--------------------------|
B|-----3--------------------------------3--------------------------|
G|---4---4----------------------------4---4------------------------|
D|-----------------------------------------------------------------|
A|-----------------------------------------------------------------|
E|-3-------------------------------3-------------------------------|
 |                                                                 |
 |bass                                                             |
G|-----------------------------------------------------------------|
D|-------------------------------------------------0---------------|
A|-----------------3-----------------------------------------------|
E|-3-------------------------------3-------------------------------|
Now that the year's have gone by now that I'm all on my own

   G               C               G               D   
e|-3---------------------------------------------------------------|
B|-3---------------------------------------------------------------|
G|-0-----------------------------------------------7---------------|
D|-0-------------------------------5-5-5-5-5-5-5-5-7---------------|
A|-2-------------------------------5-5-5-5-5-5-5-5-5---------------|
E|-3-------------------------------3-3-3-3-3-3-3-3-----------------|
 |                                                                 |
 |bass                                                             |
G|-----------------------------------------------------------------|
D|-------------------------------------------------0---------------|
A|-----------------3-----------------------------------------------|
E|-3-------------------------------3-3-3-3-3-3-3-3-----------------|
I saw you just the other day my, how you have grown

   G               C               G               D   
e|---------3---------------3---------------3---------------3-2-0---|
B|-----3-----3---3-----1-----1---1-----3-----3---3-----3---------3-|
G|---0---0-----0-----0---0-----0-----0---0-----0-----2---2---------|
D|-------------------------------------------------0---------------|
A|-----------------3-----------------------------------------------|
E|-3-------------------------------3-------------------------------|
 |                                                                 |
 |bass                                                             |
G|---------------------------------0-0-0-0-------------------------|
D|-------------------------0-2-4-------------------0-0-0-0---------|
A|-------------0-2-3-3-3--------------------2--3-------------------|
E|-3---3---3-----------------------------------------------0-0-2---|

Cast my memory back there Lord sometimes I'm overcome thinkin' 'bout it.
Making love in the green grass behind the stadium

   C    B     D                G       E
e|-----------------------------------------------|
B|-----------------------------------------------|
G|-5----4-----7------------------------9---------|
D|-5----4-----7----------------5-------9---------|
A|-3----2-----5----------------5-------7---------|
E|-----------------------------3-----------------|
 |                                               |
G|-----------------------------------------------|
D|-------------------------------------2--0-2-0--|
A|-3----2-----5----------------------3-----------|
E|---------------------3-5-3-2-3-----------------|
With you, my brown eyed girl
You, my brown eyed girl
 
   C    B     D                G    
e|-----------------------------------------------|
B|-----------------------------------------------|
G|-5----4-----7----------------------------------|
D|-5----4-----7----------------5-----------------|
A|-3----2-----5----------------5-----------------|
E|-----------------------------3-----------------|
 |                                               |
G|-----------------------------------------------|
D|-----------------------------------------------|
A|-3----2-----5----------------------------------|
E|---------------------3-5-3-2-3-----------------|
You, my brown eyed girl,
    D
e|--------5-------5-------5-------5-------5------|
B|------7-------7-------7-------7-------7--------|
G|--7-7-----7-7-----7-7-----7-7-----7-7----------|
D|--7--------------------------------------------|
A|--5--------------------------------------------|
E|-----------------------------------------------|
 |                                               |
G|-----------------------------------------------|
D|------7-------7-------7-------7-------7--------|
A|--5-5---5-5-5---5-5-5---5-5-5---5-5-5---5------|
E|-----------------------------------------------|
   Do you remember when...                   yeah, we used to sing

   G               C               G                D 
e|-----3-----------3-----------------3--------------5---------------|
B|-----3-----------5-----------------3--------------7---------------|
G|---4-------------5-----------------4--------------7---------------|
D|-5---------------5----------------5---------------7---------------|
A|-5---------------3----------------5---------------5---------------|
E|-3-------------------------------3--------------------------------|
 |                                                                  |
 |bass                                                              |
G|------------------------------------------------------------------|
D|-------------------------0-2-0--------------------0-2-0-----------|
A|-------------0-2-3-3-3--------------------2--3-----------3-2-0----|
E|-3---3---3-----------------------3-3-3----------------------------|
 Sha la la la la la la la la la la la
Sha la la la la la la la la la la la

   C    B     D         G    
e|-------------------------------------------------|
B|-------------------------------------------------|
G|-5----4-----7------------------------------------|
D|-5----4-----7---------5-5----5-5----5-5----5-5---|
A|-3----2-----5---------5-5----5-5----5-5----5-5---|
E|----------------------3-3----3-3----3-3----3-3---|
 |                                                 |
G|-------------------------------------------------|
D|-------------------------------------------------|
A|-3----2-----5----------------------------------5-|
E|----------------------3-3----3-3----3-3----3-3---|
I hear a song makes me think about a girl I used to know, Hey hey hey hey
I sing along when I hear it on the radio now

   C    B     D         G    
e|-----------------------------------------------|
B|---------------------------------------12b-----|
G|-5----4-----7----------------------------------|
D|-5----4-----7---------5------------------------|
A|-3----2-----5---------5------------------------|
E|----------------------3------------------------|
 |                                               |
G|-----------------------------------------------|
D|-----------------------------------------------|
A|-3----2-----5----------------------------------|
E|----------------------3------------------------| 
I sing along when I hear it on the radio now
I sing along when I hear it on the radio now



Learning How To Smile

Strings arranged for guitar
   A#
e|-----------------------------------------------|
B|-----------------------------------------------|
G|-----------------------------------------------|
D|-----------------------------------------------|
A|-----------------------------------------------|
E|-6-6-6-6----6-6-6-6----6-6-6-6----6-6-6-6------|
 |                                               |
e|-----------------------------------------------|
B|-------------------------11-10-8-10-8----------|
G|--------------------------------------10-7~~~--|
D|-----------------------------------------------|
A|-----------------------------------------------|
E|-----------------------------------------------|
  
   A#
e|-----------------------------------------------|
B|-----------------------------------------------|
G|-----------------------------------------------|
D|-----------------------------------------------|
A|-----------------------------------------------|
E|-6-6-6-6----6-6-6-6----6-6-6-6----6-6-6-6------|
 |                                               |
e|-----------------------------------------------|
B|-----------------------------------------------|
G|--------------------------3-2-0-2-0------------|
D|----------------------3-5-----------3-0~~------|
A|-----------------------------------------------|
E|-----------------------------------------------|
 |                                               |
e|-----------------------------------------------|
B|-----------------------------------------------|
G|-----------------------------------------------|
D|-------------------------------------------/8--|
A|-------------------------------------------/8--|
E|-------------------------------------------/6--|

   A#                    A 
e|-----------------------------------------------|
B|-----------------------------------------------|
G|-----------------------------------------------|
D|-----------------------------------------------|
A|-----------------------------------------------|
E|-6-6-6-6----6-6-6-6----5-5-5-5----5-5-5-5------|
 Five miles outside of Vegas when we broke down

   G                     F
e|-----------------------------------------------|
B|-----------------------------------------------|
G|-----------------------------------------------|
D|-----------------------------------------------|
A|-----------------------------------------------|
E|-3-3-3-3----3-3-3-3----1-1-1-1----1-1-1-1------|
 |                                               |
e|-----------------------------------------------|
B|-----------------------------------------------|
G|-----------------------------------------------|
D|-------------------------------------------/8--|
A|-------------------------------------------/8--|
E|-------------------------------------------/6--|
Threw my keys inside the window and we never looked back

   A#                    A 
e|-----------------------------------------------|
B|-----------------------------------------------|
G|-----------------------------------------------|
D|-----------------------------------------------|
A|-----------------------------------------------|
E|-6-6-6-6----6-6-6-6----5-5-5-5----5-5-5-5------|
Got all drunk and sloppy on a Greyhound bus

   G                     F
e|-----------------------------------------------|
B|-----------------------------------------------|
G|-----------------------------------------------|
D|-----------------------------------------------|
A|-----------------------------------------------|
E|-3-3-3-3----3-3-3-3----1-1-1-1----1-1-1-1------|
 |                                               |
e|-----------------------------------------------|
B|-----------------------------------------------|
G|-----------------------------------------------|
D|-------------------------------------------/8--|
A|-------------------------------------------/8--|
E|-------------------------------------------/6--|
We passed out cold so all them losers, they were laughing at us

   A#
e|-----------------------------------------------|
B|-----------------------------------------------|
G|-----------------------------------------------|
D|-----------------------------------------------|
A|-----------------------------------------------|
E|-6-6-6-6----6-6-6-6----6-6-6-6----6-6-6-6------|
I will never let them break your heart

   A#
e|-----------------------------------------------|
B|-----------------------------------------------|
G|-----------------------------------------------|
D|-----------------------------------------------|
A|-----------------------------------------------|
E|-6-6-6-6----6-6-6-6----6-6-6-6----6-6-6-6------|
 |                                               |
e|-----------------------------------------------|
B|-----------------------------------------------|
G|-----------------------------------------------|
D|-------------------------------------------/8--|
A|-------------------------------------------/8--|
E|-------------------------------------------/6--|
No I will never let them break me

   A#                    A 
e|-----------------------------------------------|
B|-----------------------------------------------|
G|-----------------------------------------------|
D|-----------------------------------------------|
A|-----------------------------------------------|
E|-6-6-6-6----6-6-6-6----5-5-5-5----5-5-5-5------|
 |                                               |
e|----------6------------------------------------|
B|-----6-----------------------------------------|
G|---7---7---------------------------------------|
D|-8---------------------------------------------|
A|-----------------------------------------------|
E|-----------------------------------------------|
   We got lost in Phoenix seemed like such a long time

   G                     F
e|-----------------------------------------------|
B|-----------------------------------------------|
G|-----------------------------------------------|
D|-----------------------------------------------|
A|-----------------------------------------------|
E|-3-3-3-3----3-3-3-3----1-1-1-1----1-1-1-1------|
 |                                               |
e|----------6------------------------------------|
B|-----6-----------------------------------------|
G|---3---3---------------------------------------|
D|-5-----------------------------------------/8--|
A|-------------------------------------------/8--|
E|-------------------------------------------/6--|
Seven months of living sweaty on those thin white lines

   A#                    A 
e|-----------------------------------------------|
B|-----------------------------------------------|
G|-----------------------------------------------|
D|-----------------------------------------------|
A|-----------------------------------------------|
E|-6-6-6-6----6-6-6-6----5-5-5-5----5-5-5-5------|
 |                                               |
e|----------6------------------------------------|
B|-----6-----------------------------------------|
G|---7---7---------------------------------------|
D|-8---------------------------------------------|
A|-----------------------------------------------|
E|-----------------------------------------------|
Did some time for selling acid to the wrong guy

   G                     F
e|-----------------------------------------------|
B|-----------------------------------------------|
G|-----------------------------------------------|
D|-----------------------------------------------|
A|-----------------------------------------------|
E|-3-3-3-3----3-3-3-3----1-1-1-1----1-1-1-1------|
 |                                               |
e|----------6------------------------------------|
B|-----6-----------------------------------------|
G|---3---3---------------------------------------|
D|-5-----------------------------------------/8--|
A|-------------------------------------------/8--|
E|-------------------------------------------/6--|
Life just keeps on getting smaller and we never ask why

    D#              F
e|-----------------------------------------------|
B|-----------------------------------------------|
G|--8-8-8-8-8-8-8-8-10-10-10-10-10-10-10-10------|
D|--8-8-8-8-8-8-8-8-10-10-10-10-10-10-10-10------|
A|--6-6-6-6-6-6-6-6-8--8--8--8--8--8--8--8-------|
E|-----------------------------------------------|
Why there is no perfect place, yes I know this is true

    A#      A       G       F
e|-----------------------------------------------|
B|-----------------------------------------------|
G|-----------------------------------------------|
D|--8-8-8-8-7-7-7-7-5-5-5-5-3-3-3-3--------------|
A|--8-8-8-8-7-7-7-7-5-5-5-5-3-3-3-3--------------|
E|--6-6-6-6-5-5-5-5-3-3-3-3-1-1-1-1--------------|
  I'm just learning how to smile thats not easy to do

    D#              F
e|-----------------------------------------------|
B|-----------------------------------------------|
G|--8-8-8-8-8-8-8-8-10-10-10-10-10-10-10-10------|
D|--8-8-8-8-8-8-8-8-10-10-10-10-10-10-10-10------|
A|--6-6-6-6-6-6-6-6-8--8--8--8--8--8--8--8-------|
E|-----------------------------------------------|
I know there will come a day, when we can leave

   A# 
e|---------------------------6-------------------|
B|------------------6----------------------------|
G|-----------------------7-----------------------|
D|-8---------------------------------------------|
A|-8---------------------------------------------|
E|-6---------------------------------------------|
   And just go running away              Oh Yeah

   A#                    A 
e|-----------------------------------------------|
B|-----------------------------------------------|
G|-----------------------------------------------|
D|-----------------------------------------------|
A|-----------------------------------------------|
E|-6-6-6-6----6-6-6-6----5-5-5-5----5-5-5-5------|
 |                                               |
e|----------6------------------------------------|
B|-----6-----------------------------------------|
G|---7---7---------------------------------------|
D|-8---------------------------------------------|
A|-----------------------------------------------|
E|-----------------------------------------------|
We was broke outside of Philly when the storms came

   G                     F
e|-----------------------------------------------|
B|-----------------------------------------------|
G|-----------------------------------------------|
D|-----------------------------------------------|
A|-----------------------------------------------|
E|-3-3-3-3----3-3-3-3----1-1-1-1----1-1-1-1------|
 |                                               |
e|----------6------------------------------------|
B|-----6-----------------------------------------|
G|---3---3---------------------------------------|
D|-5-----------------------------------------/8--|
A|-------------------------------------------/8--|
E|-------------------------------------------/6--|
I was working in New Jersey hitchin' rides in the rain

   A#                    A 
e|-----------------------------------------------|
B|-----------------------------------------------|
G|-----------------------------------------------|
D|-----------------------------------------------|
A|-----------------------------------------------|
E|-6-6-6-6----6-6-6-6----5-5-5-5----5-5-5-5------|
 |                                               |
e|----------6------------------------------------|
B|-----6-----------------------------------------|
G|---7---7---------------------------------------|
D|-8---------------------------------------------|
A|-----------------------------------------------|
E|-----------------------------------------------|
You was happy talking dirty at that phone sex place

   G                     F
e|-----------------------------------------------|
B|-----------------------------------------------|
G|-----------------------------------------------|
D|-----------------------------------------------|
A|-----------------------------------------------|
E|-3-3-3-3----3-3-3-3----1-1-1-1----1-1-1-1------|
 |                                               |
e|----------6------------------------------------|
B|-----6-----------------------------------------|
G|---3---3---------------------------------------|
D|-5---------------------------------------------|
A|-----------------------------------------------|
E|-----------------------------------------------|
Life just keeps on getting wierder for us everyday

    D#              F
e|-----------------------------------------------|
B|-----------------------------------------------|
G|--8-8-8-8-8-8-8-8-10-10-10-10-10-10-10-10------|
D|--8-8-8-8-8-8-8-8-10-10-10-10-10-10-10-10------|
A|--6-6-6-6-6-6-6-6-8--8--8--8--8--8--8--8-------|
E|-----------------------------------------------|
You say there is no perfect place I say I know this is true

    A#      A       G       F
e|-----------------------------------------------|
B|-----------------------------------------------|
G|-----------------------------------------------|
D|--8-8-8-8-7-7-7-7-5-5-5-5-3-3-3-3--------------|
A|--8-8-8-8-7-7-7-7-5-5-5-5-3-3-3-3--------------|
E|--6-6-6-6-5-5-5-5-3-3-3-3-1-1-1-1--------------|
  I'm just learning how to smile that's not easy to do

    D#              F
e|-----------------------------------------------|
B|-----------------------------------------------|
G|--8-8-8-8-8-8-8-8-10-10-10-10-10-10\\----------|
D|--8-8-8-8-8-8-8-8-10-10-10-10-10-10\\----------|
A|--6-6-6-6-6-6-6-6-8--8--8--8--8--8-\\----------|
E|-----------------------------------------------|
We both live for the day when we can run away

   A#      C       D       D#  D C
e|----------------------------------------------| x4
B|----------------------------------------------|
G|-3-3-----5-5-----7-7-----8-8-7-5--------------|
D|-3-3-----5-5-----7-7-----8-8-7-5--------------|
A|-1-1-----3-3-----5-5-----6-6-5-3--------------|
E|----------------------------------------------|
 |                                              |
e|----------------------------------------------|
B|----6-8-----6-8-----6-8-----------------------|
G|----------------------------------------------|
D|----------------------------------------------|
A|----------------------------------------------|
E|----------------------------------------------|
   Oh Baby, we can leave and run away
   We can leave this place and run away
   We can leave it all behind like we do every time
   Yes we both live for the day when we can leave

   A#
e|-----------6--4-----------6--------------------|
B|-------6--------------6------------------------|
G|---------7--------------7----------------------|
D|-8---8--------------8-----------------8\\------|
A|-8------------------------------------8\\------|
E|-6------------------------------------6\\------|
   And just go running away
   No I will never let 'em break your heart
   No I will never let 'em break me

   A#                    A 
e|-----------------------------------------------|
B|-----------------------------------------------|
G|-----------------------------------------------|
D|-----------------------------------------------|
A|-----------------------------------------------|
E|-6-6-6-6----6-6-6-6----5-5-5-5----5-5-5-5------|
 |                                               |
e|----------6------------------------------------|
B|-----6-----------------------------------------|
G|---7---7---------------------------------------|
D|-8---------------------------------------------|
A|-----------------------------------------------|
E|-----------------------------------------------|
Five miles outside of Vegas, five years down the line

   G                     F
e|-----------------------------------------------|
B|-----------------------------------------------|
G|-----------------------------------------------|
D|-----------------------------------------------|
A|-----------------------------------------------|
E|-3-3-3-3----3-3-3-3----1-1-1-1----1-1-1-1------|
 |                                               |
e|----------6------------------------------------|
B|-----6-----------------------------------------|
G|---3---3---------------------------------------|
D|-5-----------------------------------------/8--|
A|-------------------------------------------/8--|
E|-------------------------------------------/6--|
We got married in the desert in the sunshine

   A#                    A 
e|-----------------------------------------------|
B|-----------------------------------------------|
G|-----------------------------------------------|
D|-----------------------------------------------|
A|-----------------------------------------------|
E|-6-6-6-6----6-6-6-6----5-5-5-5----5-5-5-5------|
 |                                               |
e|----------6------------------------------------|
B|-----6-----------------------------------------|
G|---7---7---------------------------------------|
D|-8---------------------------------------------|
A|-----------------------------------------------|
E|-----------------------------------------------|
I can't handle all the hell that happens everyday

   G                     F
e|-----------------------------------------------|
B|-----------------------------------------------|
G|-----------------------------------------------|
D|-----------------------------------------------|
A|-----------------------------------------------|
E|-3-3-3-3----3-3-3-3----1-1-1-1----1-1-1-1------|
 |                                               |
e|----------6------------------------------------|
B|-----6-----------------------------------------|
G|---3---3---------------------------------------|
D|-5---------------------------------------------|
A|-----------------------------------------------|
E|-----------------------------------------------|
When you smile and touch my face you make it all just go away

    D#              F
e|-----------------------------------------------|
B|-----------------------------------------------|
G|--8-8-8-8-8-8-8-8-10-10-10-10-10-10-10-10------|
D|--8-8-8-8-8-8-8-8-10-10-10-10-10-10-10-10------|
A|--6-6-6-6-6-6-6-6-8--8--8--8--8--8--8--8-------|
E|-----------------------------------------------|
Yes I know there ain't no finish line, I know this never ends

    A#      A       G       F
e|-----------------------------------------------|
B|-----------------------------------------------|
G|-----------------------------------------------|
D|--8-8-8-8-7-7-7-7-5-5-5-5-3-3-3-3--------------|
A|--8-8-8-8-7-7-7-7-5-5-5-5-3-3-3-3--------------|
E|--6-6-6-6-5-5-5-5-3-3-3-3-1-1-1-1--------------|
I'm just learning how to fall, climb back up again

    D#              F
e|-----------------------------------------------|
B|-----------------------------------------------|
G|--8-8-8-8-8-8-8-8-10-10-10-10-10-10-10-10------|
D|--8-8-8-8-8-8-8-8-10-10-10-10-10-10-10-10------|
A|--6-6-6-6-6-6-6-6-8--8--8--8--8--8--8--8-------|
E|-----------------------------------------------|
I know there's nothing perfect I know there nothing new

    A#      A       G       F
e|-----------------------------------------------|
B|-----------------------------------------------|
G|-----------------------------------------------|
D|--8-8-8-8-7-7-7-7-5-5-5-5-3-3-3-3--------------|
A|--8-8-8-8-7-7-7-7-5-5-5-5-3-3-3-3--------------|
E|--6-6-6-6-5-5-5-5-3-3-3-3-1-1-1-1--------------|
We are just learning how to live together, Me and you

    D#              F
e|-----------------------------------------------|
B|-----------------------------------------------|
G|--8-8-8-8-8-8-8-8-10-10-10-10-10-10\\----------|
D|--8-8-8-8-8-8-8-8-10-10-10-10-10-10\\----------|
A|--6-6-6-6-6-6-6-6-8--8--8--8--8--8-\\----------|
E|-----------------------------------------------|
    You know I live for the day When you say, "baby lets just run away"

   A#      C       D       D#  D C
e|----------------------------------------------| x8
B|----------------------------------------------|
G|-3-3-----5-5-----7-7-----8-8-7-5--------------|
D|-3-3-----5-5-----7-7-----8-8-7-5--------------|
A|-1-1-----3-3-----5-5-----6-6-5-3--------------|
E|----------------------------------------------|
 |                                              |
e|----------------------------------------------|
B|----6-8-----6-8-----6-8-----------------------|
G|----------------------------------------------|
D|----------------------------------------------|
A|----------------------------------------------|
E|----------------------------------------------|
Oh baby we can leave and run away
Yes we can leave this place And run away
Baby we can leave and run away
We can leave this place and run away
We can leave and run away
We can leave this place and run away
We can leave this place and run away
We can leave this place and run away


The Homeymoon Song

In 3/4 time - quite unusual for Everclear. 

/ - slide up (towards the body)
\ - slide down (towards the headstock)

"one two three two two three"

Ukelele arranged for guitar - NOTE: Fingerpick these ukelele chords
    C        Bb       F        G#6     
e|--8--8--8--6--6--6--5--5--5--4--4--4---|
B|--8--8--8--6--6--6--6--6--6--6--6--6---|
G|--x--x--x--x--x--x--x--x--x--x--x--x---|
D|-10-10-10--8--8--8--7--7--7--6--6--6---|
A|---------------------------------------|
E|---------------------------------------|
 |Guitar                                 |
e|---------------------------------------|
B|-13~~----------------------------------|
G|-12~~----------------------------------|
D|-10~~----------------------------------|
A|-10~~----------------------------------|
E|---------------------------------------|

   G6       G        G6
e|-3--3--3--7--7--7--3--3--3--3--3--3----|
B|-5--5--5--8--8--8--5--5--5--5--5--5----|
G|-x--x--x--x--x--x--x--x--x--x--x--x----|
D|-5--5--5--9--9--9--5--5--5--5--5--5----|
A|---------------------------------------|
E|---------------------------------------|
 |Guitar                                 |
e|---------------------------------------|
B|-13~~---------------13--13--13--13-----|
G|-12~~----------------12--12--12--12----|
D|-10~~-------------/10--10--10--10------|
A|-10~~----------------------------------|
E|---------------------------------------|

    C        Bb       F        G#6     
e|--8--8--8--6--6--6--5--5--5--4--4--4---|
B|--8--8--8--6--6--6--6--6--6--6--6--6---|
G|--x--x--x--x--x--x--x--x--x--x--x--x---|
D|-10-10-10--8--8--8--7--7--7--6--6--6---|
A|---------------------------------------|
E|---------------------------------------|
 |Guitar                                 |
e|---------------------------------------|
B|--13--13---11--11---13--13---13--13----|
G|---12--12---10--10---14--14---13--13---|
D|-10--10---8---8----15--15--------------|
A|----------------------------11--11-----|
E|---------------------------------------|
 |(Played with a slide)                  |
e|-/8------------------------------------|
B|-/8------------------------------------|
G|---------------------------------------|
D|---------------------------------------|
A|---------------------------------------|
E|---------------------------------------|

   G6       G        G6
e|-3--3--3--7--7--7--3--3--3--3--3--3-----|
B|-5--5--5--8--8--8--5--5--5--5--5--5-----|
G|-x--x--x--x--x--x--x--x--x--x--x--x-----|
D|-5--5--5--9--9--9--5--5--5--5--5--5-----|
A|----------------------------------------|
E|----------------------------------------|
 |Guitar                                  |
e|----------------------------------------|
B|--13--13---12--12-----------------------|
G|---12--12---12--12--12h14-14-14-12------|
D|----------12--12--12--------------14-12-|
A|-10--10---------------------------------|
E|----------------------------------------|
 |(Played with a slide)                   |
e|-/8-------/15\--------------------------|
B|-/8-------/15\--------------------------|
G|----------------------------------------|
D|----------------------------------------|
A|----------------------------------------|
E|----------------------------------------|

   F        G        G6
e|-5--5--5--7--7--7--3--3--3--3--3--3-----| x2
B|-6--6--6--8--8--8--5--5--5--5--5--5-----|
G|-x--x--x--x--x--x--x--x--x--x--x--x-----|
D|-7--7--7--9--9--9--5--5--5--5--5--5-----|
A|----------------------------------------|
E|----------------------------------------|
 |Guitar                                  |
e|----------------------------------------|
B|----------------------------------------|
G|-------------------12h14-14-12----------|
D|-------------------------------14-12----|
A|----------------------------------------|
E|----------------------------------------|
 |(Played with a slide)                   |
e|-/13------/15\----\8--------------------|
B|-/13------/15\----\8--------------------|
G|----------------------------------------|
D|----------------------------------------|
A|----------------------------------------|
E|----------------------------------------|
You know I love you Baby
and I know you love me too

   F        G        G6       F
e|-5--5--5--7--7--7--3--3--3--5--5--5-----| 
B|-6--6--6--8--8--8--5--5--5--6--6--6-----|
G|-x--x--x--x--x--x--x--x--x--x--x--x-----|
D|-7--7--7--9--9--9--5--5--5--7--7--7-----|
A|----------------------------------------|
E|----------------------------------------|
 |(Played with a slide)                   |
e|-/13------/15\----\8/------/13----------|
B|-/13------/15\----\8/------/13----------|
G|----------------------------------------|
D|----------------------------------------|
A|----------------------------------------|
E|----------------------------------------|
But the fun that day didn't start until

   F        G       
e|-5--5--5--7--7--7----|
B|-6--6--6--8--8--8----|
G|-x--x--x--x--x--x----|
D|-7--7--7--9--9--9----|
A|---------------------|
E|---------------------|
 |Guitar               |
e|---------------------|
B|---------------------|
G|----------12-14-12---|
D|------------------14-|
A|---------------------|
E|---------------------|
 |(slide guitar)       |
e|-/13------/15\-------|
B|-/13------/15\-------|
G|---------------------|
D|---------------------|
A|---------------------|
E|---------------------|
We left on our Honeymoon

    C        Bb       F        G#6     
e|--8--8--8--6--6--6--5--5--5--4--4--4---|
B|--8--8--8--6--6--6--6--6--6--6--6--6---|
G|--x--x--x--x--x--x--x--x--x--x--x--x---|
D|-10-10-10--8--8--8--7--7--7--6--6--6---|
A|---------------------------------------|
E|---------------------------------------|
 |Guitar                                 |
e|---------------------------------------|
B|--13--13---11--11---13--13---13--13----|
G|---12--12---10--10---14--14---13--13---|
D|-10--10---8---8----15--15--------------|
A|----------------------------11--11-----|
E|---------------------------------------|
 |(Played with a slide)                  |
e|-/8------------------------------------|
B|-/8------------------------------------|
G|---------------------------------------|
D|---------------------------------------|
A|---------------------------------------|
E|---------------------------------------|

   G6       G        G6
e|-3--3--3--7--7--7--3--3--3--3--3--3-------------|
B|-5--5--5--8--8--8--5--5--5--5--5--5-------------|
G|-x--x--x--x--x--x--x--x--x--x--x--x-------------|
D|-5--5--5--9--9--9--5--5--5--5--5--5-------------|
A|------------------------------------------------|
E|------------------------------------------------|
 |Guitar                                          |
e|------------------------------------------------|
B|--13--13---12--12-----13-15b-13-----------------|
G|---12--12---12--12--14---------14-12------------|
D|----------12--12--12----------------14-12h14p12-|
A|-10--10-----------------------------------------|
E|------------------------------------------------|
 |(Played with a slide)                           |
e|-/8-------/15\----\8----------------------------|
B|-/8-------/15\----\8----------------------------|
G|------------------------------------------------|
D|------------------------------------------------|
A|------------------------------------------------|
E|------------------------------------------------|

    C        Bb       F        G#6     
e|--8--8--8--6--6--6--5--5--5--4--4--4---|
B|--8--8--8--6--6--6--6--6--6--6--6--6---|
G|--x--x--x--x--x--x--x--x--x--x--x--x---|
D|-10-10-10--8--8--8--7--7--7--6--6--6---|
A|---------------------------------------|
E|---------------------------------------|
Stepped off the Plane into a warm sunny day

   G6       G        G6
e|-3--3--3--7--7--7--3--3--3--3--3--3-----|
B|-5--5--5--8--8--8--5--5--5--5--5--5-----|
G|-x--x--x--x--x--x--x--x--x--x--x--x-----|
D|-5--5--5--9--9--9--5--5--5--5--5--5-----|
A|----------------------------------------|
E|----------------------------------------|
And we got leid together

    C        Bb       F        G#6     
e|--8--8--8--6--6--6--5--5--5--4--4--4---|
B|--8--8--8--6--6--6--6--6--6--6--6--6---|
G|--x--x--x--x--x--x--x--x--x--x--x--x---|
D|-10-10-10--8--8--8--7--7--7--6--6--6---|
A|---------------------------------------|
E|---------------------------------------|
The sun shines down on a Hana Lei town

   G6       G        G6
e|-3--3--3--7--7--7--3--3--3--3--3--3-------------|
B|-5--5--5--8--8--8--5--5--5--5--5--5-------------|
G|-x--x--x--x--x--x--x--x--x--x--x--x-------------|
D|-5--5--5--9--9--9--5--5--5--5--5--5-------------|
A|------------------------------------------------|
E|------------------------------------------------|
 |(Played with a slide)                           |
e|-/8-------/15\----\8----------------------------|
B|-/8-------/15\----\8----------------------------|
G|------------------------------------------------|
D|------------------------------------------------|
A|------------------------------------------------|
E|------------------------------------------------|
Where the fish all smile cause they know us

   F        G        G6
e|-5--5--5--7--7--7--3--3--3--3--3--3-----| x2
B|-6--6--6--8--8--8--5--5--5--5--5--5-----|
G|-x--x--x--x--x--x--x--x--x--x--x--x-----|
D|-7--7--7--9--9--9--5--5--5--5--5--5-----|
A|----------------------------------------|
E|----------------------------------------|
 |Guitar                                  |
e|----------------------------------------|
B|----------------------------------------|
G|-------------------12h14-14-12----------|
D|-------------------------------14-12----|
A|----------------------------------------|
E|----------------------------------------|
 |(Played with a slide)                   |
e|-/13------/15\----\8--------------------|
B|-/13------/15\----\8--------------------|
G|----------------------------------------|
D|----------------------------------------|
A|----------------------------------------|
E|----------------------------------------|
Our wedding day was warm and sunny
Our friends and family came from out of town

   F        G        G6       F
e|-5--5--5--7--7--7--3--3--3--5--5--5-----| 
B|-6--6--6--8--8--8--5--5--5--6--6--6-----|
G|-x--x--x--x--x--x--x--x--x--x--x--x-----|
D|-7--7--7--9--9--9--5--5--5--7--7--7-----|
A|----------------------------------------|
E|----------------------------------------|
 |(Played with a slide)                   |
e|-/13------/15\----\8/------/13----------|
B|-/13------/15\----\8/------/13----------|
G|----------------------------------------|
D|----------------------------------------|
A|----------------------------------------|
E|----------------------------------------|
We said I do and ate some food

   F        G       
e|-5--5--5--7--7--7----|
B|-6--6--6--8--8--8----|
G|-x--x--x--x--x--x----|
D|-7--7--7--9--9--9----|
A|---------------------|
E|---------------------|
 |Guitar               |
e|---------------------|
B|---------------------|
G|----------12-14-12---|
D|------------------14-|
A|---------------------|
E|---------------------|
 |(slide guitar)       |
e|-/13------/15\-------|
B|-/13------/15\-------|
G|---------------------|
D|---------------------|
A|---------------------|
E|---------------------|
And smiled until the sun went down

 C        Bb       F        G#6     
e|--8--8--8--6--6--6--5--5--5--4--4--4---|
B|--8--8--8--6--6--6--6--6--6--6--6--6---|
G|--x--x--x--x--x--x--x--x--x--x--x--x---|
D|-10-10-10--8--8--8--7--7--7--6--6--6---|
A|---------------------------------------|
E|---------------------------------------|
 |Guitar                                 |
e|---------------------------------------|
B|--13--13---11--11---13--13---13--13----|
G|---12--12---10--10---14--14---13--13---|
D|-10--10---8---8----15--15--------------|
A|----------------------------11--11-----|
E|---------------------------------------|
 |(Played with a slide)                  |
e|-/8------------------------------------|
B|-/8------------------------------------|
G|---------------------------------------|
D|---------------------------------------|
A|---------------------------------------|
E|---------------------------------------|

   G6       G        G6
e|-3--3--3--7--7--7--3--3--3--3--3--3-----|
B|-5--5--5--8--8--8--5--5--5--5--5--5-----|
G|-x--x--x--x--x--x--x--x--x--x--x--x-----|
D|-5--5--5--9--9--9--5--5--5--5--5--5-----|
A|----------------------------------------|
E|----------------------------------------|
 |Guitar                                  |
e|----------------------------------------|
B|--13--13---12--12--------13-------------|
G|---12--12---12--12--12h14--14-12--------|
D|----------12--12--12-----------12h14p12-|
A|-10--10---------------------------------|
E|----------------------------------------|
 |(Played with a slide)                   |
e|-/8-------/15\--------------------------|
B|-/8-------/15\--------------------------|
G|----------------------------------------|
D|----------------------------------------|
A|----------------------------------------|
E|----------------------------------------|

    C        Bb       F        G#6     
e|--8--8--8--6--6--6--5--5--5--4--4--4---|
B|--8--8--8--6--6--6--6--6--6--6--6--6---|
G|--x--x--x--x--x--x--x--x--x--x--x--x---|
D|-10-10-10--8--8--8--7--7--7--6--6--6---|
A|---------------------------------------|
E|---------------------------------------|
We'll take the Zodiac Cadilliac around the north shore and then we'll head back

   G6       G        G6
e|-3--3--3--7--7--7--3--3--3--3--3--3-------------|
B|-5--5--5--8--8--8--5--5--5--5--5--5-------------|
G|-x--x--x--x--x--x--x--x--x--x--x--x-------------|
D|-5--5--5--9--9--9--5--5--5--5--5--5-------------|
A|------------------------------------------------|
E|------------------------------------------------|
 |Guitar                                          |
e|------------------------------------------------|
B|------------------------------------------------|
G|-----------------------12----12----12----12-----|
D|------------------12h14-12h14-12h14-12h14-------|
A|------------------------------------------------|
E|------------------------------------------------|
The sea turtles come to greet us

    C        Bb       F        G#6     
e|--8--8--8--6--6--6--5--5--5--4--4--4---|
B|--8--8--8--6--6--6--6--6--6--6--6--6---|
G|--x--x--x--x--x--x--x--x--x--x--x--x---|
D|-10-10-10--8--8--8--7--7--7--6--6--6---|
A|---------------------------------------|
E|---------------------------------------|
 | Slide Guitar                          |
e|-/8------------------------------------|
B|-/8------------------------------------|
G|---------------------------------------|
D|---------------------------------------|
A|---------------------------------------|
E|---------------------------------------|
So lets get loaded tonight, we'll drink on the flight

   G6       G        G6
e|-3--3--3--7--7--7--3--3--3--3--3--3-------------|
B|-5--5--5--8--8--8--5--5--5--5--5--5-------------|
G|-x--x--x--x--x--x--x--x--x--x--x--x-------------|
D|-5--5--5--9--9--9--5--5--5--5--5--5-------------|
A|------------------------------------------------|
E|------------------------------------------------|
 |Guitar                                          |
e|------------------------------------------------|
B|------------------------------------13-15-13----|
G|------------------------12-14-12-14-------------|
D|-------------------12h14------------------------|
A|------------------------------------------------|
E|------------------------------------------------|
 |Slide guitar                                    |
e|-/8-------/15\----\8----------------------------|
B|-/8-------/15\----\8----------------------------|
G|------------------------------------------------|
D|------------------------------------------------|
A|------------------------------------------------|
E|------------------------------------------------|
Back home the honeymoon is over

    C        Bb       F        G#6     
e|--8--8--8--6--6--6--5--5--5--4--4--4------------------------------|
B|--8--8--8--6--6--6--6--6--6--6--6--6------------------------------|
G|--x--x--x--x--x--x--x--x--x--x--x--x------------------------------|
D|-10-10-10--8--8--8--7--7--7--6--6--6------------------------------|
A|------------------------------------------------------------------|
E|------------------------------------------------------------------|
 |Guitar (Solo played over the four chords above)                   |
e|------------------------------------------------------------------|
B|---------13-15-13--------13-15-13-16b-15-13-----------------------|
G|-14-12-14--------14-12-14-------------------14-12-----------------|
D|--------------------------------------------------14-12-/14-12-10-|
A|------------------------------------------------------------------|
E|------------------------------------------------------------------|
 | Slide Guitar                                                     |
e|-/8---------------------------------------------------------------|
B|-/8---------------------------------------------------------------|
G|------------------------------------------------------------------|
D|------------------------------------------------------------------|
A|------------------------------------------------------------------|
E|------------------------------------------------------------------|

   G6       G        G6
e|-3--3--3--7--7--7--3--3--3--3--3--3-----|
B|-5--5--5--8--8--8--5--5--5--5--5--5-----|
G|-x--x--x--x--x--x--x--x--x--x--x--x-----|
D|-5--5--5--9--9--9--5--5--5--5--5--5-----|
A|----------------------------------------|
E|----------------------------------------|
 |Guitar                                  |
e|----------------------------------------|
B|--------------------15-13---------------|
G|-------------------------14-12----------|
D|/14-12-10-/14-12-10-----------14-12-10--|
A|----------------------------------------|
E|----------------------------------------|


   F        G        G6
e|-5--5--5--7--7--7--3--3--3--3--3--3-----| x2
B|-6--6--6--8--8--8--5--5--5--5--5--5-----|
G|-x--x--x--x--x--x--x--x--x--x--x--x-----|
D|-7--7--7--9--9--9--5--5--5--5--5--5-----|
A|----------------------------------------|
E|----------------------------------------|
 |Guitar                                  |
e|----------------------------------------|
B|----------------------------------------|
G|-------------------12h14-14-12----------|
D|-------------------------------14-12----|
A|----------------------------------------|
E|----------------------------------------|
 |(Played with a slide)                   |
e|-/13------/15\----\8--------------------|
B|-/13------/15\----\8--------------------|
G|----------------------------------------|
D|----------------------------------------|
A|----------------------------------------|
E|----------------------------------------|
You know I love you baby
And I know you love me too

   F        G        G6       F
e|-5--5--5--7--7--7--3--3--3--5--5--5-----| 
B|-6--6--6--8--8--8--5--5--5--6--6--6-----|
G|-x--x--x--x--x--x--x--x--x--x--x--x-----|
D|-7--7--7--9--9--9--5--5--5--7--7--7-----|
A|----------------------------------------|
E|----------------------------------------|
 |(Played with a slide)                   |
e|-/13------/15\----\8/------/13----------|
B|-/13------/15\----\8/------/13----------|
G|----------------------------------------|
D|----------------------------------------|
A|----------------------------------------|
E|----------------------------------------|
But the fun that day didn't start until

   F        G        G6
e|-5--5--5--7--7--7--3-|
B|-6--6--6--8--8--8--5-|
G|-x--x--x--x--x--x--x-|
D|-7--7--7--9--9--9--5-|
A|---------------------|
E|---------------------|
 |(slide guitar)       |
e|-/13------/15\----\8-|
B|-/13------/15\----\8-|
G|---------------------|
D|---------------------|
A|---------------------|
E|---------------------|
We left on our honeymoon

   F        G        G
e|-5--5--5--7--7--7--8--8--8--8--8--8-----| x2
B|-6--6--6--8--8--8--8--8--8--8--8--8-----|
G|-x--x--x--x--x--x--x--x--x--x--x--x-----|
D|-7--7--7--9--9--9--10-10-10-10-10-10----|
A|----------------------------------------|
E|----------------------------------------|
We're on our honeymoon
We're on our honeymoon

   F        G        G6       F
e|-5--5--5--7--7--7--3--3--3--5--5--5-----| 
B|-6--6--6--8--8--8--5--5--5--6--6--6-----|
G|-x--x--x--x--x--x--x--x--x--x--x--x-----|
D|-7--7--7--9--9--9--5--5--5--7--7--7-----|
A|----------------------------------------|
E|----------------------------------------|
 |(Played with a slide)                   |
e|---------------------------/13----------|
B|---------------------------/13----------|
G|----------------------------------------|
D|----------------------------------------|
A|----------------------------------------|
E|----------------------------------------|
The fun that day didn't start until

   F        G        G6
e|-5--5--5--7--7--7--3-|
B|-6--6--6--8--8--8--5-|
G|-x--x--x--x--x--x--x-|
D|-7--7--7--9--9--9--5-|
A|---------------------|
E|---------------------|
 |(slide guitar)       |
e|-/13------/15\----\8-|
B|-/13------/15\----\8-|
G|---------------------|
D|---------------------|
A|---------------------|
E|---------------------|
We left on our honeymoon


Now That Its Over


Yeah Right!
(Drum Intro x2)

(With some mandolin-y type effects)
   C
e|--------------------| x4 (with sliding effects/pick scrapes overdubbed)
B|----------1---------|
G|------0------0---0--|
D|----2---2------2----|
A|--3-----------------|
E|--------------------|
   One... Two... Three... Four...

    C                       D              F
e|-------------------(x4)|---------2---------------1--------|
B|----------1------------|-----3-----3---3-----1-----1---1--|
G|------0-----0---0------|---2---2-----2-----2---2-----2----|
D|----2---2-----2--------|-0---------------3----------------|
A|--3--------------------|----------------------------------|
E|-----------------------|----------------------------------|
  Break down, Shake for me
  Nothing ever is the way you want it to be
  Nothing even tastes right now that it's over

    C
e|--------------------| x2
B|----------1---------|
G|------0------0---0--|
D|----2---2------2----|
A|--3-----------------|
E|--------------------|

    C                       D              F
e|-------------------(x4)|---------2---------------1--------|
B|----------1------------|-----3-----3---3-----1-----1---1--|
G|------0-----0---0------|---2---2-----2-----2---2-----2----|
D|----2---2-----2--------|-0---------------3----------------|
A|--3--------------------|----------------------------------|
E|-----------------------|----------------------------------|
  Break down, shake for me
  Don't write words unless you want me to read them
  Nothing really matters now that it's over

   G                 F  
e|-----------------------------------------------|
B|----------3----------------1-------------------|
G|------0-----0---0------2-----2---3-------------|
D|----0---0-----0------3---3-----3---------------|
A|-----------------------------------------------|
E|--3----------------1---------------------------|
  Maybe we can be friends now that we're older. We can have

    G                G#      G  
e|-----------------------------------------------|
B|----------3------------------------------------|
G|------0-----0---0------------------------------|
D|----0---0-----0--------6-------5---------------|
A|---------------------6-------5-----------------|
E|--3----------------4-----4/3------3------------|
   fun like we did in the early days.  Now that it's 

    C
e|----------------------| 
B|----------1-----------|
G|------0------0---0----|
D|----2---2------2------|
A|--3----------------3~-|
E|----------------------|
  over.     Yeah right!
   
   C                         D   F      C  
e|-----------------------------------------------| (with the picked riff 
B|-----------------------------------------------|  from the 1st verse 
G|-5------------5------------7-7/10--10\5-5------|  played underneath)
D|-5------------5------------7-7/10--10\5-5------|
A|-3-(let ring)-3-(let ring)-5-5/8---8-\3-3------|
E|-----------------------------------------------|
  Break down, shake for me
  Nothing ever seems the way it ought to be
  Nothing ever seems right now that it's over

   C  G                F               G               G#      G      C             
e|----------------------------------------------------------------------|
B|----------------------------------------------------------------------|
G|-5\-----------------------------------------------------------------5-|
D|-5\-5----------------3--------------/5---------------6-------5------5-|
A|-3\-5----------------3--------------/5---------------6-------5------3-|
E|----3-(let ring)-----1-(let ring)---/3---------------4-------3--------|
 |                                                                      | 
e|----------------------------------------------------------------------|
B|------------3---------------1---------------3-------------------------|
G|--------0-----0---0-----2-----2---3-----0-----0---0-------------------|
D|------0---0-----0-----3---3-----3-----0---0-----0--------6-------5----|
A|-------------------------------------------------------6-------5------|
E|----3---------------1---------------3----------------4-----4/3------3-|
  Yeah, now maybe we can be friends
  Maybe we can be closer
  We can have fun like we did in the old days
  Now that it's over

   Bb             F              
e|--------------------------------|
B|--------------------------------|
G|-3--------------10------------\-|
D|-3--------------10------------\-|
A|-1-(let ring)---8--(let ring)-\-|
E|--------------------------------|
  Oh yeah...

    C            Bb             F            C   
e|--------------------------------------------------------| x3
B|--------------------------------------------------------|
G|--5------------3---------------------------5------------|
D|--5------------3--------------3------------5------------|
A|--3-(let ring)-1-(let ring)---3-(let ring)-3-(let ring)-|
E|------------------------------1-------------------------|
  My bad dreams just don't seem the same, baby without you
  Oh, I wish you were willing to accept the blame for everything you do
  My nightmares just don't scare me now, baby without you, yeah yeah

    C            Bb             F               
e|--------------------------------------------------------|
B|--------------------------------------------------------|
G|--5------------3----------------------------------------|
D|--5------------3--------------3------------3------------|
A|--3-(let ring)-1-(let ring)---3-(let ring)-3-(let ring)-|
E|------------------------------1------------1------------|
  I wish that I could find the words to tell
  In the best way possible, you and your friends to go to hell

e|------------------------------|
B|------------------------------|
G|--8-10--9---------------------|
D|------------------\\\\-pick---|
A|------------------\\\\-scrape-|
E|------------------\\\\--------|
                    Yeah right!

   C                         D         F      C  
e|-----------------------------------------------------|(with picked riff
B|-----------------------------------------------------| from first verse
G|-5------------5------------7---------10--10\5-5------| played underneath)
D|-5------------5------------7---------10--10\5-5------|
A|-3-(let ring)-3-(let ring)-5---------8---8-\3-3------|
E|-----------------------------------------------------|
 |                                                     | 
 | synth arranged for guitar                           |
e|----8-6-----------8-6-------------5------------------|
B|--------8-6-5---------8-6-5---6-8---8--6-5~----------|
G|-5------------5-------------7------------------------|
D|-----------------------------------------------------|
A|-----------------------------------------------------|
E|-----------------------------------------------------|

   C                         D         F      C  
e|-----------------------------------------------------|(with picked riff
B|-----------------------------------------------------| from first verse
G|-5------------5------------7-------7/10--10\5-5------| played underneath)
D|-5------------5------------7-------7/10--10\5-5------|
A|-3-(let ring)-3-(let ring)-5-------5/8---8-\3-3------|
E|-----------------------------------------------------|
  Whoa, breakup time is never easy to do
  Nothing ever ends the way you want it to
  Nothing seems to make sense now that it's over

   G    F    G    F    G    F    G    G# G  C             
e|----------------------------------------------------| 
B|----------------------------------------------------|
G|------------------------------------------5---------|
D|-5----3----5----3----5----3---/5----6--5--5---------|
A|-5----3----5----3----5----3---/5----6--5--3---------|
E|-3----1----3----1----3----1---/3----4--3------------|
  Yeah, now maybe we can be friends
  Yeah, now that you're leaving
  You can be nice to me
  Maybe I'm dreaming 
  I am a lot better now than just okay
  Maybe I am just waking up in my own way

    C            Bb             F            C   
e|--------------------------------------------------------| x5
B|--------------------------------------------------------|
G|--5------------3---------------------------5------------|
D|--5------------3--------------3------------5------------|
A|--3-(let ring)-1-(let ring)---3-(let ring)-3-(let ring)-|
E|------------------------------1-------------------------|  
  Now that it's over
  Now that it's over

  My bad dreams just don't seem the same, baby without you
  I wish you were willing to accept the blame, 
	yeah for all the shitty things you do
  Nightmares just don't scare me now, baby without you

    C            Bb             F               
e|----------------------------------------------------------|
B|----------------------------------------------------------|
G|--5------------3------------------------------------------|
D|--5------------3--------------3------------3----\\\pick---|
A|--3-(let ring)-1-(let ring)---3-(let ring)-3----\\\scrape-|
E|------------------------------1------------1----\\\-------|
  I wish that I could find the words to tell
		  You to politely go fuck yourself

e|--------------------| x8 (with pick scrapes over the top)
B|----------1---------|
G|------0------0---0--|
D|----2---2------2----|
A|--3-----------------|
E|--------------------|
  Yeah, now that it's over
  Now that it's over
  Now that it's over
  Now that it's over
  Now that it's over


Thrift Store Chair


   G
e|------3---------------------------3---------------------| x4
B|------3---------------------------3------------1b-0-----|
G|------0--------0h2-2b-0-----------0--------0h2-2b-0-----|
D|----0------0h2------------------0-------0h2-------------|
A|--------------------------------------------------------|
E|-3---------------------------3--------------------------|
   Baby go to bed put out the light
We both know if we talk anymore
We're gonna end up in a great big fight
You can have your way again
Yeah you believe what you want to believe
You can walk all over me tomorrow
But tonight can we both pretend to sleep

   Am                  C
e|------------------------------------------|
B|------------1--------------------1--------|
G|------2-------2----------------0---0------|
D|----2---2-------2----------0h2--------2---|
A|--0------------------3------------------3-|
E|------------------------------------------|
   I think we are headed for a big fall
   I think we are headed for a bad time

   G
e|------3---------------------------3---------------------|
B|------3---------------------------3------------1b-0-----|
G|------0--------0h2-2b-0-----------0--------0h2-2b-0-----|
D|----0------0h2------------------0-------0h2-------------|
A|--------------------------------------------------------|
E|-3---------------------------3--------------------------|
Gonna go downstairs and sit in that chair you like

   Am                  C
e|------------------------------------------|
B|------------1--------------------1--------|
G|------2-------2----------------0---0------|
D|----2---2-------2----------0h2--------2---|
A|--0------------------3------------------3-|
E|------------------------------------------|
Gonna put a John Prine record on
I think we need to slow it down for awhile

   G
e|------3---------------------------3---------------------|x4
B|------3---------------------------3------------1b-0-----|
G|------0--------0h2-2b-0-----------0--------0h2-2b-0-----|
D|----0------0h2------------------0-------0h2-------------|
A|--------------------------------------------------------|
E|-3---------------------------3--------------------------|
Yeah I wish we never bought a king size bed
Yeah the only damn thing that it's ever been good for
Plenty room for the real good sex
Lay in the bed in the dark and all I can see
Yeah is the distance that grows between us
You seem so far from me

   Am                  C
e|------------------------------------------|
B|------------1--------------------1--------|
G|------2-------2----------------0---0------|
D|----2---2-------2----------0h2--------2---|
A|--0------------------3------------------3-|
E|------------------------------------------|
I think we're headed for a real big fall
Yes we're headed for a bad time

   G
e|------3---------------------------3---------------------|
B|------3---------------------------3------------1b-0-----|
G|------0--------0h2-2b-0-----------0--------0h2-2b-0-----|
D|----0------0h2------------------0-------0h2-------------|
A|--------------------------------------------------------|
E|-3---------------------------3--------------------------|
Yeah gonna go downstairs
Sit by myself all alone in the middle of the night 

    Am                  C
e|------------------------------------------|
B|------------1--------------------1--------|
G|------2-------2----------------0----------|
D|----2---2-------2----------0h2------------|
A|--0------------------3--------------------|
E|------------------------------------------|
Gonna put a John Prine record on 
Guess we need to slow it down for awhile

   G
e|------3---------------------------3---------------------|
B|------3---------------------------3------------1b-0-----|
G|------0--------0h2-2b-0-----------0--------0h2-2b-0-----|
D|----0------0h2------------------0-------0h2-------------|
A|--------------------------------------------------------|
E|-3---------------------------3--------------------------|
I'm going to go downstairs, smoke cigarettes in a thrift store chair you like

    Am                  C
e|------------------------------------------|
B|------------1--------------------1--------|
G|------2-------2----------------0----------|
D|----2---2-------2----------0h2------------|
A|--0------------------3--------------------|
E|------------------------------------------|
Gonna put a John Prine record on, Yeah we need to slow it down for awhile

   G
e|------3---------------------------3---------------------| x4
B|------3---------------------------3------------1b-0-----|
G|------0--------0h2-2b-0-----------0--------0h2-2b-0-----|
D|----0------0h2------------------0-------0h2-------------|
A|--------------------------------------------------------|
E|-3---------------------------3--------------------------|
We need to slow it down for awhile
We need to slow it down for awhile
We need to slow it down for awhile

End on a G


Otis Redding


  
   G
e|-------3---------------3----------| x4
B|-----3---3---3-------3---3---3----|
G|---4-------4---4---4-------4---4--|
D|----------------------------------|
A|----------------------------------|
E|-3---------------3----------------|

   G                         B  
e|-------3-------------------------|
B|-----3---3---3-------------------|
G|---4-------4---4---------------0-|
D|-----------------------0-----1---|
A|---------------------2-----2-----|
E|-3-----------------3-------------|
Do you remember when we were hungry

   C                 D       Eb
e|-------3-------------------------|
B|---------5-----------------------|
G|-----5-----5---5-------7-------8-|
D|---5---------5-------7-------8---|
A|-3-----------------5-------6-----|
E|---------------------------------|
Do you remember when we were cold

   G                         B  
e|-------3-------------------------|
B|-----3---3---3-------------------|
G|---4-------4---4---------------0-|
D|-----------------------0-----1---|
A|---------------------2-----2-----|
E|-3-----------------3-------------|
Do you remember when we were happy

   A              C
e|-------0--------------3----------|
B|---------2--------------5--------|
G|-----2-----2--------5-----5---5--|
D|---2---------2----5---------5----|
A|-0--------------3----------------|
E|---------------------------------|
Do you remember, do you remember

   G                         B  
e|-------3-------------------------|
B|-----3---3---3-------------------|
G|---4-------4---4---------------0-|
D|-----------------------0-----1---|
A|---------------------2-----2-----|
E|-3-----------------3-------------|
Do you remember when we were lucky

   C                 D       Eb
e|-------3-------------------------|
B|---------5-----------------------|
G|-----5-----5---5-------7-------8-|
D|---5---------5-------7-------8---|
A|-3-----------------5-------6-----|
E|---------------------------------|
We were living the life almost every night

   G                         B  
e|-------3-------------------------|
B|-----3---3---3-------------------|
G|---4-------4---4---------------0-|
D|-----------------------0-----1---|
A|---------------------2-----2-----|
E|-3-----------------3-------------|
I would wrap you in my thin white arms

   A               
e|-------0--------0----------------|
B|---------2------2----------------|
G|-----2-----2----2----------------|
D|---2---------2--2----------------|
A|-0--------------0----------------|
E|---------------------------------|
Sit and watch the stars die

   G
e|---------------------------|
B|--------8-----7------------|
G|------7-----7---9----------|
D|------------------9-10-----|
A|---------------------------|
E|---------------------------|
             Aye aye aye aye aye

 G                         B  
e|-------3-------------------------|
B|-----3---3---3-------------------|
G|---4-------4---4---------------0-|
D|-----------------------0-----1---|
A|---------------------2-----2-----|
E|-3-----------------3-------------|
Yeah do you remember when we were the losers

   C                 D       Eb
e|-------3-------------------------|
B|---------5-----------------------|
G|-----5-----5---5-------7-------8-|
D|---5---------5-------7-------8---|
A|-3-----------------5-------6-----|
E|---------------------------------|
Do you remember when we were the lame
   G                         B  
e|-------3-------------------------|
B|-----3---3---3-------------------|
G|---4-------4---4---------------0-|
D|-----------------------0-----1---|
A|---------------------2-----2-----|
E|-3-----------------3-------------|
Do you remember when we were the lovers

   A              C
e|-------0--------------3----------|
B|---------2--------------5--------|
G|-----2-----2--------5-----5---5--|
D|---2---------2----5---------5----|
A|-0--------------3----------------|
E|---------------------------------|
  Do you remember, do you remember

 G                         B  
e|-------3-------------------------|
B|-----3---3---3-------------------|
G|---4-------4---4---------------0-|
D|-----------------------0-----1---|
A|---------------------2-----2-----|
E|-3-----------------3-------------|
Do you remember when we were strung out

   C                 D       Eb
e|-------3-------------------------|
B|---------5-----------------------|
G|-----5-----5---5-------7-------8-|
D|---5---------5-------7-------8---|
A|-3-----------------5-------6-----|
E|---------------------------------|
Eating top ramen and macaroni and cheese
  
   G                         B  
e|-------3-------------------------|
B|-----3---3---3-------------------|
G|---4-------4---4---------------0-|
D|-----------------------0-----1---|
A|---------------------2-----2-----|
E|-3-----------------3-------------|
We would get so lost in that basement room

   A              C
e|-------0--------------3----------|
B|---------2--------------5--------|
G|-----2-----2--------5-----5---5--|
D|---2---------0----5---------5----|
A|-0--------------3----------------|
E|---------------------------------|
Let Otis Redding sing us to sleep

   A              C
e|---------0--------------3--------|
B|---------2--------------5--------|
G|-----2-------2------5---5--------|
D|------------------------5--------|
A|-0--------------3----------------|
E|---------------------------------|
I wish that I had one more life

    G       Eb        Bb         C     
e|-----------------------------------------------| x11
B|-----------------------------------------------|
G|--------------8--------------------5-----------|
D|------5-----8------------8-------5-------------|
A|----5-----6-----------8--------3---------------|
E|--3-----------------6--------------------------|
 |                                               |
e|--------7--------11---------10-------8---------|
B|------8-------11---------11--------8-----------|
G|----7-------8---------10---------5-------------|
D|--5-----------------8--------------------------|
A|-----------------------------------------------|
E|-----------------------------------------------|
I don't want to be wasted 
I don't want to live inside this daydream anymore
I just want to be happy again
I don't want to be wasted 
I don't want to be blind
I don't want to be wasted 
I don't want to live inside this daydream anymore
I just want to be happy again
I don't want to be wasted, I don't want to be blind
I don't want to be wasted, I don't want to be blind
I don't want to be wasted, I don't want to be blind

   G
e|-------3---------------3----------| x4
B|-----3---3---3-------3---3---3----|
G|---4-------4---4---4-------4---4--|
D|----------------------------------|
A|----------------------------------|
E|-3---------------3----------------|

e|-------3-------------------------|
B|-----3---3---3-------------------|
G|---4-------4---4---------------0-|
D|-----------------------0-----1---|
A|---------------------2-----2-----|
E|-3-----------------3-------------|
pm.................................
I wish I could be like all my heroes

   C                 D       Eb
e|-------3-------------------------|
B|---------5-----------------------|
G|-----5-----5---5-------7-------8-|
D|---5---------5-------7-------8---|
A|-3-----------------5-------6-----|
E|---------------------------------|
pm.................................
I wish I could be like all yours too

e|-------3-------------------------|
B|-----3---3---3-------------------|
G|---4-------4---4---------------0-|
D|-----------------------0-----1---|
A|---------------------2-----2-----|
E|-3-----------------3-------------|
pm.................................
I wish I could sing like Otis Redding

   A              C
e|-------0--------3----------------|
B|---------2------5----------------|
G|-----2-----2----5----------------|
D|---2---------0--5----------------|
A|-0--------------3----------------|
E|---------------------------------|
pm..............
I wish I could play this guitar in tune

   G                         B  
e|-------3-------------------------|
B|-----3---3---3-------------------|
G|---4-------4---4---------------0-|
D|-----------------------0-----1---|
A|---------------------2-----2-----|
E|-3-----------------3-------------|
Do you remember when we were hungry

   C                 D       Eb
e|-------3-------------------------|
B|---------5-----------------------|
G|-----5-----5---5-------7-------8-|
D|---5---------5-------7-------8---|
A|-3-----------------5-------6-----|
E|---------------------------------|
Do you remember when we were cold

   G                         B  
e|-------3-------------------------|
B|-----3---3---3-------------------|
G|---4-------4---4---------------0-|
D|-----------------------0-----1---|
A|---------------------2-----2-----|
E|-3-----------------3-------------|
Do you remember when we were happy 

   C                 D       Eb
e|-------3-------------------------|
B|---------5-----------------------|
G|-----5-----5---5-------7-------8-|
D|---5---------5-------7-------8---|
A|-3-----------------5-------6-----|
E|---------------------------------|
in a way no one outside could ever know

   A              C
e|---------0--------------3--------|x2
B|---------2--------------5--------|
G|-----2-------2------5---5--------|
D|------------------------5--------|
A|-0--------------3----------------|
E|---------------------------------|
I wish that I had one more life
How I wish that I had one more life to live

    G       Eb        Bb         C     
e|-----------------------------------------------| x8
B|-----------------------------------------------|
G|--------------8--------------------5-----------|
D|------5-----8------------8-------5-------------|
A|----5-----6-----------8--------3---------------|
E|--3-----------------6--------------------------|
 |                                               |
e|--------7--------11---------10-------8---------|
B|------8-------11---------11--------8-----------|
G|----7-------8---------10---------5-------------|
D|--5-----------------8--------------------------|
A|-----------------------------------------------|
E|-----------------------------------------------|
I don't want to be wasted 
I don't want to live inside this daydream anymore
I just want to be happy again
I don't want to be wasted
I don't want to be blind
I don't want to be wasted 
I don't want to live inside this daydream anymore
I just want to be happy again

    G       Eb        Bb         C     
e|--------7--------11---------10-------8---------|
B|------8-------11---------11--------8-----------|
G|----7-------8---------10---------5-------------|
D|--5-----------------8--------------------------|
A|-----------------------------------------------|
E|-----------------------------------------------|
I don't want to be wasted I don't want to be

    G       Eb        Bb         C     
e|-----------------------------------------------|
B|-----------------------------------------------|
G|--------4-------------------7------------------|
D|------5-------8----------8---------5-----------|
A|----5-------6---------8----------3-------------|
E|--3-----------------6--------------------------|
 |                                               |
e|--------7--------11---------10-------8---------|
B|------8-------11---------11--------8-----------|
G|----7-------8---------10---------5-------------|
D|--5-----------------8--------------------------|
A|-----------------------------------------------|
E|-----------------------------------------------|
I don't want to be wasted I don't want to be

    G       Eb        Bb         C     
e|-----------------------------------------------| 
B|-----------------------------------------------|
G|----------8-8-8--8-------------5-5-5-5---------|
D|--5-5-5-5-8-8-8--8--8-8--8--8--5-5-5-5---------|
A|--5-5-5-5-6-6-6--6--8-8--8--8--3-3-3-3---------|
E|--3-3-3-3-----------6-6--6--6------------------|
 |pm......................................       |
e|--------7--------11---------10-------8---------|
B|------8-------11---------11--------8-----------|
G|----7-------8---------10---------5-------------|
D|--5-----------------8--------------------------|
A|-----------------------------------------------|
E|-----------------------------------------------|
I don't want to be wasted I don't want to be blind

    G       Eb        Bb         C     
e|-----------------------------------------------| x4
B|-----------------------------------------------|
G|--------------8--------------------5-----------|
D|------5-----8------------8-------5-------------|
A|----5-----6-----------8--------3---------------|
E|--3-----------------6--------------------------|
 |                                               |
e|--------7--------11---------10-------8---------|
B|------8-------11---------11--------8-----------|
G|----7-------8---------10---------5-------------|
D|--5-----------------8--------------------------|
A|-----------------------------------------------|
E|-----------------------------------------------|
 |                                               |
e|----------11~~~~~~~-13~~~~~~~~-8~~~~~~~~-------|
B|--8~~~~~---------------------------------------|
G|-----------------------------------------------|
D|-----------------------------------------------|
A|-----------------------------------------------|
E|-----------------------------------------------|
Oh I don't want to be blind
No I don't want to be blind

Unemployed Boyfreind

VERSION 1 - Tabbed by Jason Pan

"Hi, this is Peggy, leave a nice message or I'll kill ya"
"Hey Peggy it's me. You are never gonna believe what happened to me today"

!!!!NOTE!!!! - The third chord in the following riff (which is also used throughout
the tab) may well be wrong. There's about half a million suggestions for it down at the bottom 
of the tab, with the most recent at the bottom, including the word from Art himself, but anyway 
have a look and decide for yourself
    G       C9      Bm      C9
e|--3-3-3-3-3-------7-7-7-7-3--------------------| 
B|--3-3-3-3-3-------7-7-7-7-3--------------------|
G|--0-0-0-0-0-------7-7-7-7-0--------------------|
D|--0-0-0-0-2-------9-9-9-9-2--------------------|
A|--2-2-2-2-3-------9-9-9-9-3--------------------|
E|--3-3-3-3---------x-x-x-x----------------------|
"I am sitting at the unemployment office, waiting on my 

    G       C9      Bm      C9     G/B G/A
e|--3-3-3-3-3-------7-7-7-7-3-----3-3--3---------| 
B|--3-3-3-3-3-------7-7-7-7-3-----3-3--3---------|
G|--0-0-0-0-0-------7-7-7-7-0-----0-0--0---------|
D|--0-0-0-0-2-------9-9-9-9-2-----2-0--0---------|
A|--2-2-2-2-3-------9-9-9-9-3-----3-2--0---------|
E|--3-3-3-3---------x-x-x-x----------------------|
loser of a caseworker in one of those nasty chairs"

    G       C9      Bm      C9
e|--3-3-3-3-3-------7-7-7-7-3--------------------| x2
B|--3-3-3-3-3-------7-7-7-7-3--------------------|
G|--0-0-0-0-0-------7-7-7-7-0--------------------|
D|--0-0-0-0-2-------9-9-9-9-2--------------------|
A|--2-2-2-2-3-------9-9-9-9-3--------------------|
E|--3-3-3-3---------x-x-x-x----------------------|
"And out from nowhere this total stranger walked right up to me
Sits down then leans over and says something like, "This is going to sound a 
little obsessive""

    G       C9      Bm      C9     G/B G/A
e|--3-3-3-3-3-------7-7-7-7-3-----3-3--3---------| x4 
B|--3-3-3-3-3-------7-7-7-7-3-----3-3--3---------|
G|--0-0-0-0-0-------7-7-7-7-0-----0-0--0---------|
D|--0-0-0-0-2-------9-9-9-9-2-----2-0--0---------|
A|--2-2-2-2-3-------9-9-9-9-3-----3-2--0---------|
E|--3-3-3-3---------x-x-x-x----------------------|
This is gonna sound a little obsessive, this is gonna sound a little bit strange
I have one thing to say before I turn and I walk away
This is gonna sound a little impulsive, this is gonna sound a little insane
I know you don't know me yet, but you and I, we will be together someday 

   A
e|-5-5-5-5----------5-5-5-5----------------------| x2
B|-5-5-5-5----------5-5-5-5----------------------|
G|-0-0-0-0----------0-0-0-0----------------------|
D|-0-0-0-0----------0-0-0-0----------------------|
A|-4-4-4-4----------4-4-4-4----------------------|
E|-5-5-5-5----------5-5-5-5----------------------|
Someday, I know
I know that I sound like I'm on drugs, listen to me when I say

    G       C9      Bm      C9     G/B G/A
e|--3-3-3-3-3-------7-7-7-7-3-----3-3--3---------| x4 
B|--3-3-3-3-3-------7-7-7-7-3-----3-3--3---------|
G|--0-0-0-0-0-------7-7-7-7-0-----0-0--0---------|
D|--0-0-0-0-2-------9-9-9-9-2-----2-0--0---------|
A|--2-2-2-2-3-------9-9-9-9-3-----3-2--0---------|
E|--3-3-3-3---------x-x-x-x----------------------|
Ever since when I first saw you, sitting on your car outside
You asked for a cigarette, I couldn't stop staring at your eyes
Ever since when I first saw you, looking bored in that plastic chair
With the lights in the office around you
Those blond streaks they look so pretty in your black hair

   A
e|-5-5-5-5----------5-5-5-5----------------------| x2
B|-5-5-5-5----------5-5-5-5----------------------|
G|-0-0-0-0----------0-0-0-0----------------------|
D|-0-0-0-0----------0-0-0-0----------------------|
A|-4-4-4-4----------4-4-4-4----------------------|
E|-5-5-5-5----------5-5-5-5----------------------|
You look cool and alternative with that disaffected stare
Yeah you want people to think that you just don't care

    G     Em  D             C       D
e|------------2-2-2--(x3)-|-------------| x2
B|------------3-3-3-------|-------------|
G|--------0---2-2-2-------|-5-5-5-5-7-7-|
D|--5-5---2---0-0-0-------|-5-5-5-5-7-7-|
A|--5-5---2---------------|-3-3-3-3-5-5-|
E|--3-3---0---------------|-------------|
Yeah you can be with me `cause I just might be the one
Who will treat you like you're perfect Who will always make you come
Yeah you can be with me Yes I will always let you win
I will never be like those other guys
I will never be your unemployed boyfriend

    G       C9      Bm      C9
e|--3-3-3-3-3-------7-7-7-7-3--------------------| x2
B|--3-3-3-3-3-------7-7-7-7-3--------------------|
G|--0-0-0-0-0-------7-7-7-7-0--------------------|
D|--0-0-0-0-2-------9-9-9-9-2--------------------|
A|--2-2-2-2-3-------9-9-9-9-3--------------------|
E|--3-3-3-3---------x-x-x-x----------------------|
"Can you believe he said that to me. To me, of all people
I can't even remember the last time a guy took me out on a date
  and actually paid for it"

    G       C9      Bm      C9     G/B G/A
e|--3-3-3-3-3-------7-7-7-7-3-----3-3--3---------|  
B|--3-3-3-3-3-------7-7-7-7-3-----3-3--3---------|
G|--0-0-0-0-0-------7-7-7-7-0-----0-0--0---------|
D|--0-0-0-0-2-------9-9-9-9-2-----2-0--0---------|
A|--2-2-2-2-3-------9-9-9-9-3-----3-2--0---------|
E|--3-3-3-3---------x-x-x-x----------------------|
This is gonna sound a little bit out there
This is gonna sound a litle insane

    G       C9       G
e|--3-3-3-3-3--------3-3-3-3-3-3---------| 
B|--3-3-3-3-3--------3-3-3-3-3-3---------|
G|--0-0-0-0-0--------0-0-0-0-0-0---------|
D|--0-0-0-0-2--------0-0-0-0-0-0---------|
A|--2-2-2-2-3--------2-2-2-2-2-2---------|
E|--3-3-3-3----------3-3-3-3-3-3---------|
But I keep having the same dream
You will be the mother of my children someday

   A
e|-5-5-5-5----------5-5-5-5----------------------| x10
B|-5-5-5-5----------5-5-5-5----------------------|
G|-0-0-0-0----------0-0-0-0----------------------|
D|-0-0-0-0----------0-0-0-0----------------------|
A|-4-4-4-4----------4-4-4-4----------------------|
E|-5-5-5-5----------5-5-5-5----------------------|
I heard you sleep with that obnoxious guy
I know he was in that famous band
You look so sad when you are with him
Yes I never see him reach to hold your hand

    G     Em  D             C       D
e|------------2-2-2--(x3)-|-------------| x3
B|------------3-3-3-------|-------------|
G|--------0---2-2-2-------|-5-5-5-5-7-7-|
D|--5-5---2---0-0-0-------|-5-5-5-5-7-7-|
A|--5-5---2---------------|-3-3-3-3-5-5-|
E|--3-3---0---------------|-------------|
Yeah you can be with me, Yes I will treat you like a queen
I will go to all those chick-flick movies that I really don't want to
  see
Yeah you can be with me, No I will never let you down
I will never make out with your girlfriend
When I know you're not around
Yes you can be with me Yeah I just might be the one
Who will treat you like your special I will always make you come

    G     Em  D             C                      D
e|------------2-2-2--(x3)-|-----------------------------|
B|------------3-3-3-------|-----------------------------|
G|--------0---2-2-2-------|-5-5-5-5-5-5-5-5-5-5-5-5-7-7-|
D|--5-5---2---0-0-0-------|-5-5-5-5-5-5-5-5-5-5-5-5-7-7-|
A|--5-5---2---------------|-3-3-3-3-3-3-3-3-3-3-3-3-5-5-|
E|--3-3---0---------------|-----------------------------|
You can be with me Yes I will always let you win
I will never be like those other guys
I will never be like those other guys
I will never be your unemployed boyfriend

    G       C9      Bm      C9
e|--3-3-3-3-3-------7-7-7-7-3--------------------| x1
B|--3-3-3-3-3-------7-7-7-7-3--------------------|
G|--0-0-0-0-0-------7-7-7-7-0--------------------|
D|--0-0-0-0-2-------9-9-9-9-2--------------------|
A|--2-2-2-2-3-------9-9-9-9-3--------------------|
E|--3-3-3-3---------x-x-x-x----------------------|
"Can you believe this?  I mean can this be for real?"

    G       C9      Bm      C9     G/B G/A
e|--3-3-3-3-3-------7-7-7-7-3-----3-3--3---------| x2 
B|--3-3-3-3-3-------7-7-7-7-3-----3-3--3---------|
G|--0-0-0-0-0-------7-7-7-7-0-----0-0--0---------|
D|--0-0-0-0-2-------9-9-9-9-2-----2-0--0---------|
A|--2-2-2-2-3-------9-9-9-9-3-----3-2--0---------|
E|--3-3-3-3---------x-x-x-x----------------------|
"Then he take my hand, writes down his number, and just walks away.
I mean.....wow.  But you know, the weird thing is, he actually is kinda cute" 

    G       C9      Bm      C9
e|--3-3-3-3-3-------7-7-7-7-3--------------------| x1
B|--3-3-3-3-3-------7-7-7-7-3--------------------|
G|--0-0-0-0-0-------7-7-7-7-0--------------------|
D|--0-0-0-0-2-------9-9-9-9-2--------------------|
A|--2-2-2-2-3-------9-9-9-9-3--------------------|
E|--3-3-3-3---------x-x-x-x----------------------|
"in a real intense way....kinda like Perry Farrell, you know intense
but sensitive.  Anyway, I told my bitchy sister about it and she just 
laughed at me.  I told her I was really excited about this, that I have a 
really good feeling about this guy.....I told her that this could be the guy"


Wonderful

Version 1: Tabbed by Jason Pan

Intro/Verse 1 riff (Chords are strummed slowly)
    G         D5            C5          D5 
e|-----3--------5-------------3-----------5------|
B|-----3--------7-------------5-----------7------|
G|----0--------7-------------5-----------7-------|
D|---0---------7-------------5-----------7-------|
A|---2--------5-------------3-----------5--------|
E|--3--------------------------------------------|

Intro Riff x1

G
I close my eyes when I get too sad. 
D5
I think thoughts that I know are bad. 
C5
Close my eyes and I count to ten. 
D5
Hope it’s over when I open them. 
G
I want the things that I had before,
D5
Like a Star Wars poster on my bedroom door. 
C5
I wish I could count to ten,
D5
make everything be wonderful again. 
G
Hope my Mom and I hope my Dad 
D5
figure out why they get so mad. 
C5
Hear them scream, hear them fight. 
D5
They say bad words that make me want to cry. 
G
I close my eyes when I go to bed 
D5
and I dream of angels that make me smile. 
C5
I feel better when I hear them say, 
D5
"Everything will be wonderful some day." 

   C                        D 
e|---3-----3------------------5-----5--------|
B|-----5-----5------------------7-----7------|
G|-------5------------------------7----------|
D|-------------------------------------------|
A|-3------------------------5----------------|
E|-------------------------------------------|
   Promises mean everything when you’re little and the
   
    G                G 
e|----3-----3---3-------3-----3---3-----|
B|------3-----3---3-------3-----3---3---|
G|--------4-----------------4-----------|
D|--------------------------------------|
A|--------------------------------------|
E|--3----------------3------------------|
    world’s so big. I just don’t understand how 

   C                        D 
e|---------------------------------------------------------|
B|---------------------------------------------------------|
G|-----------------------------------------7---------------|
D|--------------------------------------7------------------|
A|----------------------------------5----------------------|
E|---------------------------------------------------------|
you can smile with all those tears in your eyes 

e|------------------------------|
B|------------------------------|
G|--------------------4-7-4-----|
D|----------------5-7-------7---|
A|-----------5-5----------------|
E|------------------------------|
and tell me everything is wonderful now. 

    G5         E5 D5         E5 C5         E5 D5       E5
e|--10-7-10-7-10-7-10-7-10-7-10-7-10-7-10-7-10-7-10-7-10-7-|
B|---------------------------------------------------------|
G|---------------------------------------------------------|
D|---------------------------------------------------------|
A|---------------------------------------------------------|
E|---------------------------------------------------------|
 |                                                         |
e|---------------------------------------------------------|
B|---------------------------------------------------------|
G|--------------9-7-----------9-5-----------9-7---------9--|
D|--5-----------9-7-----------9-5-----------9-7---------9--|
A|--5-----------7-5-----------7-3-----------7-5---------7--|
E|--3------------------------------------------------------|
                                     Please don’t tell me everything is  
                                                     wonderful now.

G5                                E5  
Go to school and I run and play. 
D5                                  E5
I tell the kids that it’s all O.K. 
C5                                      E5
I have to laugh so my friends don’t know,
D5                                             E5
when the bell rings I just don’t wanna go home.
G5                                   E5
I go to my room and I close my eyes, 
D5                                     E5
I make believe that I have a new life. 
C5                              E5 
I do believe you when you say,
D5                                      E5
"Everything will be wonderful someday." 

   C5              E5 D5             E5
e|-3---------------7--5--------------7-|
B|-5---------------9--7--------------9-|
G|-5---------------9--7--------------9-|
D|-5---------------9--7--------------9-|
A|-3---------------7--5--------------7-|
E|-------------------------------------|
 |                                     |
e|---3-----3------------5-----5--------|
B|-----5-----5------------7-----7------|
G|-------5------------------7----------|
D|-------------------------------------|
A|-3------------------5----------------|
E|-------------------------------------|
   Promises mean everything when you're little and the
   
   G5         E      G5          E
e|-3-----------------3-----------------|
B|-3-----------------3-----------------|
G|-4-----------------4-----------------|
D|-5----------2-2-2--5-----------2-2-2-|
A|-5----------2-2-2--5-----------2-2-2-|
E|-3----------0-0-0--3-----------0-0-0-|
 |                                     |
e|----3-----3---3-------3-----3---3----|
B|------3-----3---3-------3-----3---3--|
G|--------4-----------------4----------|
D|-------------------------------------|
A|-------------------------------------|
E|--3----------------3-----------------|
    world's so big, so big, I just don't understand how 

   C5              E5 D5             
e|-3---------------7-------------------|
B|-5---------------9-------------------|
G|-5---------------9--7----------------|
D|-5---------------9--7----------------|
A|-3---------------7--5----------------|
E|-------------------------------------|
 |                                     |
e|---3-----3------------5-----5--------|
B|-----5-----5------------7-----7------|
G|-------5------------------7----------|
D|-------------------------------------|
A|-3------------------5----------------|
E|-------------------------------------|
you can smile with all those tears in your eyes 

e|------------------------------|
B|------------------------------|
G|--------------------4-7-4-----|
D|----------------5-7-------7---|
A|-----------5-5----------------|
E|------------------------------|
and tell me everything is wonderful now. 

   G5         E5 D5         E5 C5         E5 D5       E5
e|--10-7-10-7-10-7-10-7-10-7-10-7-10-7-10-7-10-7-10-7-10-7-| x2
B|---------------------------------------------------------|
G|---------------------------------------------------------|
D|---------------------------------------------------------|
A|---------------------------------------------------------|
E|---------------------------------------------------------|
 |                                                         |
e|---------------------------------------------------------|
B|---------------------------------------------------------|
G|--------------9-7-----------9-5-----------9-7---------9--|
D|--5-----------9-7-----------9-5-----------9-7---------9--|
A|--5-----------7-5-----------7-3-----------7-5---------7--|
E|--3------------------------------------------------------|
                                    I don't wanna hear you tell me
              				everything is wonderful now

   C5                        D5 
e|-10-7-10-7-10-7-10-7-10-7-10-7-10-7-10-7-10-7-10-7-| 
B|---------------------------------------------------|
G|---------------------------------------------------|
D|---------------------------------------------------|
A|---------------------------------------------------|
E|---------------------------------------------------|   
 |                                                   |
e|---------------------------------------------------|
B|---------------------------------------------------|
G|-5--5--5--5--5--5--5--5----7--7--7--7--7--7--7--7--|
D|-5--5--5--5--5--5--5--5----7--7--7--7--7--7--7--7--|
A|-3--3--3--3--3--3--3--3----5--5--5--5--5--5--5--5--|
E|---------------------------------------------------| 
   I don't wanna hear you say I will understand someday.

   G5               E      G5               E
e|-10-7-10-7-10-7-10-7-10-7-10-7-10-7-10-7-10-7-10-7-| 
B|---------------------------------------------------|
G|---------------------------------------------------|
D|---------------------------------------------------|
A|---------------------------------------------------|
E|---------------------------------------------------|   
 |                                                   |
e|---------------------------------------------------|
B|---------------------------------------------------|
G|---------------------------------------------------|
D|-5--5--5--x--x--x--2-2-2--5--5--5--x--x--x---2-2-2-|
A|-5--5--5--x--x--x--2-2-2--5--5--5--x--x--x---2-2-2-|
E|-3--3--3--x--x--x--0-0-0--3--3--3--x--x--x---0-0-0-|
            No,      no!              no,       no!

  C5                        D5  
e|-10-7-10-7-10-7-10-7-10-7-10-7-10-7-10-7-10-7-10-7-| 
B|---------------------------------------------------|
G|---------------------------------------------------|
D|---------------------------------------------------|
A|---------------------------------------------------|
E|---------------------------------------------------|   
 |                                                   |  
e|---------------------------------------------------|
B|---------------------------------------------------|
G|-5--5--5--5--5--5--5--5----7--7--7--7--7--7--7--7--|
D|-5--5--5--5--5--5--5--5----7--7--7--7--7--7--7--7--|
A|-3--3--3--3--3--3--3--3----5--5--5--5--5--5--5--5--|
E|---------------------------------------------------| 
I don't wanna hear you say you both have grown in a different way

   G5               E      G5               E
e|-10-7-10-7-10-7-10-7-10-7-10-7-10-7-10-7-10-7-10-7-| 
B|---------------------------------------------------|
G|---------------------------------------------------|
D|---------------------------------------------------|
A|---------------------------------------------------|
E|---------------------------------------------------|   
 |                                                   |
e|---------------------------------------------------|
B|---------------------------------------------------|
G|---------------------------------------------------|
D|-5--5--5--x--x--x--2-2-2--5--5--5--x--x--x---2-2-2-|
A|-5--5--5--x--x--x--2-2-2--5--5--5--x--x--x---2-2-2-|
E|-3--3--3--x--x--x--0-0-0--3--3--3--x--x--x---0-0-0-|
            No,      no!              no,       no!

  C5                        D5  
e|-10-7-10-7-10-7-10-7-10-7-10-7-10-7-10-7-10-7-10-7-| 
B|---------------------------------------------------|
G|---------------------------------------------------|
D|---------------------------------------------------|
A|---------------------------------------------------|
E|---------------------------------------------------|   
 |                                                   |  
e|---------------------------------------------------|
B|---------------------------------------------------|
G|-5--5--5--5--5--5--5--5----7--7--7--7--7--7--7--7--|
D|-5--5--5--5--5--5--5--5----7--7--7--7--7--7--7--7--|
A|-3--3--3--3--3--3--3--3----5--5--5--5--5--5--5--5--|
E|---------------------------------------------------| 
I don't wanna meet your friend and I don't wanna start over again

   G5              F#5            E                 D5 
e|-10-7-10-7-10-7-10-7-10-7-10-7-10-7-10-7-10-7-10-7-10-7-10-7-10-7-|
B|------------------------------------------------------------------|
G|------------------------------------------------------------------|
D|------------------------------------------------------------------|
A|------------------------------------------------------------------|
E|------------------------------------------------------------------|
 |                                                                  |
e|------------------------------------------------------------------|
B|------------------------------------------------------------------|
G|--------------------------------------------------7---7---7---7---|
D|-5---5---5---5---4---4---4---4--2---2---2---2-----7---7---7---7---|
A|-5---5---5---5---4---4---4---4--2---2---2---2-----5---5---5---5---|
E|-3---3---3---3---2---2---2---2--0---0---0---0---------------------|
   I just wanna my life to be the same just like it used to be.


   C5               D5                          D5
e|------------------------------------------------------|
B|------------------------------------------------------|
G|-5----------------7--------------------------7--------|
D|-5----------------7--------------------------7--------|
A|-3----------------5--------------------------5--------|
E|------------------------------------------------------|			       
   Someday’s I hate everything. Yeah, I hate everything. 

                    D5
e|---------------------------------------|
B|---------------------------------------|
G|-------------------7-------------------|
D|-------------------7-------------------|
A|-------------------5-------------------|
E|---------------------------------------|			      
   Everyone and everything, 

                          D5
e|-----------------------------------------------|
B|-----------------------------------------------|
G|------------------------7----7----7---7---7----|
D|------------------------7----7----7---7---7----|
A|------------------------5----5----5---5---5----|
E|-----------------------------------------------|
   Please don't tell me everything is Wonderful now!

    G5      E5    D5      E5    C5      E5    D5      E5
e|---------------------------------------------------------| x2
B|---------------------------------------------------------|
G|----------9-9---7-7-7---9-9---5-5-5---9-9---7-7-7---9-9--|
D|--5-5-5---9-9---7-7-7---9-9---5-5-5---9-9---7-7-7---9-9--|
A|--5-5-5---7-7---5-5-5---7-7---3-3-3---7-7---5-5-5---7-7--|
E|--3-3-3--------------------------------------------------|
                  No! Please don't tell me everything is wonderful now

    G5      E5    D5      E5    C5      E5    D5      E5
e|--10-7-10-7-10-7-10-7-10-7-10-7-10-7-10-7-10-7-10-7-10-7-| x2
B|---------------------------------------------------------|
G|---------------------------------------------------------|
D|---------------------------------------------------------|
A|---------------------------------------------------------|
E|---------------------------------------------------------|
 |                                                         |
e|---------------------------------------------------------|
B|---------------------------------------------------------|
G|----------9-9---7-7-7---9-9---5-5-5---9-9---7-7-7---9-9--|
D|--5-5-5---9-9---7-7-7---9-9---5-5-5---9-9---7-7-7---9-9--|
A|--5-5-5---7-7---5-5-5---7-7---3-3-3---7-7---5-5-5---7-7--|
E|--3-3-3--------------------------------------------------|
                  No! Please don't tell me everything is wonderful now

   
e|------------------------------------------------------------|
B|------------------------------------------------------------|
G|------------------------------------------------------------|
D|-5----------------------------------------------------------|
A|-5----------------------------------------------(feedback)--|
E|-3--(let ring)----------------------------------------------|
 |					                      |
 | (Bass guitar) 					      |
G|------------------------------------------------------------|
D|------------------------------------------------------------|
A|------------------------------------------------------------|
E|-3-3-3----0-0----3-3-3---0-0----3-3-3---0-0----3-3-3---0-0--|
                                 "Ohh Yeah, Yeah, everything is wonderful ow"

e|-7-8-10-8-7-8-7----------------------------------------7-8-10-8-7-8-7-|
B|---------------------12\-------------12\------------12\---------------|
G|---------------------12\-------------12\------------12\---------------|
D|----------------------------------------------------------------------|
A|----------------------------------------------------------------------|
E|----------------------------------------------------------------------|
 |					                                |
 | (Bass guitar) 					                |
G|----------------------------------------------------------------------|
D|----------------------------------------------------------------------|
A|----------------------------------------------------------------------|
E|-3-3-3----0-0----3-3-3---0-0----3-3-3---0-0----3-3-3---0-0------------|
                                 "Oh Yeah Everything is wonderful Now"

e|-10--10----------10--10----------------------(fades out)----|
B|---12--12\---------12--12\-----12~~-------------------------|
G|------------------------------------------------------------|
D|------------------------------------------------------------|
A|------------------------------------------------------------|
E|------------------------------------------------------------|
 |					                      |
 | (Bass guitar) 					      |
G|------------------------------------------------------------|
D|------------------------------------------------------------|
A|------------------------------------------------------------|
E|-3-3-3----0-0----3-3-3---0-0----3-3-3---0-0----3-3-3---0-0--|


Annabellas Song

NOTE:
This song is performed almost exclusively by a symphony orchestra, which 
is almost impossible to tab properly and/or make it sound half decent. 
These chords are from the original version of the song - found on 
the Heroin Girl single - and which can be used to play along. I've 
attempted to tab bits here and there, but basically play with the chords.

  Symphony Orchestra arranged for guitar!
e|-----------------------------------------------|
B|----0h1-3-0--------0---------------------------|
G|-0h2-------------2---2-------------------------|
D|-----------------------2-5-4-0-----------------|
A|-----------------------------------------------|
E|-----------------------------------------------| 
 |                                               |
e|-----------------------------7-10-8h10p8h10p8--|
B|-----------------------------------------------|
G|-----------------------------------------------|
D|----------5-7----------------------------------|
A|--------------5--------------------------------|
E|-----------------------------------------------|

e|-----------------------------------------------|
B|-----------------------------------------------|
G|-----------------------------------------------|
D|-----------------------------------------------|
A|--3-5-3-0--2-----2----2-0----------------------|
E|--------------3-----3-----3-2------------------|
 |                                               |
e|-----------7-----7----7------------------------|
B|--------------8-----8--------------------------|
G|-----------------------------------------------|
D|-----------------------------------------------|
A|-----------------------------------------------|
E|-----------------------------------------------|

Guitar 
   G           C9          G/A         C9
e|-------3-----------3-----------3-----------3----| x2
B|----------3-----------3-----------3-----------3-|
G|----0-----------0-----------0-----------0-------|
D|------------------------------------------------|
A|-------------3-----------0-----------3----------|
E|-3----------------------------------------------|
 
  Guitar 
   G           C9          G/A         C9
e|-------3-----------3-----------3-----------3----| x3
B|----------3-----------3-----------3-----------3-|
G|----0-----------0-----------0-----------0-------|
D|------------------------------------------------|
A|-------------3-----------0-----------3----------|
E|-3----------------------------------------------|
 |Symphony/Xylophone                              |
e|-------15-12-------------------15-12------------|
B|----15------15-12-12--------15------15-12-12----|
G|-12------------------14--12------------------14-|
D|------------------------------------------------|
A|------------------------------------------------|
E|------------------------------------------------|
     
  Guitar 
   G/A             G/B  C9
e|-------3-----------3--3-------------------------| 
B|----------3--------3--3-------------------------|
G|----0--------0-----0--0-------------------------|
D|-------------------0--2-------------------------|
A|-0--------------0--2--3-------------------------|
E|------------------------------------------------|
 |Symphony/Xylophone                              |
e|-------15-12-------------------15-12------------|
B|----15------15-12-12--------15------15-12-12----|
G|-12------------------14--12------------------14-|
D|------------------------------------------------|
A|------------------------------------------------|
E|------------------------------------------------|
                          pm......................

Em                                          G 
See you roll your eyes you know it makes me smile
			                                   Em    
Yes you are like the sun to me, All bright as liquid fire

I feel so powerless, hold you up above the world
C                           D
Yeah you are quite a lot of trouble
D
For such a pretty little girl 

G    C     A      C          

G    C     A    C
Such a pretty little girl
Em			                               G 		
I know I'm never home I'm always miles and miles away
                                                   G/F# Em
Here I'm runnin' out of time, say the things I need to say
Em
I call you on the telephone, you will not talk to me
C                   D
Yeah you just don't understand
D
You are my everything 

   G           C9          G/A         C9
e|-------3-----------3-----------3-----------3----| x4
B|----------3-----------3-----------3-----------3-|
G|----0-----------0-----------0-----------0-------|
D|------------------------------------------------|
A|-------------3-----------0-----------3----------|
E|-3----------------------------------------------|
   Anna,                   Anna
   Tell me what you want   Tell me what you need
   Anna,                   You are never alone
                           You are never alone...

    Em                G   
         Hey-eay-eay                  Hey-eay-eay 

   Em                   C      D
      Hey Yey-yey       Yeah  Yeah 

   G           C9          G/A         C9
e|-------3-----------3-----------3-----------3----| x4
B|----------3-----------3-----------3-----------3-|
G|----0-----------0-----------0-----------0-------|
D|------------------------------------------------|
A|-------------3-----------0-----------3----------|
E|-3----------------------------------------------|
   Anna,                   Anna
   Tell me what you want   Tell me what you need
   Anna,                   You are never alone
                           You are never alone...

Em
I like to watch you play
Em
When you don't know I'm there
G
I watch you in your sleep at night
G                          G/F#
Reach out and touch your hair
Em
I wanna make this world
Em
Be just how you want it to be
C				 D
Yeah you just don't understand
D
You are everything 

G       C      A       C 
Anna,          Anna
G       C 
Tell me what you want
A       C
Baby, tell me what you need
G	  C	
Anna, 
A	  C	
You are never alone

   G           C9          G/A         C9
e|-------3-----------3-----------3-----------3----| x1
B|----------3-----------3-----------3-----------3-|
G|----0-----------0-----------0-----------0-------|
D|------------------------------------------------|
A|-------------3-----------0-----------3----------|
E|-3----------------------------------------------|
 |Symphony/Xylophone                              |
e|-------15-12-------------------15-12------------|
B|----15------15-12-12--------15------15-12-12----|
G|-12------------------14--12------------------14-|
D|------------------------------------------------|
A|------------------------------------------------|
E|------------------------------------------------|
                           You are never alone

   G           C9          G/A         C9
e|-------3-----------3-----------3-----------3----| x3
B|----------3-----------3-----------3-----------3-|
G|----0-----------0-----------0-----------0-------|
D|------------------------------------------------|
A|-------------3-----------0-----------3----------|
E|-3----------------------------------------------|
 |Symphony/Xylophone                              |
e|-------15-12-------------------15-12------------|
B|----15-------15-12-12-------15------15-12-12----|
G|-12-------------------14-12------------------14-|
D|------------------------------------------------|
A|------------------------------------------------|
E|------------------------------------------------|
 | Symphony                                       |
e|-10-7--10-7--10-7--10-7--10-7--10-7-10-7--10-7--|
B|------------------------------------------------|
G|------------------------------------------------|
D|------------------------------------------------|
A|------------------------------------------------|
E|------------------------------------------------|
   Anna,                   Anna
   Tell me what you want   Tell me what you need
   Anna, Anna              You are never alone
   

G	  C	  
Anna,         
 A       C
You are never alone...

Guitar 
   G           C9          G/A         C9
e|-------3-----------3-----------3-----------3----| x4
B|----------3-----------3-----------3-----------3-|
G|----0-----------0-----------0-----------0-------|
D|------------------------------------------------|
A|-------------3-----------0-----------3----------|
E|-3----------------------------------------------|
Anna,                     You are never alone.....    x4

(Strum a G chord to end)



                  "Now...          Now...      Everything is."
comments
We did not receive enough feedback on this tab! Please rate:
print report bad tab
1 2 3 4 5
1 comment total.
0 reply
punkrockdude2 wrote on December 2 2007, 01:41 pm

do I just play the same chords on my ukulele? and what about mandolin im not very good at mine I have ginormous fingers.

I want to post or [tab]
guest
You may want to rate the tab now too:
select rating
Please do not post tabs as comments. Select "correction" instead!