Oops, an error
Loading. Please wait.

Songs From An American Movie Part 2 - Good Time For A Bad Attitude Tab

802 views 1 this week
no commentswrite comment
1 2 3 4 5
accurate
x 2
Autoscroll
+/-
esc
set tempo
stop
Contributor
Hey! There's an official Ultimate Guitar app which is ideal
for learning songs when you're away from computer. Get the app
WARNING: You are trying to view
                                    content from Ultimate-Guitar.com
                                    in an unauthorized application,
                                    which is prohibited.

                                    Please use an official Ultimate
                                    Guitar Tabs application for iPhone,
                                    iPad or Android to access legitimate
                                    chords, guitar, bass, and drum tabs
                                    from Ultimate-Guitar.com database.

                                    Type "ultimate guitar tabs" in Apple
                                    App Store's or Android Market's
                                    search to find the application.
Songs From An American Movie Volume 2:Good Time For A Bad Attitude
All Lyrics By Art Alexakis
All Music By Everclear


When It All Goes Wrong Again
Tuning: Down 1/2 Step: Eb Ab Gb Db Bb Eb

Intro:
eb|------------------------------------------------|
Bb|------------------------------------------------|
Gb|-----2---2-/-4---4---4----2---2-/-4---4---4-----|
Db|-----3---3-/-5---5---5----3---3-/-5---5---5-----|
Ab|-----3---3-/-5---5---5----3---3-/-5---5---5-----|
Eb|-----1---1-/-3---3---3----1---1-/-3---3---3-----|

Verse Riff:
eb--5-5
bb----3
gb----0

Play This Ar "When I Saw My Brother"...
db-9-9-9-9-9/111111111-----------------------------------------------
ab-X-X-X-X-X-X-X-X-X-X-----------------------------------------------
Eb-7-7-7-7-7/9-9-9-9-9-------18-18-18-17-17-15-15-13-13-12-12-9-9-9-7

db------------------
ab------------------
Eb-7-7-5-5-5-3-3-3-3


Chorus:

db-5-5-5\3-3/5-5-X-X-X-X                 Db-9-9-9-9-7-7-7-7
ab-5-5-5\3-3/5-5-X-X-X-X                 Ab-9-9-9-9-7-7-7-7
Eb-3-3-3\1-1/3-3-X-X-X-X  repeat then go Eb-7-7-7-7-5-5-5-5 

                           play the above twice

Play This At "Where Are You Going To Be..."
eb|----------------------------------------|
Bb|----------------------------------------|
Gb|----4---4---4---4---4---4---4---4-------|
Db|----5---5---5---5---5---5---5---5-------|
Ab|----5---5---5---5---5---5---5---5-------|
Eb|----3---3---3---3---3---3---3---3-------|
pm.....................................

Then This:
eb|-----------------------------------------------|
Bb|-4---4---4---4---5---5---5---5-----------------|
Gb|-4---4---4---4---5---5---5---5-----------------|
Db|-4---4---4---4---5---5---5---5-----------------|
Ab|-2---2---2---2---3---3---3---3-----------------|
Eb|-----------------------------------------------|

Play This After The Riff Above:
eb|--------------------------------|
Bb|--------------------------------|
Gb|--------------------------------|
Db|---10---10-/-12--12---12-\-10---|
Ab|----8----8-/-10--10---10-\--8---|
Eb|--------------------------------|

Then This:
eb|------------------------------------------------|
Bb|------------------------------------------------|
Gb|-----2---2-/-4---4---4----2---2-/-4---4---4-----|
Db|-----3---3-/-5---5---5----3---3-/-5---5---5-----|
Ab|-----3---3-/-5---5---5----3---3-/-5---5---5-----|
Eb|-----1---1-/-3---3---3----1---1-/-3---3---3-----|

A Keyboard Plays The Following Part All The Way Through The Song:
eb|-------------4--------1~-------------------|
Bb|-------------------------------------------|
Gb|-------------------------------------------|
Db|-------------------------------------------|
Ab|-------------------------------------------|
Eb|-------------------------------------------|


Slide

Slide


NOTE: Tuning is half a step down (Low to High EbAbDbGbBbeb)
	All Chords are written with respect to that tuning 
		(ie A becomes G#)

                                    D#
eb|---12------12------12------12------12------12------12------12-----|
Bb|-------12------12------12------12------12------12------12------12-|
Gb|-----13------13------13------13------13------13------13------13---|
Db|/14------14------14------14------14------14------14------14-------|
Ab|------------------------------------------------------------------|
Eb|------------------------------------------------------------------|
  |                                                                  |
eb|--------------------------------\-0-------------------------\\----|
Bb|--------------------------------\-0-----------------------small---|
Gb|--------------------------------\-1------------------------pick---|
Db|--------------------------------\-2-----------------------scrape--|
Ab|--------------------------------\-2-------------------------\\----|
Eb|--------------------------------\-0-------------------------\\----|

    D#
eb|---12------12------12------12-----|
Bb|-------12------12------12------12-|
Gb|-----13------13------13------13---|
Db|-14------14------14------14-------|
Ab|----------------------------------|
Eb|----------------------------------|
  |                                  |
eb|----------------------------------|
Bb|----------------------------------|
Gb|----------------------------------|
Db|-2-2-2-2-2-2-2-2-2-2-2-2-2-2-2-2--|
Ab|-2-2-2-2-2-2-2-2-2-2-2-2-2-2-2-2--|
Eb|-0-0-0-0-0-0-0-0-0-0-0-0-0-0-0-0--|

    D#              B               A#             G#  
eb|---12------12------12------12------12------12------12------12-----| x3
Bb|-------12------12------12------12------12------12------12------12-|
Gb|-----13------13------13------13------13------13------13------13---|
Db|/14------14------14------14------14------14------14------14-------|
Ab|------------------------------------------------------------------|
Eb|------------------------------------------------------------------|
  |                                                                  |
eb|------------------------------------------------------------------|
Bb|------------------------------------------------------------------|
Gb|-----------------5-5-5-5-5-5-5-5-4-4-4-4-4-4-4-4-2-2-2-2-2-2-2-2--|
Db|-2-2-2-2-2-2-2-2-5-5-5-5-5-5-5-5-4-4-4-4-4-4-4-4-2-2-2-2-2-2-2-2--|
Ab|-2-2-2-2-2-2-2-2-3-3-3-3-3-3-3-3-2-2-2-2-2-2-2-2-0-0-0-0-0-0-0-0--|
Eb|-0-0-0-0-0-0-0-0--------------------------------------------------|
  pm.................................................................
We were fading like the bottom of a bad dream.
We were heading south looking for a good time. 
Faces look so pretty in the spotlight. 
All blown out and bathed inside a world of white. 
Sometimes I feel like I am holding it together. 
Sometimes I feel like everything is fine. 

    D#              B               A#             G#  
eb|---12------12------12------12------12------12------12------12-----| x3
Bb|-------12------12------12------12------12------12------12------12-|
Gb|-----13------13------13------13------13------13------13------13---|
Db|/14------14------14------14------14------14------14------14-------|
Ab|------------------------------------------------------------------|
Eb|------------------------------------------------------------------|
  |                                                                  |
eb|------------------------------------------------------------------|
Bb|------------------------------------------------------------------|
Gb|-----------------5-5-5-5-5-5-5-5-4-4-4-4-4-4-4-4-2-2-2-2-2-2-2-2--|
Db|-2-2-2-2-2-2-2-2-5-5-5-5-5-5-5-5-4-4-4-4-4-4-4-4-2-2-2-2-2-2-2-2--|
Ab|-2-2-2-2-2-2-2-2-3-3-3-3-3-3-3-3-2-2-2-2-2-2-2-2-0-0-0-0-0-0-0-0--|
Eb|-0-0-0-0-0-0-0-0--------------------------------------------------|
  pm......... . . . 
Sometimes I feel like I am out of control. I feel like I am falling…
     Like my life is on a slide. 

    D#       F#    G# D#      F#    G#
eb|--------------------------------------| x2
Bb|--------------------------------------|
Gb|--------------------------------------|
Db|-2--2-2---5-5-5/7---2--2-2--5-5-5/7---|
Ab|-2--2-2---5-5-5/7---2--2-2--5-5-5/7---|
Eb|-0--0-0---3-3-3/5---0--0-0--3-3-3/5---|
Slide
Slide

    D#  D# C# F#   G#    D#  D# C# F#   G# 
eb|-----------------------------------------| x2
Bb|-----------------------------------------|
Gb|------9-7------------------9-7-----------|
Db|-2-2/-9-7--5-5-5/7----2-2/-9-7--5-5-5/7--|
Ab|-2-2/-7-5--5-5-5/7----2-2/-7-5--5-5-5/7--|
Eb|-0-0-------3-3-3/5----0-0-------3-3-3/5--|
 Slide                  Slide 
 Slide                  Slide 

    D#              B               A#             G#  
eb|---12------12------12------12------12------12------12------12-----| x3
Bb|-------12------12------12------12------12------12------12------12-|
Gb|-----13------13------13------13------13------13------13------13---|
Db|/14------14------14------14------14------14------14------14-------|
Ab|------------------------------------------------------------------|
Eb|------------------------------------------------------------------|
  |                                                                  |
eb|------------------------------------------------------------------|
Bb|------------------------------------------------------------------|
Gb|-----------------5-5-5-5-5-5-5-5-4-4-4-4-4-4-4-4-2-2-2-2-2-2-2-2--|
Db|-2-2-2-2-2-2-2-2-5-5-5-5-5-5-5-5-4-4-4-4-4-4-4-4-2-2-2-2-2-2-2-2--|
Ab|-2-2-2-2-2-2-2-2-3-3-3-3-3-3-3-3-2-2-2-2-2-2-2-2-0-0-0-0-0-0-0-0--|
Eb|-0-0-0-0-0-0-0-0--------------------------------------------------|
  pm.................................................................
It was sunny on the streets down there by the water. 
We would get hammered on the beach right down by the water. 
She was slightly out of reach, a rich mans only daughter. 
I think she slept with me just so she could piss off her father. 
I am elastic. I am easy with the damage. 
I am ecstatic. I am hungry for the climb. 

    D#              B               A#             G#  
eb|---12------12------12------12------12------12------12------12--| x3
Bb|-------12------12------12------12------12------12------12------12-|
Gb|-----13------13------13------13------13------13------13------13---|
Db|/14------14------14------14------14------14------14------14-------|
Ab|------------------------------------------------------------------|
Eb|------------------------------------------------------------------|
  |                                                                  |
eb|------------------------------------------------------------------|
Bb|------------------------------------------------------------------|
Gb|-----------------5-5-5-5-5-5-5-5-4-4-4-4-4-4-4-4-2-2-2-2-2-2-2-2--|
Db|-2-2-2-2-2-2-2-2-5-5-5-5-5-5-5-5-4-4-4-4-4-4-4-4-2-2-2-2-2-2-2-2--|
Ab|-2-2-2-2-2-2-2-2-3-3-3-3-3-3-3-3-2-2-2-2-2-2-2-2-0-0-0-0-0-0-0-0--|
Eb|-0-0-0-0-0-0-0-0--------------------------------------------------|
  pm......... . . . 
Sometimes I feel like I am falling apart… I feel like I am falling… 
Like my life is on a slide. 

    D#       F#    G# D#      F#    G#
eb|--------------------------------------| x2
Bb|--------------------------------------|
Gb|--------------------------------------|
Db|-2--2-2---5-5-5/7---2--2-2--5-5-5/7---|
Ab|-2--2-2---5-5-5/7---2--2-2--5-5-5/7---|
Eb|-0--0-0---3-3-3/5---0--0-0--3-3-3/5---|
Slide
Slide

    D#  D# C# F#   G#    D#  D# C# F#   G# 
eb|-----------------------------------------| x2
Bb|-----------------------------------------|
Gb|------9-7------------------9-7-----------|
Db|-2-2/-9-7--5-5-5/7----2-2/-9-7--5-5-5/7--|
Ab|-2-2/-7-5--5-5-5/7----2-2/-7-5--5-5-5/7--|
Eb|-0-0-------3-3-3/5----0-0-------3-3-3/5--|
 Slide                  Slide 
 Slide                  Slide 

    B   E B   F#  B  D#  D# C# F#   G#  
eb|-------------------------------------| x2
Bb|-5-5-6-5-----------------------------|
Gb|-5-5-5-5-------5-------9-7-----------|
Db|-5-5-3-5---5-5-5--2-2/-9-7--5-5-5/7--|
Ab|-3-3-3-3---5-5-3--2-2/-7-5--5-5-5/7--|
Eb|-----------3-3----0-0-------3-3-3/5--|
I know it's wrong but I just can’t seem to act my age. 
I know it's wrong but I just can’t seem to control my rage. 

    B   E B   F#  B  C# F# C#  G#  C#
eb|-------------------------------------|
Bb|-5-5-6-5----------7-7-8-7------------|
Gb|-5-5-5-5-------5--7-7-7-7-------7----|
Db|-5-5-3-5---5-5-5--7-7-5-7---7-7-7----|
Ab|-3-3-3-3---5-5-3--5-5-5-5---7-7-5----|
Eb|-----------3-3--------------5-5------|
My heart is racing and I am losing my mind. 

    B   E B   F#  B  D#                  
eb|-------------------------------------|    
Bb|-5-5-6-5-----------------------------|
Gb|-5-5-5-5-------5---------------------|
Db|-5-5-3-5---5-5-5--2------------------|
Ab|-3-3-3-3---5-5-3--2------------------|
Eb|-----------3-3----0------------------|
Sometimes I feel like my life is on a slide. 

    D#              B               A#             G#  
eb|---12------12------12------12------12------12------12------12-----| x2
Bb|-------12------12------12------12------12------12------12------12-|
Gb|-----13------13------13------13------13------13------13------13---|
Db|/14------14------14------14------14------14------14------14-------|
Ab|------------------------------------------------------------------|
Eb|------------------------------------------------------------------|
  |                                                                  |
eb|------------------------------------------------------------------|
Bb|------------------------------------------------------------------|
Gb|-----------------5-5-5-5-5-5-5-5-4-4-4-4-4-4-4-4-2-2-2-2-2-2-2-2--|
Db|-2-2-2-2-2-2-2-2-5-5-5-5-5-5-5-5-4-4-4-4-4-4-4-4-2-2-2-2-2-2-2-2--|
Ab|-2-2-2-2-2-2-2-2-3-3-3-3-3-3-3-3-2-2-2-2-2-2-2-2-0-0-0-0-0-0-0-0--|
Eb|-0-0-0-0-0-0-0-0--------------------------------------------------|
  pm.................................................................
Those faces look so scary in the harsh light. 
All blown out and bathed inside a world of white. 
We were shining like the good part of a bad time.
We were laughing, happy just to be along for the ride. 

    D#              G               A#             B       G# A# F#
eb|---12------12------12------12------12------12------12------12--- x2
Bb|-------12------12------12------12------12------12------12------12-|
Gb|-----13------13------13------13------13------13------13------13---|
Db|/14------14------14------14------14------14------14------14-------|
Ab|------------------------------------------------------------------|
Eb|------------------------------------------------------------------|
  |                                                                  |
eb|------------------------------------------------------------------|
Bb|------------------------------------------------------------------|
Gb|---------------------------------4-4-4-4-4-4-4-4-5-5-5-5-2-4------|
Db|-2-2-2-2-2-2-2-2-6-6-6-6-6-6-6-6-4-4-4-4-4-4-4-4-5-5-5-5-2-4-5-5--|
Ab|-2-2-2-2-2-2-2-2-6-6-6-6-6-6-6-6-2-2-2-2-2-2-2-2-3-3-3-3-0-2-5-5--|
Eb|-0-0-0-0-0-0-0-0-4-4-4-4-4-4-4-4-----------------------------3-3--|
  pm.................................................................
Sometimes I fell like I am really lucky. 
I have made it through bruised and scarred and half alive. 
Sometimes I feel like I’m out of control. 
I feel like I am falling… Like my life is on a slide. 

    D#       F#    G# D#      F#    G#
eb|--------------------------------------| x2
Bb|--------------------------------------|
Gb|--------------------------------------|
Db|-2--2-2---5-5-5/7---2--2-2--5-5-5/7---|
Ab|-2--2-2---5-5-5/7---2--2-2--5-5-5/7---|
Eb|-0--0-0---3-3-3/5---0--0-0--3-3-3/5---|
Slide
Slide

    D#  D# C# F#   G#    D#  D# C# F#   G# 
eb|-----------------------------------------| x2
Bb|-----------------------------------------|
Gb|------9-7------------------9-7-----------|
Db|-2-2/-9-7--5-5-5/7----2-2/-9-7--5-5-5/7--|
Ab|-2-2/-7-5--5-5-5/7----2-2/-7-5--5-5-5/7--|
Eb|-0-0-------3-3-3/5----0-0-------3-3-3/5--|
 Slide                  Slide 
 Slide                  Slide 

    B   E B   F#  B  D#  D# C# F#   G#  
eb|-------------------------------------| x2
Bb|-5-5-6-5-----------------------------|
Gb|-5-5-5-5-------5-------9-7-----------|
Db|-5-5-3-5---5-5-5--2-2/-9-7--5-5-5/7--|
Ab|-3-3-3-3---5-5-3--2-2/-7-5--5-5-5/7--|
Eb|-----------3-3----0-0-------3-3-3/5--|
I know it's wrong but I just can't seem to act my age. 
I know it's wrong but I just can't seem to control my rage. 

    B   E B   F#  B  C# F# C#  G#  C#
eb|-------------------------------------|
Bb|-5-5-6-5----------7-7-8-7------------|
Gb|-5-5-5-5-------5--7-7-7-7-------7----|
Db|-5-5-3-5---5-5-5--7-7-5-7---7-7-7----|
Ab|-3-3-3-3---5-5-3--5-5-5-5---7-7-5----|
Eb|-----------3-3--------------5-5------|
My heart is racing and I am losing my mind. 

    B   E B   F#  B  D#                  
eb|------------------------------------------------|    
Bb|-5-5-6-5---------------------------------/9b----|
Gb|-5-5-5-5-------5--------------------------------|
Db|-5-5-3-5---5-5-5--2-----------------------------|
Ab|-3-3-3-3---5-5-3--2-----------------------------|
Eb|-----------3-3----0-----------------------------|
Sometimes I feel like my life is on a slide. 




Baby Talk

NOTE: Tuning is half a step down (Low to High EbAbDbGbBbeb)
	All Chords are written with respect to that tuning 
		(ie A becomes G#)

eb|------------12-12------------------------------------------|
Bb|---------0---------------0-----------0----------0----1-1---|
Gb|---------1---------------1-----------1----------1----2-2---|
Db|---0h2-------------0h2---------0h2--------0h2--------------|
Ab|-----------------------------------------------------------|
Eb|-------0---------------0-----------0----------0------------|
This is a song about Spike. 
He is a bad ass guy who just happens to be a really good friend of mine.

eb|--------------------------------------------------------|
Bb|---------0------------0-----------0----------0----1-1-1-|
Gb|---------1------------1-----------1----------1----2-2-2-|
Db|---0h2----------0h2---------0h2--------0h2--------3-3-3-|
Ab|--------------------------------------------------------|
Eb|-------0------------0-----------0----------0------------|
Everyone I know… yeah, who knows Spike too would agree 
when I say the words that Spike is cool. 

      D#           D#                       D#        G# F#
eb|----------------------------------------------------------| x2
Bb|---------0----1-------0-----------0---1--------0----------|
Gb|---------1----2-------1-----------1---2--------1----------|
Db|---0h2----------0h2---------0h2----------0h2--------7-5---|
Ab|----------------------------------------------------7-5---|
Eb|-------0------------0-----------0------------0------5-3---|
The problem with my friend Spike:
 He has fallen into a true love with a nice girl who has gotta lot of tattoos. 
He always talks crazy whenever she calls. He always talks like a baby. 
Its obvious...

   D# E D#    E D#      E D#    E D# 
eb|---------------0------------------| x2
Bb|---------------0------------------|
Gb|---------------1------------------|
Db|-2-3-2---2-3-2-2---2-3-2---2-3-2--|
Ab|-2-3-2---2-3-2-----2-3-2---2-3-2--|
Eb|-0-1-0---0-1-0-----0-1-0---0-1-0--|
She has got him by the balls. 
She has got him by the balls

      D#           D#                           D#            G# F#
eb|---------------------------------------------------------------| x2
Bb|---------0----1-------0-------------------0---1--------0----------|
Gb|---------1----2-------1-------------------1---2--------1----------|
Db|---0h2----------0h2-----------------0h2----------0h2--------7-5---|
Ab|------------------------2h5-2-0-----------------------------7-5---|
Eb|-------0------------0-----------3-------0------------0------5-3---|
My weird little brother… James and his ex girlfriend,
 they would talk in those ridiculous voices. 
We would all be hanging out getting drunk 
in the neighborhood and they both make those ridiculous noises. 

   G# A G#   A G#m  G# A G#   A G#m G# A G#   A G#m   A G# A G# F#
eb|--------------0---------------0---------------0-----------------|
Bb|--------------1---------------1---------------1-----------------|
Gb|-2-3-2--2-3-2-2--2-3-2--2-3-2-2--2-3-2--2-3-2-2--2-3-2--2-3-2---|
Db|-2-3-2--2-3-2----2-3-2--2-3-2----2-3-2--2-3-2----2-3-2--2-3-2-5-|
Ab|-0-1-0--0-1-0----0-1-0--0-1-0----0-1-0--0-1-0----0-1-0--0-1-0-5-|
Eb|--------------------------------------------------------------3-| 
He would always talk crazy whenever she calls. He always talks like a baby.
 It is obvious now. They have got him by the balls. 
 
    D#  C#        C          C#  C         A#    F#
eb|------------------------------------------------| x4
Bb|------------------------------------------------|
Gb|-9-9\7-7-7-7-7\6-6-6-6-6--7-7\6-6-6-6-6\4-4-4---|
Db|-9-9\7-7-7-7-7\6-6-6-6-6--7-7\6-6-6-6-6\4-4-4-5-|
Ab|-7-7\5-5-5-5-5\4-4-4-4-4--5-5\4-4-4-4-4\2-2-2-5-|
Eb|----------------------------------------------3-|
I hate you when you talk like that.
 I wish you would act like a grown man. 
(They have got you by the balls.)
 You will never see me… walking that walk.
 You will never catch me… talking that babytalk. 
(You know it's true… they’ve got you by the balls.)

                                                     E
eb|--------------------------------------------------1-1-1-1-|
Bb|---------0------------0-----------0----------0----1-1-1-1-|
Gb|---------1------------1-----------1----------1----2-2-2-2-|
Db|---0h2----------0h2---------0h2--------0h2--------3-3-3-3-|
Ab|--------------------------------------------------3-3-3-3-|
Eb|-------0------------0-----------0----------0--------------|
 Which brings me back to Spike, a good guy to have in a fight 
unless he was with his girlfriend obnoxious on Saturday night. 

                                                              G# F#
eb|------------------------------------------------------------------| 
Bb|---------0----1-------0-------------------0---1--------0----------|
Gb|---------1----2-------1-------------------1---2--------1----------|
Db|---0h2----------0h2-----------------0h2----------0h2--------7-5---|
Ab|------------------------2h5-2-0-----------------------------7-5---|
Eb|-------0------------0-----------3-------0------------0------5-3---|
You know he couldn’t care less what anyone thinks. 
He does not give a damn. No, because he has no shame. 

   G# A G#    A G#m     A G#   A G#m    
eb|---------------0-----------------0-| x3
Bb|---------------1-----------------1-|
Gb|-2-3-2---2-3-2-2---2-3-2---2-3-2-2-|
Db|-2-3-2---2-3-2-----2-3-2---2-3-2---|
Ab|-0-1-0---0-1-0-----0-1-0---0-1-0---|
Eb|-----------------------------------|
He looks so happy, just like everything is fine. 
He is oblivious to the fact that he has no spine. 
He always talks crazy (You have no shame.) whenever she calls. (You have no shame.)

   G# A G#    A G#m     A G#   A G#m F# 
eb|---------------0-------------------| 
Bb|---------------1-------------------|
Gb|-2-3-2---2-3-2-2---2-3-2---2-3-2---|
Db|-2-3-2---2-3-2-----2-3-2---2-3-2-5-|
Ab|-0-1-0---0-1-0-----0-1-0---0-1-0-5-|
Eb|---------------------------------3-|
He talks like a baby (You have no shame). 
It is obvious… they have got him by the balls. 

    D#  C#        C          C#  C         A#    F#
eb|------------------------------------------------| x4
Bb|------------------------------------------------|
Gb|-9-9\7-7-7-7-7\6-6-6-6-6--7-7\6-6-6-6-6\4-4-4---|
Db|-9-9\7-7-7-7-7\6-6-6-6-6--7-7\6-6-6-6-6\4-4-4-5-|
Ab|-7-7\5-5-5-5-5\4-4-4-4-4--5-5\4-4-4-4-4\2-2-2-5-|
Eb|----------------------------------------------3-|
I hate you when you talk like that. 
I wish you would talk like a grown man. 
(They have you by the balls.) 
I hate when you talk like that.
I wish you would act like a grown man. 
(They have got him by the balls.) 
You will never see me… walking that walk. 
You will never catch me… talking that babytalk. 
(You know its true… they’ve got you by the balls.) 

eb|-------------------------------| x2
Bb|-0-1-0---0-1-0---0-1-0---0-1-0-|
Gb|-1-2-1---1-2-1---1-2-1---1-2-1-|
Db|-------------------------------|
Ab|-------------------------------|
Eb|-------------------------------|
I am not going to let it get to me. 

   D# E D#    E D#      E D#    E D# F#
eb|---------------0---------------------| x4
Bb|---------------0---------------------|
Gb|---------------1---------------------|
Db|-2-3-2---2-3-2-2---2-3-2---2-3-2-5-5-|
Ab|-2-3-2---2-3-2-----2-3-2---2-3-2-5-5-|
Eb|-0-1-0---0-1-0-----0-1-0---0-1-0-3-3-|
  |                                     |
eb|-------------------------------------|
Bb|-0-1-0---0-1-0-----0-1-0---0-1-0-----|
Gb|-1-2-1---1-2-1-----1-2-1---1-2-1-----|
Db|-------------------------------------|
Ab|-------------------------------------|
Eb|-------------------------------------|
They've got you by the balls

   D# E D#  
eb|--------|
Bb|--------|
Gb|--------|
Db|-2-3-2--|
Ab|-2-3-2--|
Eb|-0-1-0--|


Rock Star
ALL STRINGS TUNED DOWN 1/2 step!

HIGH TO LOW (Eb Bb Gb Db Ab Eb)

All Chords are written with respect to that tuning 
		(ie A becomes G#)

    F#    F E     F F#
eb|----------------------| x6 (Play the end F# only once on last time)
Bb|----------------------|
Gb|----------------------|
Db|-5-5-5-4-3-3-3-4-5-5--|
Ab|-5-5-5-4-3-3-3-4-5-5--|
Eb|-3-3-3-2-1-1-1-2-3-3--|
pm........................(very heavy muting)

     F#   Bb B     C C#    C B     Bb 
eb|-----------------------------------| x3
Bb|-----------------------------------|
Gb|--------4-5-5-5-6-7-7-7-6-5-5-5-4--|
Db|--5-5-5-4-5-5-5-6-7-7-7-6-5-5-5-4--|
Ab|--5-5-5-2-3-3-3-4-5-5-5-4-3-3-3-2--|
Eb|--3-3-3----------------------------|
     I don’t want to be a loser… 
No! I don’t want to be an almost was. 
I don’t want to be a white trash working class chump, 

     F#   Bb B     C C#    C B       
eb|-----------------------------------| x1
Bb|-----------------------------------|
Gb|--------4-5-5-5-6-7-7-7-6-5-----5\-|
Db|--5-5-5-4-5-5-5-6-7-7-7-6-5-----5\-|
Ab|--5-5-5-2-3-3-3-4-5-5-5-4-3-----3\-|
Eb|--3-3-3----------------------------|
I don’t want to be a loser anymore.

     F#   Bb B     C C#    C B     Bb 
eb|-----------------------------------| x3
Bb|-----------------------------------|
Gb|--------4-5-5-5-6-7-7-7-6-5-5-5-4--|
Db|--5-5-5-4-5-5-5-6-7-7-7-6-5-5-5-4--|
Ab|--5-5-5-2-3-3-3-4-5-5-5-4-3-3-3-2--|
Eb|--3-3-3----------------------------|
That’s why I want to be a rock star.
I want to be the king. I want to be on top, yeah. 
I just want to be a rock star.Yeah… now I just want to be famous. 

    C#              D#      B
eb|------------------------------------|
Bb|------------------------------------|
Gb|-7-7-7-7-7-7-7-7-9-9-9-9-5------5\--|
Db|-7-7-7-7-7-7-7-7-9-9-9-9-5------5\--|
Ab|-5-5-5-5-5-5-5-5-7-7-7-7-3------3\--|
Eb|------------------------------------|
I want to be the guy that everybody wants (laughter).

     F#   Bb B     C C#    C B       
eb|-----------------------------------| x1
Bb|-----------------------------------|
Gb|--------4-5-5-5-6-7-7-7-6-5-----5\-|
Db|--5-5-5-4-5-5-5-6-7-7-7-6-5-----5\-|
Ab|--5-5-5-2-3-3-3-4-5-5-5-4-3-----3\-|
Eb|--3-3-3----------------------------|

     F#   Bb B     C C#    C B     Bb 
eb|-----------------------------------| x3
Bb|-----------------------------------|
Gb|--------4-5-5-5-6-7-7-7-6-5-5-5-4--|
Db|--5-5-5-4-5-5-5-6-7-7-7-6-5-5-5-4--|
Ab|--5-5-5-2-3-3-3-4-5-5-5-4-3-3-3-2--|
Eb|--3-3-3----------------------------|
pm.....................................(heavy palm muting)
 I want to be on TV shows and wear designer clothes. 
I want a girlfriend who does not drink beer. 
I want to drive a fast car and sleep with certain movie stars. 

     F#   Bb B     C C#    C B       
eb|-----------------------------------| x1
Bb|-----------------------------------|
Gb|--------4-5-5-5-6-7-7-7-6-5-----5\-|
Db|--5-5-5-4-5-5-5-6-7-7-7-6-5-----5\-|
Ab|--5-5-5-2-3-3-3-4-5-5-5-4-3-----3\-|
Eb|--3-3-3----------------------------|
pm...... . . .  . . . .  .            (loosen palm muting as you play)
I want to sing the songs that all those little people want to hear. 

     F#   Bb B     C C#    C B     Bb 
eb|-----------------------------------| x3
Bb|-----------------------------------|
Gb|--------4-5-5-5-6-7-7-7-6-5-5-5-4--|
Db|--5-5-5-4-5-5-5-6-7-7-7-6-5-5-5-4--|
Ab|--5-5-5-2-3-3-3-4-5-5-5-4-3-3-3-2--|
Eb|--3-3-3----------------------------|
I just want to be a rock star.
 I want to be like all those people up in first class.
 I just want to be a rock star. 

    C#              D#      B
eb|------------------------------------|
Bb|------------------------------------|
Gb|-7-7-7-7-7-7-7-7-9-9-9-9-5----------|
Db|-7-7-7-7-7-7-7-7-9-9-9-9-5----------|
Ab|-5-5-5-5-5-5-5-5-7-7-7-7-3----------|
Eb|------------------------------------|
I want to tell the little people they can kiss my ass. 

    F#    F E   A Bb B   Bb A   E F#
eb|---------------------------------| x7
Bb|---------------------------------|
Gb|-------------3-4-5-5-5-4-3-3-----|
Db|-5-5-5-4-3-3-3-4-5-5-5-4-3-3-3-4-|
Ab|-5-5-5-4-3-3-1-2-3-3-3-2-1-1-3-4-|
Eb|-3-3-3-2-1-1-----------------1-2-|
I just want to be a rock star. 
I just want to get laid. 
I just want to be a rock star, a different girl for every different day. 

(Solo over the above riff x4, tabbed by Ehrik. Listen to the song to get down the bends and timing and stuff.)
eb|--------------------------|----------------------------|--------------------------------|
Bb|----------------3--3b--3--|----------------------------|-----12------12------12--15-15b-|
Gb|-5b----5b----5------------|--5b--5--3-----3-/12----12--|-14------12------14-------------|
Db|--------------------------|------------5---------------|--------------------------------|
Ab|--------------------------|----------------------------|--------------------------------|
Eb|--------------------------|----------------------------|--------------------------------|

eb|------------------------|----------------------------------|---------------15--18--18b--|
Bb|-12------12--15---------|----15-----15-----15--18p15----15-|-10b---15--18---------------|
Gb|-----14----------15h-17-|-------17b----17b-----------17----|----------------------------|
Db|------------------------|----------------------------------|----------------------------|
Ab|------------------------|----------------------------------|----------------------------|
Eb|------------------------|----------------------------------|----------------------------|

eb|-18b----15-18-15----15-18-15----15--------------|-----------------------------------|
Bb|-----------------17----------17----17p-15----15h|17--15-------------15--18--15--18b-|
Gb|------------------------------------------17----|-------17p-15--17------------------|
Db|------------------------------------------------|-----------------------------------|
Ab|------------------------------------------------|-----------------------------------|
Eb|------------------------------------------------|-----------------------------------|

    F#    F E     F F#
eb|----------------------| x4 (Play the end F# only once on last time)
Bb|----------------------|
Gb|----------------------|
Db|-5-5-5-4-3-3-3-4-5-5--|
Ab|-5-5-5-4-3-3-3-4-5-5--|
Eb|-3-3-3-2-1-1-1-2-3-3--|

     G#    C C#    D D#    D C#    C 
eb|-----------------------------------| x3
Bb|-----------------------------------|
Gb|--------6-7-7-7-8-9-9-9-8-7-7-7-6--|
Db|--7-7-7-6-7-7-7-8-9-9-9-8-7-7-7-6--|
Ab|--7-7-7-4-5-5-5-6-7-7-7-6-5-5-5-4--|
Eb|--5-5-5----------------------------|
pm . . . .. . . . . . . . . . . . . .
That’s why I want to be a rock star, be like all those guys MTV.
I just want to be a rock star.

     G#    C C#    D D#    D C#      
eb|-----------------------------------| 
Bb|-----------------------------------|
Gb|--------6-7-7-7-8-9-9-9-8-7-----7\-|
Db|--7-7-7-6-7-7-7-8-9-9-9-8-7-----7\-|
Ab|--7-7-7-4-5-5-5-6-7-7-7-6-5-----5\-|
Eb|--5-5-5----------------------------|
 I want to make those girls on the Real World fantasize about me. 

     A#    D D#    E  F         E D#    D 
eb|----------------------------------------| x3
Bb|----------------------------------------|
Gb|--------8-9-9-9-10-11-11-11-10-9-9-9-8--|
Db|--9-9-9-8-9-9-9-10-11-11-11-10-9-9-9-8--|
Ab|--9-9-9-6-7-7-7--8--9--9--9--8-7-7-7-6--|
Eb|--7-7-7---------------------------------|
I just want to be a rock star. 
I want to be the king. I want to be on top. 
I just want to be a rock star. I just want to be famous. 

    F                       G           D# 
eb|------------------------------------------------| x2
Bb|------------------------------------------------|
Gb|-11-11-11-11-11-11-11-11-13-13-13-13-9--9--9--9-|
Db|-11-11-11-11-11-11-11-11-13-13-13-13-9--9--9--9-|
Ab|-9--9--9--9--9--9--9--9--11-11-11-11-7--7--7--7-|
Eb|------------------------------------------------|
Everybody everywhere wants to be famous and 
everybody everywhere wishes they could tell 

    F                       G           D# 
eb|------------------------------------------------|
Bb|------------------------------------------------|
Gb|-11-11-11-11-11-11-11-11-13-13-13-13-9----------|
Db|-11-11-11-11-11-11-11-11-13-13-13-13-9----------|
Ab|-9--9--9--9--9--9--9--9--11-11-11-11-7----------|
Eb|------------------------------------------------|
everybody everywhere to go to Hell. 

    A#    A G# C# D D#    D C# G# A
eb|---------------------------------| x8
Bb|---------------------------------|
Gb|-------------7-8-9-9-9-8-7-7-----|
Db|-9-9-9-8-7-7-7-8-9-9-9-8-7-7-7-8-|
Ab|-9-9-9-8-7-7-5-6-7-7-7-6-5-5-7-8-|
Eb|-7-7-7-6-5-5-----------------5-6-|
I just want to be a rock star. 
I just want to get high. 
I just want to party like a rock star until the day I die. 
I just want to be a rock star
I just want to be a rock star
I just want to be a rock star
I just want to be a rock star
I just want to be a rock star

    A#    A G#    A A#
eb|----------------------| x4 (Play the last A# only once on last time)
Bb|----------------------|
Gb|----------------------|
Db|-9-9-9-8-7-7-7-8-9-9--|
Ab|-9-9-9-8-7-7-7-8-9-9--|
Eb|-7-7-7-6-5-5-5-6-7-7--|



Shorte Blonde Hair

NOTE: Tuning is half a step down (Low to High EbAbDbGbBbeb)
	All Chords are written with respect to that tuning 
		(ie A becomes G#)

    Dm
eb|-6~--------------------------------------------|
Bb|-7~--------------------------------------------|
Gb|-8~--------------------------------------------|
Db|-8~--------------------------------------------|
Ab|-6~--------------------------------------------|
Eb|-----------------------------------------------|
         "One, Two, Three... "

    Bb         Dm      Bb  Gm
eb|---------7--6~------------| x6 NOTE: A second guitar plays the 
Bb|-----7------7~------------|    chords very loosely over the top
Gb|---8---8----8~------8-8-4-|    i.e fingers only lightly pushing down
Db|-9----------8~------9-9-6-|    on the frets   
Ab|------------6~------9-9-6-|
Eb|--------------------7-7-4-|
(no lyrics first two times)
Hey, I think this is getting to me… 
First class living in a goldfish bowl. 
Just when I think I have driven my life where I wanted it to be, 
it takes me to a place that I don’t not want to go. 

   Gm F           Gm  F   Eb          
eb|-----------------------------------| 
Bb|-----------------------------------| 
Gb|-4-3-3---------4-4-3-3-1-1---------|
Db|-6-4-4---------6-6-4-4-2-2---------|
Ab|-6-4-4---------6-6-4-4-2-2---------|
Eb|-4-2-2---------4-4-2-2-0-0---------|
  |                                   |
eb|-------------2-------------------0-|
Bb|---------2-------------------0-----|
Gb|-------3---3---------------1---1---|
Db|-----4-------------------2---------|
Ab|-----------------------------------|
Eb|-----------------------------------|
All I ever wanted to do was to learn how to break this world in two, 

    Gm  F   Bb          Gm  F   Bb
eb|-----------------------------------------|
Bb|-----------------------------------------|
Gb|-4-4-3-3-8-8---------4-4-3-3-8-8---------|
Db|-6-6-4-4-9-9---------6-6-4-4-9-9---------|
Ab|-6-6-4-4-9-9---------6-6-4-4-9-9---------|
Eb|-4-4-2-2-7-7---------4-4-2-2-7-7---------|
  |                                         |
eb|-------------------7-------------------7-|
Bb|---------------7-------------------7-----|
Gb|-------------8---8---------------8---8---|
Db|-----------9-------------------9---------|
Ab|-----------------------------------------|
Eb|-----------------------------------------|
teach it all the tricks I wanted it to learn, 
teach it how to do what I want it to do. 

    Bb  Gm  F           Gm  F   Eb          
eb|-----------------------------------------| 
Bb|-----------------------------------------| 
Gb|-8-8-4-4-3-3---------4-4-3-3-1-1---------|
Db|-9-9-6-6-4-4---------6-6-4-4-2-2---------|
Ab|-9-9-6-6-4-4---------6-6-4-4-2-2---------|
Eb|-7-7-4-4-2-2---------4-4-2-2-0-0---------|
  |                                         |
eb|-------------------2-------------------0-|
Bb|---------------2-------------------0-----|
Gb|-------------3---3---------------1---1---|
Db|-----------4-------------------2---------|
Ab|-----------------------------------------|
Eb|-----------------------------------------|
No one really understands just how simple and plan and predictable I am. 

    Gm  F   Bb          Gm  F   Bb
eb|-----------------------------------------|
Bb|-----------------------------------------|
Gb|-4-4-3-3-8-8---------4-4-3-3-8-8---------|
Db|-6-6-4-4-9-9---------6-6-4-4-9-9---------|
Ab|-6-6-4-4-9-9---------6-6-4-4-9-9---------|
Eb|-4-4-2-2-7-7---------4-4-2-2-7-7---------|
  |                                         |
eb|-------------------7-------------------7-|
Bb|---------------7-------------------7-----|
Gb|-------------8---8---------------8---8---|
Db|-----------9-------------------9---------|
Ab|-----------------------------------------|
Eb|-----------------------------------------|
Because all I ever wanted to do was to play guitar in a rock and roll band. 

    Bb  Gm  F           Gm  F   Eb          
eb|-----------------------------------------| 
Bb|-----------------------------------------| 
Gb|-8-8-4-4-3-3---------4-4-3-3-1-1---------|
Db|-9-9-6-6-4-4---------6-6-4-4-2-2---------|
Ab|-9-9-6-6-4-4---------6-6-4-4-2-2---------|
Eb|-7-7-4-4-2-2---------4-4-2-2-0-0---------|
  |                                         |
eb|-------------------2-------------------0-|
Bb|---------------2-------------------0-----|
Gb|-------------3---3---------------1---1---|
Db|-----------4-------------------2---------|
Ab|-----------------------------------------|
Eb|-----------------------------------------|
Now I’m just losing my hair and I’m learning how to smile like I just don’t care.

    Bb  Dm   F            Bb  Dm   F     Eb
eb|---------------|x2|-------------------------|x1
Bb|-----7----11---|--|--------7----11----9-----|
Gb|-8---8----11---|--|----8---8----11----9-----|
Db|-9---8----11---|--|----9---8----11----9-----|
Ab|-9---6----9----|--|----9---6----9-----7-----|
Eb|-7-------------|--|----7--------------------|
No, I just don’t care. (I hear them under their breath.) 
No, I just don’t care. (What they say… when they think that I can’t hear them.) 
I see them point and I see them stare.
 There goes that stupid guy with the short blonde hair. 

(Second verse is the same as the first, except with increased drum and
	bass presence and maybe the second guitar strumming at bit heavier)
Yeah, I think this is getting to me… 
First class living in a goldfish bowl. 
Just when I think I have driven my life where I wanted it to be, 
it takes me to a place that I don’t want to go. 

(Pre chorus is also the same, again with extra drum and bass) 
All I ever wanted to do was to learn how to break this world in two. 
Teach it all the tricks I wanted it to learn, 
teach it how to do what I want it to do. 
No one really understands just how simple and plain and predictable I am. 
Because all I ever wanted real bad was to play guitar in a rock and roll band. 
Now I’m just losing my hair and learning how to smile. 

    Bb        Dm      F       Bb        Dm      F        Eb
eb|----------------------|x2|----------------------------------|x1
Bb|-----------7-------11-|--|-----------7-------11-------9-----|
Gb|-8---------8-------11-|--|-8---------8-------11-------9-----|
Db|-9---------8-------11-|--|-9---------8-------11-------9-----|
Ab|-9---------6-------9--|--|-9---------6-------9--------7-----|
Eb|-7--------------------|--|-7--------------------------------|
  |                      |  |                                  |
eb|---------7------------|x2|---------7------------------------|
Bb|-----7----------------|--|-----7----------------------------|
Gb|---8---8--------------|--|---8---8--------------------------|
Db|-9--------------------|--|-9--------------------------------|
Ab|----------------------|--|----------------------------------|
Eb|----------------------|--|----------------------------------|
No, I just don’t care. (I hear them under their breath.)
No, I just don’t care. (What they say… when they think that I can't hear them.) 
I see them point and I see them stare. 
There goes that stupid guy with the short blonde hair. 

    Bb         Dm      Bb  Gm
eb|---------7--6~------------| x2  
Bb|-----7------7~------------|    
Gb|---8---8----8~------8-8-4-|    
Db|-9----------8~------9-9-6-|    
Ab|------------6~------9-9-6-|
Eb|--------------------7-7-4-|
  |                          |
eb|-14-----------------------|
Bb|--------------------------|
Gb|--------------------------|
Db|----------9\13------------|
Ab|--------------------------|
Eb|--------------------------|
Short Blonde Hair
Ohh..........

    Bb         Dm      Bb  Gm
eb|---------7--6~---------------|x6  
Bb|-----7------7~---------------|    
Gb|---8---8----8~------8-8-4----|    
Db|-9----------8~------9-9-6----|    
Ab|------------6~------9-9-6----|
Eb|--------------------7-7-4----|
  |                             |
eb|-14-----------------14b16r14-|
Bb|-----------------------------|
Gb|-----------------------------|
Db|-----------------------------|
Ab|-----------------------------|
Eb|-----------------------------|
Say la de da de da de da da.
Say la de da de da de da
Say la de da de da de da da.
Say la de da de da de da
la de da de da de da da.
la de da de da de da (fade out)



Misery Whip

NOTE: Tuning is half a step down (Low to High EbAbDbGbBbeb)
	All Chords are written with respect to that tuning 
		(ie A becomes G#)

    G# F# C#
eb|-5--7--5~------------------------------------|
Bb|-5--8--7~------------------------------------|
Gb|-6--7--7~------------------------------------|
Db|-7--5--7~-----------------------------4-4----|
Ab|-7-----5~---------------------------3-5-5--3-|
Eb|-5-------------------------------------------|
                
      G#7               G#7       
eb|---3-3---------------3-3-------------| x4
Bb|---2-2---------------2-2-------------|
Gb|---2-2---------------2-2-------------|
Db|---2-2---------------2-2-----4-4-----|
Ab|-0-0-0--0-3-5-5-3--0-0-0---3-5-5---3-|
Eb|-------------------------------------|
  |                                     |
eb|-------------------------------------|
Bb|---8-8-8-------------8-8-8-----------|
Gb|---6-6-6-------------6-6-6-----------|
Db|-7-----------------7-----------------|
Ab|-------------------------------------|
Eb|-------------------------------------|
Walking wounded with a belly full of pain and 
a big bad attitude. 
We are shaking shadows for that perfect dark room 
where we can do just what we want to do. 

    C#      E        G#       F#
eb|-5-------5--------5--------7----------|
Bb|-7-------6--------5--------8----------|
Gb|-7-------5--------6--------7----------|
Db|-7-------7--------7--------5----------|
Ab|-5-------8--------7-------------------|
Eb|---------5--------5-------------------|
  |                                      |
eb|--------------------------------------|
Bb|---7-------6---------5--------8-------|
Gb|-----7-------5---------6--------7-----|
Db|---------------------------5------5---|
Ab|-5-----5/8------8\--------------------|
Eb|------------------5------5------------|
There is a place… where we can leave behind all those simple minds. 

    C#      E        G#       
eb|-5-------5--------5--5-x-x-5--5--x--x-|
Bb|-7-------6--------5--5-x-x-5--5--x--x-|
Gb|-7-------5--------6--6-x-x-6--6--x--x-|
Db|-7-------7--------7--7-x-x-7--7--x--x-|
Ab|-5-------8--------7--7-x-x-7--7--x--x-|
Eb|---------5--------5--5-x-x-5--5--x--x-|
  |                                      |
eb|--------------------------------------|
Bb|---7-------6--------------------------|
Gb|-----7-------5------------------------|
Db|--------------------------------------|
Ab|-5-----5/8------8---------------------|
Eb|----------------------------------5-8-|
They would not like the way we live. 

    C#      E        G#       F#
eb|-5-------5--------5--------7----------|
Bb|-7-------6--------5--------8----------|
Gb|-7-------5--------6--------7----------|
Db|-7-------7--------7--------5----------|
Ab|-5-------8--------7-------------------|
Eb|---------5--------5-------------------|
  |                                      |
eb|--------------------------------------|
Bb|---7-------6---------5--------8-------|
Gb|-----7-------5---------6--------7-----|
Db|---------------------------5------5---|
Ab|-5-----5/8------8\--------------------|
Eb|------------------5------5------------|
When we are all alone in this house that we call home, 

    C#      E             G#7  
eb|-5-------5-------------3-3------------|
Bb|-7-------6-------------2-2------------|
Gb|-7-------5-------------2-2------------|
Db|-7-------7-------------2-2------------|
Ab|-5-------8---------3-0-0-0--0-3-5-5-3-|
Eb|---------5----------------------------|
  |                                      |
eb|--------------------------------------|
Bb|---7-------6-----------8-8-8----------|
Gb|-----7-------5---------6-6-6----------|
Db|---------------------7----------------|
Ab|-5-----5/8------8\--------------------|
Eb|--------------------------------------|
you will become my misery whip. 

      G#7
eb|---3-3-----------------3-3--------------3-3-------|
Bb|---2-2-----------------2-2--------------2-2-------|
Gb|---2-2-----------------2-2--------------2-2-------|
Db|---2-2-----------------2-2--------------2-2-------|
Ab|-0-0-0-------------3-0-0-0--0-3-5-5-3-0-0-0-----3-|
Eb|--------------------------------------------------|
(Yes… I said like a misery whip.) 

      G#7               G#7       
eb|---3-3---------------3-3-------------| x4
Bb|---2-2---------------2-2-------------|
Gb|---2-2---------------2-2-------------|
Db|---2-2---------------2-2-----4-4-----|
Ab|-0-0-0--0-3-5-5-3--0-0-0---3-5-5---3-|
Eb|-------------------------------------|
  |                                     |
eb|-------------------------------------|
Bb|---8-8-8-------------8-8-8-----------|
Gb|---6-6-6-------------6-6-6-----------|
Db|-7-----------------7-----------------|
Ab|-------------------------------------|
Eb|-------------------------------------|
Walking hungry with a pocket full of promise and a big black song in my head. 
I know the answers to my questions, they are purple black and blue, 
and they are waiting for me in my bed. 

    C#      E        G#       F#
eb|-5-------5--------5--------7----------|
Bb|-7-------6--------5--------8----------|
Gb|-7-------5--------6--------7----------|
Db|-7-------7--------7--------5----------|
Ab|-5-------8--------7-------------------|
Eb|---------5--------5-------------------|
  |                                      |
eb|--------------------------------------|
Bb|---7-------6---------5--------8-------|
Gb|-----7-------5---------6--------7-----|
Db|---------------------------5------5---|
Ab|-5-----5/8------8\--------------------|
Eb|------------------5------5------------|
There is a place… where we can leave behind all those simple minds. 

    C#      E        G#       
eb|-5-------5--------5--5-x-x-5--5--x--x-|
Bb|-7-------6--------5--5-x-x-5--5--x--x-|
Gb|-7-------5--------6--6-x-x-6--6--x--x-|
Db|-7-------7--------7--7-x-x-7--7--x--x-|
Ab|-5-------8--------7--7-x-x-7--7--x--x-|
Eb|---------5--------5--5-x-x-5--5--x--x-|
  |                                      |
eb|--------------------------------------|
Bb|---7-------6--------------------------|
Gb|-----7-------5------------------------|
Db|--------------------------------------|
Ab|-5-----5/8------8---------------------|
Eb|----------------------------------5-8-|
They would not like the way we live. 

    C#      E        G#       F#
eb|-5-------5--------5--------7----------|
Bb|-7-------6--------5--------8----------|
Gb|-7-------5--------6--------7----------|
Db|-7-------7--------7--------5----------|
Ab|-5-------8--------7-------------------|
Eb|---------5--------5-------------------|
  |                                      |
eb|--------------------------------------|
Bb|---7-------6---------5--------8-------|
Gb|-----7-------5---------6--------7-----|
Db|---------------------------5------5---|
Ab|-5-----5/8------8\--------------------|
Eb|------------------5------5------------|
When we are all alone in this house that we call home, 

    C#      E             G#7  
eb|-5-------5-------------3-3------------|
Bb|-7-------6-------------2-2------------|
Gb|-7-------5-------------2-2------------|
Db|-7-------7-------------2-2------------|
Ab|-5-------8---------3-0-0-0--0-3-5-5-3-|
Eb|---------5----------------------------|
  |                                      |
eb|--------------------------------------|
Bb|---7-------6-----------8-8-8----------|
Gb|-----7-------5---------6-6-6----------|
Db|---------------------7----------------|
Ab|-5-----5/8------8\--------------------|
Eb|--------------------------------------|
you will become my misery whip. 

      G#7
eb|---3-3-----------------3-3--------------3-3-------|
Bb|---2-2-----------------2-2--------------2-2-------|
Gb|---2-2-----------------2-2--------------2-2-------|
Db|---2-2-----------------2-2--------------2-2-------|
Ab|-0-0-0-------------3-0-0-0--0-3-5-5-3-0-0-0-----3-|
Eb|--------------------------------------------------|
(Yes… I will say it again like a misery whip.)   Stop! 

      G#7               G#7       
eb|---3-3---------------3-3-------------| x4
Bb|---2-2---------------2-2-------------|
Gb|---2-2---------------2-2-------------|
Db|---2-2---------------2-2-----4-4-----|
Ab|-0-0-0--0-3-5-5-3--0-0-0---3-5-5---3-|
Eb|-------------------------------------|
  |                                     |
eb|-------------------------------------|
Bb|---8-8-8-------------8-8-8-----------|
Gb|---6-6-6-------------6-6-6-----------|
Db|-7-----------------7-----------------|
Ab|-------------------------------------|
Eb|-------------------------------------|
I get no pleasure when I’m going through the motions of my mediocre day to day. 
I’m just an actor just like Robert fucking Redford
 when I say those stupid words that they expect me to say. 

    C#      E        G#       F#
eb|-5-------5--------5--------7----------|
Bb|-7-------6--------5--------8----------|
Gb|-7-------5--------6--------7----------|
Db|-7-------7--------7--------5----------|
Ab|-5-------8--------7-------------------|
Eb|---------5--------5-------------------|
  |                                      |
eb|--------------------------------------|
Bb|---7-------6---------5--------8-------|
Gb|-----7-------5---------6--------7-----|
Db|---------------------------5------5---|
Ab|-5-----5/8------8\--------------------|
Eb|------------------5------5------------|
There is a place… where we can leave behind all those simple minds. 

    C#      E        G#       
eb|-5-------5--------5--5-x-x-5--5--x--x-|
Bb|-7-------6--------5--5-x-x-5--5--x--x-|
Gb|-7-------5--------6--6-x-x-6--6--x--x-|
Db|-7-------7--------7--7-x-x-7--7--x--x-|
Ab|-5-------8--------7--7-x-x-7--7--x--x-|
Eb|---------5--------5--5-x-x-5--5--x--x-|
  |                                      |
eb|--------------------------------------|
Bb|---7-------6--------------------------|
Gb|-----7-------5------------------------|
Db|--------------------------------------|
Ab|-5-----5/8------8---------------------|
Eb|----------------------------------5-8-|
They would not like the dirty things we do.

    C#      E        G#       F#
eb|-5-------5--------5--------7----------|
Bb|-7-------6--------5--------8----------|
Gb|-7-------5--------6--------7----------|
Db|-7-------7--------7--------5----------|
Ab|-5-------8--------7-------------------|
Eb|---------5--------5-------------------|
  |                                      |
eb|--------------------------------------|
Bb|---7-------6---------5--------8-------|
Gb|-----7-------5---------6--------7-----|
Db|---------------------------5------5---|
Ab|-5-----5/8------8\--------------------|
Eb|------------------5------5------------|
When we are all alone in this house that we call home, 

    C#      E             G#7  
eb|-5-------5-------------3-3------3-3---|
Bb|-7-------6-------------2-2------2-2---|
Gb|-7-------5-------------2-2------2-2---|
Db|-7-------7-------------2-2------2-2---|
Ab|-5-------8---------3-0-0-0----0-0-0---|
Eb|---------5----------------------------|
  |                                      |
eb|--------------------------------------|
Bb|---7-------6-----------8-8-8----8-8-8-|
Gb|-----7-------5---------6-6-6----6-6-6-|
Db|---------------------7--------7-------|
Ab|-5-----5/8------8\--------------------|
Eb|--------------------------------------|
I will fall down like a bitch for you. 

      G#7               G#7       
eb|---3-3---------------3-3------3-3----| x3
Bb|---2-2---------------2-2------2-2----|
Gb|---2-2---------------2-2------2-2----|
Db|---2-2------4-4------2-2------2-2----|
Ab|-0-0-0--0-3-5-5-3--0-0-0----0-0-0----|
Eb|-------------------------------------|
  |                                     |
eb|-------------------------------------|
Bb|---8-8-8-------------8-8-8----8-8-8--|
Gb|---6-6-6-------------6-6-6----6-6-6--|
Db|-7-----------------7--------7--------|
Ab|-------------------------------------|
Eb|-------------------------------------|
I need you to hit me and make me shake. 
I need you to hurt me and make me beg for more. 
I need you to bend me and make me break. 

      G#7                         
eb|---3-3----------------------------------------------|
Bb|---2-2----------------------------------------------|
Gb|---2-2----------------------------------------------|
Db|---2-2------4-4-------------------------------------|
Ab|-0-0-0--0-3-5-5-3--0~-------------------------------|
Eb|----------------------------------------------------|
  |                                                    |
eb|----------------------------------------------------|
Bb|---8-8-8--------------------------------------------|
Gb|---6-6-6--------------------------------------------|
Db|-7--------------------------------------------------|
Ab|----------------------------------------------------|
Eb|----------------------------------------------------|
  |Bass                                                |
Gb|----------------------------------------------------|
Db|----------------------------------------------------|
Ab|--------0-3-5-5-3-0---0-3-5-3---0-3-5----0-3-5------|
Eb|--------------------------------------3---------1-0-|
I need you to make me feel like I am your whore. 

eb|--------------------------------------------|
Bb|--------------------------------------------|
Gb|--------------------------------------------|
Db|--------------------------------------------|
Ab|-7-5-3-5-3p0--0-3-5-3--0-3-5-----0-3-5------|
Eb|------------------------------3---------1-0-|
I feel complete when I feel sick inside.
I feel complete when I feel sick inside.

eb|--------------------------------------------------| x2
Bb|--------------------------------------------------|
Gb|--------------------------------------------------|
Db|--------------------------------------------------|
Ab|-7-5-3-5-3p0------0-3-5-3----0-3-5-----0-3-5------|
Eb|------------------------------------3---------1-0-|
  |                                                  |
eb|--------------------------------------------------|
Bb|-10----10----10----10----10----10----10----10-----|
Gb|----12----12----12----12----12----12----12----12--|
Db|--------------------------------------------------|
Ab|--------------------------------------------------|
Eb|--------------------------------------------------|
I feel complete when I feel sick inside.
I feel complete when I feel sick inside.
I need to feel like I am real inside
I need to feel like I am really alive. 

eb|--------------------------------------------------| x2
Bb|--------------------------------------------------|
Gb|--------------------------------------------------|
Db|--------------------------------------------------|
Ab|-7-5-3-5-3p0------0-3-5-3----0-3-5-----0-3-5------|
Eb|------------------------------------3---------1-0-|
  |                                                  |
eb|--------------------------------------------------|
Bb|-10----10----10----10----10----10----10----10-----|
Gb|----12----12----12----12----12----12----12----12--|
Db|--------------------------------------------------|
Ab|--------------------------------------------------|
Eb|--------------------------------------------------|
  |                                                  |
eb|--------------------------------------------------|
Bb|-10-10-10-10-12-12-12-12-13-13-13-13-15-15b15-15--|
Gb|--------------------------------------------------|
Db|--------------------------------------------------|
Ab|--------------------------------------------------|
Eb|--------------------------------------------------|  
I need you to make me feel. I need you to make me feel. 
I need you to make me feel. I need you to make me feel. 

              G#               
eb|-----------------------------------------------|
Bb|-----------------------------------------------|
Gb|-----------2--2-2---2--2-2---2--2-2------------|
Db|-----------2--2-2---2--2-2---2--2-2------------|
Ab|-7-5-3-5-3-0--0-0---0--0-0---0--0-0--0-3-5-5-3-|
Eb|-----------------------------------------------|
I need you to hit me and make me shake. 

      G#               
eb|---------------------------------------| x2
Bb|---------------------------------------|
Gb|---2--2-2---2--2-2---2--2-2------------|
Db|---2--2-2---2--2-2---2--2-2------------|
Ab|-3-0--0-0---0--0-0---0--0-0--0-3-5-5-3-|
Eb|---------------------------------------|
I need you to hurt me and make me beg for more. 
I need you to bend me and make me break. 

      G#               
eb|---------------------------------------| 
Bb|---------------------------------------|
Gb|---2--2-2---2--2-2---2--2-2------------|
Db|---2--2-2---2--2-2---2--2-2------------|
Ab|-3-0--0-0---0--0-0---0--0-0--0-3-5-5-5-|
Eb|---------------------------------------|
I need you to make me feel 

    C#      E           G#      F#
eb|--------------------------------------|
Bb|--------------------------------------|
Gb|-7-7-7-7-10-10-10-10------------------|
Db|-7-7-7-7-10-10-10-10-7-7-7-7-5-5-5-5--|
Ab|-5-5-5-5-8--8--8--8--7-7-7-7-5-5-5-5--|
Eb|---------------------5-5-5-5-3-3-3-3--|
like we can leave behind all those simple minds. 

    C#      E           G#      
eb|--------------------------------------|
Bb|--------------------------------------|
Gb|-7-7-7-7-10-10-10-10------------------|
Db|-7-7-7-7-10-10-10-10-7-7-x-x-7-7-x-x--|
Ab|-5-5-5-5-8--8--8--8--7-7-x-x-7-7-x-x--|
Eb|---------------------5-5-x-x-5-5-x-x--|
They would not like the way we live. 

    C#      E           G#      F#
eb|--------------------------------------|
Bb|--------------------------------------|
Gb|-7-7-7-7-10-10-10-10------------------|
Db|-7-7-7-7-10-10-10-10-7-7-7-7-5-5-5-5--|
Ab|-5-5-5-5-8--8--8--8--7-7-7-7-5-5-5-5--|
Eb|---------------------5-5-5-5-3-3-3-3--|
When we are all alone in this house that we call home, 

    C#      E                G#  
eb|------------------------------------------|
Bb|------------------------------------------|
Gb|-7-7-7-7-10-10-10-10------2--2-2---2--2-2-|
Db|-7-7-7-7-10-10-10-10------2--2-2---2--2-2-|
Ab|-5-5-5-5-8--8--8--8-----3-0--0-0---0--0-0-|
Eb|------------------------------------------|
you will become my misery whip. 

      G#               
eb|---------------------------------------| x3
Bb|---------------------------------------|
Gb|-2--2-2----------------2--2-2---2--2-2-|
Db|-2--2-2----------------2--2-2---2--2-2-|
Ab|-0--0-0--0-3-5-5-3---3-0--0-0---0--0-0-|
Eb|---------------------------------------|
You will become my misery whip. 
You will become my misery whip. 
You will become my misery whip. 

      G#               
eb|------------------------------------| 
Bb|------------------------------------|
Gb|-2--2-2----------------2-x----------|
Db|-2--2-2----------------2-x----------|
Ab|-0--0-0--0-3-5-5-3---3-0-x----------|
Eb|------------------------------------|
You will become my friend.




Out Of My Dpeth

    B
e|--2-2-2-2-2-2-2-2--| x4
B|--4-4-4-4-4-4-4-4--|
G|--4-4-4-4-4-4-4-4--|
D|--4-4-4-4-4-4-4-4--|
A|--2-2-2-2-2-2-2-2--|
E|-------------------|
 |                   |
e|----------2--------|
B|-------------------|
G|------4-----4---4--|
D|----4---4-----4----|
A|--2----------------|
E|-------------------|

   B               A#              E               F#
e|-2-2-2-2-2-2-2-2-1-1-1-1-1-1-1-1-0-0-0-0-0-0-0-0-2-2-2-2-2-2-2-2-| 
B|-4-4-4-4-4-4-4-4-3-3-3-3-3-3-3-3-0-0-0-0-0-0-0-0-2-2-2-2-2-2-2-2-|
G|-4-4-4-4-4-4-4-4-3-3-3-3-3-3-3-3-1-1-1-1-1-1-1-1-3-3-3-3-3-3-3-3-|
D|-4-4-4-4-4-4-4-4-3-3-3-3-3-3-3-3-2-2-2-2-2-2-2-2-4-4-4-4-4-4-4-4-|
A|-2-2-2-2-2-2-2-2-1-1-1-1-1-1-1-1-2-2-2-2-2-2-2-2-4-4-4-4-4-4-4-4-|
E|---------------------------------0-0-0-0-0-0-0-0-2-2-2-2-2-2-2-2-|
 |                                                                 |
e|---------2---------------1---------------0---------------2-------|
B|-----------------------------------------------------------------|
G|-----4-----4---4-----3-----3---3-----1-----1---1-----3-----3---3-|
D|---4---4-----4-----3---3-----3-----2---2-----2-----4---4-----4---|
A|-2---------------1-----------------------------------------------|
E|---------------------------------0---------------2---------------|
Out of my depth, lost in the air. Falling faster like a broken elevator.

   B               A#              E               F#
e|-2-2-2-2-2-2-2-2-1-1-1-1-1-1-1-1-0-0-0-0-0-0-0-0-2-2-2-2-2-x-----| 
B|-4-4-4-4-4-4-4-4-3-3-3-3-3-3-3-3-0-0-0-0-0-0-0-0-2-2-2-2-2-x-----|
G|-4-4-4-4-4-4-4-4-3-3-3-3-3-3-3-3-1-1-1-1-1-1-1-1-3-3-3-3-3-x-----|
D|-4-4-4-4-4-4-4-4-3-3-3-3-3-3-3-3-2-2-2-2-2-2-2-2-4-4-4-4-4-x-----|
A|-2-2-2-2-2-2-2-2-1-1-1-1-1-1-1-1-2-2-2-2-2-2-2-2-4-4-4-4-4-x-----|
E|---------------------------------0-0-0-0-0-0-0-0-2-2-2-2-2-x-----|
 |                                                                 |
e|---------2---------------1---------------0---------------2-------|
B|-----------------------------------------------------------------|
G|-----4-----4---4-----3-----3---3-----1-----1---1-----3-----------|
D|---4---4-----4-----3---3-----3-----2---2-----2-----4---4---------|
A|-2---------------1-----------------------------------------------|
E|---------------------------------0---------------2---------------| 
Out of my depth, lost in the dark waiting for the other shoe to come down hard.

   B               A#              E               F#
e|-2-2-2-2-2-2-2-2-1-1-1-1-1-1-1-1-0-0-0-0-0-0-0-0-2-2-2-2-2-2-2-2-| x2
B|-4-4-4-4-4-4-4-4-3-3-3-3-3-3-3-3-0-0-0-0-0-0-0-0-2-2-2-2-2-2-2-2-|
G|-4-4-4-4-4-4-4-4-3-3-3-3-3-3-3-3-1-1-1-1-1-1-1-1-3-3-3-3-3-3-3-3-|
D|-4-4-4-4-4-4-4-4-3-3-3-3-3-3-3-3-2-2-2-2-2-2-2-2-4-4-4-4-4-4-4-4-|
A|-2-2-2-2-2-2-2-2-1-1-1-1-1-1-1-1-2-2-2-2-2-2-2-2-4-4-4-4-4-4-4-4-|
E|---------------------------------0-0-0-0-0-0-0-0-2-2-2-2-2-2-2-2-|
 |                                                                 |
e|---------2---------------1---------------0---------------2-------|
B|-----------------------------------------------------------------|
G|-----4-----4---4-----3-----3---3-----1-----1---1-----3-----3---3-|
D|---4---4-----4-----3---3-----3-----2---2-----2-----4---4-----4---|
A|-2---------------1-----------------------------------------------|
E|---------------------------------0---------------2---------------|
I cannot communicate like I wish I could. I do not deal with my problems like
I know I should. I am out of my depth, I am out of my league. Watching 
everything… just slip away from me.

   G#              C#              E               B       F#    G
e|-----------------------------------------------------------------| 
B|-----------------6-6-6-6-6-6-6-6-9-9-9-9-9-9-9-9-4-4-4-4---------|
G|-5-5-5-5-5-5-5-5-6-6-6-6-6-6-6-6-9-9-9-9-9-9-9-9-4-4-4-4-3-3-3-4-|
D|-6-6-6-6-6-6-6-6-6-6-6-6-6-6-6-6-9-9-9-9-9-9-9-9-4-4-4-4-4-4-4-5-|
A|-6-6-6-6-6-6-6-6-4-4-4-4-4-4-4-4-7-7-7-7-7-7-7-7-2-2-2-2-4-4-4-5-|
E|-4-4-4-4-4-4-4-4-----------------------------------------2-2-2-3-|
 |                                                                 |
e|---------4---------------4---------------7-----------------------|
B|-----------------------------------------------------------------|
G|-----5-----5---5-----6-----6---6-----9-----9---9-----------------|
D|---6---6-----6-----6---6-----6-----9---9-----9-------------------|
A|-----------------4---------------7-------------------------------|
E|-4---------------------------------------------------------------|
Something bad is going to happen, I can feel it deep inside. 
There are shadows all around me like a bad moon on the rise. 

   G#   C# E       B       F#    G
e|---------------------------------| x4
B|-------6-9-9-9-x-4-4-4-4---------|
G|-5-5-x-6-9-9-9-x-4-4-4-4-3-3-3-4-|
D|-6-6-x-6-9-9-9-x-4-4-4-4-4-4-4-5-|
A|-6-6-x-4-7-7-7-x-2-2-2-2-4-4-4-5-|
E|-4-4-x-------------------2-2-2-3-|
I am in over my head. 
I am in too deep here, over my head. 
I guess I should keep my opinions to myself.
I guess I am out of my depth. 

   B               A#              E               F#
e|-2-2-2-2-2-2-2-2-1-1-1-1-1-1-1-1-0-0-0-0-0-0-0-0-2-2-2-2-2-2-2-2-| 
B|-4-4-4-4-4-4-4-4-3-3-3-3-3-3-3-3-0-0-0-0-0-0-0-0-2-2-2-2-2-2-2-2-|
G|-4-4-4-4-4-4-4-4-3-3-3-3-3-3-3-3-1-1-1-1-1-1-1-1-3-3-3-3-3-3-3-3-|
D|-4-4-4-4-4-4-4-4-3-3-3-3-3-3-3-3-2-2-2-2-2-2-2-2-4-4-4-4-4-4-4-4-|
A|-2-2-2-2-2-2-2-2-1-1-1-1-1-1-1-1-2-2-2-2-2-2-2-2-4-4-4-4-4-4-4-4-|
E|---------------------------------0-0-0-0-0-0-0-0-2-2-2-2-2-2-2-2-|
 |                                                                 |
e|---------2---------------1---------------0---------------2-------|
B|-----------------------------------------------------------------|
G|-----4-----4---4-----3-----3---3-----1-----1---1-----3-----3---3-|
D|---4---4-----4-----3---3-----3-----2---2-----2-----4---4-----4---|
A|-2---------------1-----------------------------------------------|
E|---------------------------------0---------------2---------------|
Out of my depth, right from the start. 
I feel like I was born with an invisible heart.

   B               A#              E               F#
e|-2-2-2-2-2-2-2-2-1-1-1-1-1-1-1-1-0-0-0-0-0-0-0-0-2-2-2-2-2-x-----| 
B|-4-4-4-4-4-4-4-4-3-3-3-3-3-3-3-3-0-0-0-0-0-0-0-0-2-2-2-2-2-x-----|
G|-4-4-4-4-4-4-4-4-3-3-3-3-3-3-3-3-1-1-1-1-1-1-1-1-3-3-3-3-3-x-----|
D|-4-4-4-4-4-4-4-4-3-3-3-3-3-3-3-3-2-2-2-2-2-2-2-2-4-4-4-4-4-x-----|
A|-2-2-2-2-2-2-2-2-1-1-1-1-1-1-1-1-2-2-2-2-2-2-2-2-4-4-4-4-4-x-----|
E|---------------------------------0-0-0-0-0-0-0-0-2-2-2-2-2-x-----|
 |                                                                 |
e|---------2---------------1---------------0---------------2-------|
B|-----------------------------------------------------------------|
G|-----4-----4---4-----3-----3---3-----1-----1---1-----3-----------|
D|---4---4-----4-----3---3-----3-----2---2-----2-----4---4---------|
A|-2---------------1-----------------------------------------------|
E|---------------------------------0---------------2---------------| 
Out of my depth, seems like everyday. 
I can’t find the words to make the good things come my way. 

   B               A#              E               F#
e|-2-2-2-2-2-2-2-2-1-1-1-1-1-1-1-1-0-0-0-0-0-0-0-0-2-2-2-2-2-2-2-2-|  x2
B|-4-4-4-4-4-4-4-4-3-3-3-3-3-3-3-3-0-0-0-0-0-0-0-0-2-2-2-2-2-2-2-2-|
G|-4-4-4-4-4-4-4-4-3-3-3-3-3-3-3-3-1-1-1-1-1-1-1-1-3-3-3-3-3-3-3-3-|
D|-4-4-4-4-4-4-4-4-3-3-3-3-3-3-3-3-2-2-2-2-2-2-2-2-4-4-4-4-4-4-4-4-|
A|-2-2-2-2-2-2-2-2-1-1-1-1-1-1-1-1-2-2-2-2-2-2-2-2-4-4-4-4-4-4-4-4-|
E|---------------------------------0-0-0-0-0-0-0-0-2-2-2-2-2-2-2-2-|
 |                                                                 |
e|---------2---------------1---------------0---------------2-------|
B|-----------------------------------------------------------------|
G|-----4-----4---4-----3-----3---3-----1-----1---1-----3-----3---3-|
D|---4---4-----4-----3---3-----3-----2---2-----2-----4---4-----4---|
A|-2---------------1-----------------------------------------------|
E|---------------------------------0---------------2---------------|
I feel like I am faking it, I feel like I am wrong. 
I feel like I’m a guest… like I just do not belong. 
I am out of my depth every single day.
I just cannot find the words to make my monsters go away. 

   G#              C#              E               B       F#
e|-----------------------------------------------------------------| 
B|-----------------6-6-6-6-6-6-6-6-9-9-9-9-9-9-9-9-4-4-4-4---------|
G|-5-5-5-5-5-5-5-5-6-6-6-6-6-6-6-6-9-9-9-9-9-9-9-9-4-4-4-4-3-3-3-3-|
D|-6-6-6-6-6-6-6-6-6-6-6-6-6-6-6-6-9-9-9-9-9-9-9-9-4-4-4-4-4-4-4-4-|
A|-6-6-6-6-6-6-6-6-4-4-4-4-4-4-4-4-7-7-7-7-7-7-7-7-2-2-2-2-4-4-4-4-|
E|-4-4-4-4-4-4-4-4-----------------------------------------2-2-2-2-|
 |                                                                 |
e|---------4---------------4---------------7-----------------------|
B|-----------------------------------------------------------------|
G|-----5-----5---5-----6-----6---6-----9-----9---9-----------------|
D|---6---6-----6-----6---6-----6-----9---9-----9-------------------|
A|-----------------4---------------7-------------------------------|
E|-4---------------------------------------------------------------|
Something bad is going to happen, I can feel it deep inside. 
There are shadows all around me like a bad moon on the rise. 

   G#   C# E       B       F#    G
e|---------------------------------| x3
B|-------6-9-9-9-x-4-4-4-4---------|
G|-5-5-x-6-9-9-9-x-4-4-4-4-3-3-3-4-|
D|-6-6-x-6-9-9-9-x-4-4-4-4-4-4-4-5-|
A|-6-6-x-4-7-7-7-x-2-2-2-2-4-4-4-5-|
E|-4-4-x-------------------2-2-2-3-|
I am in too deep here, over my head. 
I am in too deep here, over my head. 
I should seek some professional help

   G#   C# E       
e|-----------------| x4
B|-------6-9-9-9-9-|
G|-5-5-x-6-9-9-9-9-|
D|-6-6-x-6-9-9-9-9-|
A|-6-6-x-4-7-7-7-7-|
E|-4-4-x-----------| 
because I’m out of my depth. 
Yes, I’m out of my depth and I am slowly going out of my mind. 

e|---------2---------------1---------------0---------------2-------|
B|-----------------------------------------------------------------|
G|-----4-----4---4-----3-----3---3-----1-----1---1-----3-----3---3-|
D|---4---4-----4-----3---3-----3-----2---2-----2-----4---4-----4---|
A|-2---------------1-----------------------------------------------|
E|---------------------------------0---------------2---------------|

e|---------2---------------1---------------0---------------2-------|
B|-----------------------------------------------------------------|
G|-----4-----4---4-----3-----3---3-----1-----1---1-----3-----------|
D|---4---4-----4-----3---3-----3-----2---2-----2-----4---4---------|
A|-2---------------1-----------------------------------------------|
E|---------------------------------0---------------2---------------| 
             Ahhhhhh  Ahhhhh

   G#              C#              E               B       F#    G
e|-4---------------4---------------7---------------2-------2-------| x2
B|-4---------------6---------------9---------------4-------2-------|
G|-5---------------6---------------9---------------4-------3-----4-|
D|-6---------------6---------------9---------------4-------4-----5-|
A|-6---------------4---------------7---------------2-------4-----5-|
E|-4-------------------------------------------------------2-----3-|
Oh, go away. Make them go away. Someday I know I will make them go away.
Make them go away. Make them go away. Someday I know… I will make my monsters go away. 

   G#   C# E       B       F#    G
e|---------------------------------| x4
B|-------6-9-9-9-x-4-4-4-4---------|
G|-5-5-x-6-9-9-9-x-4-4-4-4-3-3-3-4-|
D|-6-6-x-6-9-9-9-x-4-4-4-4-4-4-4-5-|
A|-6-6-x-4-7-7-7-x-2-2-2-2-4-4-4-5-|
E|-4-4-x-------------------2-2-2-3-|
I am in over my head. 
I should seek some professional help. 
I should keep my opinions to myself. 
I guess I am out of my depth.

   G#   C# E       
e|-----------------| x4
B|-------6-9-9-9---|
G|-5-5---6-9-9-9---|
D|-6-6---6-9-9-9---|
A|-6-6---4-7-7-7---|
E|-4-4-------------| 
 I am out of my depth.
 Yeah, I am out of my depth
 I am out of my depth
 I'm out of my... go!	

(solo over above riff. This is probably mostly wrong, but... )
e|-----------------------------------------------------|
B|-4-4-4p2p0---0-4-4-4-4p2p0---0-4-4-4p2p0---0-2-0---0-|
G|-----------1---------------1-------------1-------1---|
D|-----------------------------------------------------|
A|-----------------------------------------------------|
E|-----------------------------------------------------|

e|------9----9-11--/11-11-11-11-11-11-11-11---|
B|-9-12---12-----------------12-12-12-12-12---|
G|--------------------------------------------|
D|--------------------------------------------|
A|--------------------------------------------|
E|--------------------------------------------|

e|-16-16-16-16--14-14-14-14-------------------------------------------|
B|-16-16-16-16--14-14-14-14-------------------------------------------|
G|--------------------------13-13b-13p11-13b14r13p11------------------|
D|--------------------------------------------------13-11----13-13b15-|
A|--------------------------------------------------------14----------|
E|--------------------------------------------------------------------|

   G#   C# E       
e|-----------------| x8
B|-------6-9-9-9---|
G|-5-5---6-9-9-9---|
D|-6-6---6-9-9-9---|
A|-6-6---4-7-7-7---|
E|-4-4-------------| 
 I am out of my depth.
 I am out of my depth
 I am out of my depth
 I am out of my depth.
 I am out of my depth
 I am out of my depth
 Yes, I am slowly going out of my mind.

(This last bit is easiest with a capo on the 2nd fret)
   Esus2           B   B/C#        Esus2 F#5       B     B/C#
e|-2-2-2-2-2-2-2-2-----------------2-2-2-2-2-2-2-2---------|
B|-5-5-5-5-5-5-5-5-4-4-4-4-4-4-4-4-5-5-5-5-5-5-5-5-4-4-4-4-|
G|-4-4-4-4-4-4-4-4-4-4-4-4-4-4-4-4-4-4-4h6-4-4-4h6-4-4-4-4-|
D|-2-2-2-2-2-2-2-2-4-4-4-4-4-4-4-4-2-2-2-2-2-2-2-2-4-4-4-4-|
A|-----------------2-2-2h4-2-2-2h4-----------------2-2-2-4-|
E|---------------------------------------------------------|


Good Witch OF The North

Verse

e|------------------------------------------------------------------|
B|------------------------------------------------------------------|
G|------3-----------------10------------------5---------------------|
D|--------4----4-------------11----11-----------6---6------6-----8--|
A|---4------4----------11-------11---------6------6-----------------|
E|-2----------------9--------------------4--------------4-----6-----|


Chorus

e|---------------------------------------------------------------|
B|---------------------------------------------------------------|
G|---------------------------------------------------------------|
D|-6------8---11-----6----4------5----6------8----4------5----6--|
A|-6------8---11-----6----4------5----6------8----4------5----6--|
E|-4------6----9-----4----2------3----4------6----2------3----4--|


Bridge

e|----------------------------------------------------|
B|----------------------------------------------------|
G|----------------------------------------------------|
D|-4------3----2------4----6------8---11-----6----4---|
A|-4------3----2------4----6------8---11-----6----4---|
E|-2------1----0------2----4------6----9-----4----2---|


For the end just pick this chord

e|---2---|
B|---2---|
G|---3---|
D|---4---|
A|---4---|
E|---2---|



Halloween Americana

Tuning: down 1/2 step

Intro:    
Eb|---------------------------------------------------------|
Bb|---------------------------------------------------------|
Gb|-----7-7-7-------9-9-9-----------------------------------|
Db|-----7-7-7-------9-9-9-----------------------------------|
Ab|-----5-5-5-------7-7-7-----------------------------------|
Eb|---------------------------------------------------------|

Verse:
Eb|----------------------------------------------------------------|
Bb|----------------------------------------------------------------|
Gb|-----7-7-7--9-9-9---------5-5-5----------4-4-4------------------|
Db|-----7-7-7--9-9-9---7-7---5-5-5---5-5----4-4-4---5-5-5---7-7-7--|
Ab|-----5-5-5--7-7-7---7-7---3-3-3---5-5----2-2-2---5-5-5---7-7-7--|
Eb|--------------------5-5-----------3-3------------3-3-3---5-5-5--|

Eb|---------------------------------------------------------|
Bb|---------------------------------------------------------|
Gb|-----7-7-7-------9-9-9-----------------------------------|
Db|-----7-7-7-------9-9-9-----------------------------------|
Ab|-----5-5-5-------7-7-7-----------------------------------|
Eb|---------------------------------------------------------|

Guitar Fill:  1                    Guitar Fill: 2
Eb|---------------------------------------12--------------|
Bb|------------------------------------------12-----------|
Gb|-----------9-----7---REPEAT----------------------------|
Db|---------9---------------------------------------------|
Ab|---5-/-7-----------------------------------------------|
Eb|-------------------------------------------------------|

Eb|---12----12--14--14^15--14--12-------------------------|
Bb|------12-----------------------12----------------------|
Gb|-----------------------------------REPEAT--------------|
Db|-------------------------------------------------------|
Ab|-------------------------------------------------------|
Eb|-------------------------------------------------------|

Play Guitar Fill 1 a few times then play this
Pre-Solo:
Eb|------------------------------------------------------|
Bb|------------------------------------------------------|
Gb|----------9----------9----------9---------9-----------|
Db|--------9----------9----------9---------9-------------|
Ab|--7-/-9------7-/-9------7-/-9-----7-/-9---------------|
Eb|------------------------------------------------------|

Solo:  This is a killer solo. Art Alexakis ROCKS.
Eb|----------------------------------------------------------|
Bb|----------------------------------------------------------|
Gb|----------------12h14--12h14--12-14--14^-14^-------12h14--|
Db|---------12--14------------------------------12h14--------|
Ab|--12--14--------------------------------------------------|
Eb|----------------------------------------------------------|

Eb|----------------------------------------------------|
Bb|----------------------------------------------------|
Gb|--14^-14^--------12h14---14^-14^--12h14p12---11-----|
Db|-----------12h14------------------------------------|
Ab|----------------------------------------------------|
Eb|----------------------------------------------------|

Eb|----------------------------------------------------------|
Bb|---/14--14^--12h14--12h14--14^-14^--12h14-12h14--14^--14^-|
Gb|----------------------------------------------------------|
Db|----------------------------------------------------------|
Ab|----------------------------------------------------------|
Eb|----------------------------------------------------------|

Eb|-------------------------------------------------------|
Bb|---12h14--12h14--14^-14^-------------------------------|
Gb|-------------------------14--12----12--------12--14----|
Db|--------------------------------14----12--14-----------|
Ab|-------------------------------------------------------|
Eb|-------------------------------------------------------|

Eb|--/12-/14/15-------15h17--17^-17^-------15h17-17^-17^--|
Bb|-------------15h17----------------15h17----------------|
Gb|-------------------------------------------------------|
Db|-------------------------------------------------------|
Ab|-------------------------------------------------------|
Eb|-------------------------------------------------------|

Eb|--------15h17-17^-17^---17-15--------12----------------|
Bb|---15h17----------------------17--15----15-------------|
Gb|-------------------------------------------------------|
Db|-------------------------------------------------------|
Ab|-------------------------------------------------------|
Eb|-------------------------------------------------------|

Eb|---15p14-14-14-\-12-12-12-12-\-10-/12--12-15-12--------|
Bb|-------------------------------------------------15-12-|
Gb|-------------------------------------------------------|
Db|-------------------------------------------------------|
Ab|-------------------------------------------------------|
Eb|-------------------------------------------------------|

Eb|---15p14-14-14-\-12-12-12-\-10-/12---12-15-12-----------------------|
Bb|----------------------------------------------15-12-15--------------|
Gb|-------------------------------------------------------14^----------|
Db|--------------------------------------------------------------------|
Ab|--------------------------------------------------------------------|
Eb|--------------------------------------------------------------------|

        4X:
Eb|----------------------------------------------------|
Bb|----------------------------------------------------|
Gb|---14^----------12h14--12h14--14^-------------------|
Db|----------12h14-------------------------------------|
Ab|----------------------------------------------------|
Eb|----------------------------------------------------|
   
   4x: together with above riff
Eb|---17^----------15h17--15h17--17^-------------------|
Bb|----------15h17-------------------------------------|
Gb|----------------------------------------------------|
Db|----------------------------------------------------|
Ab|----------------------------------------------------|
Eb|----------------------------------------------------|
 
   Then go back to this lick:
Eb|----12-----12---14--14^15-14--12--------------------|
Bb|-------12------------------------12-----------------|
Gb|----------------------------------------------------|
Db|----------------------------------------------------|
Ab|----------------------------------------------------|
Eb|----------------------------------------------------|
 
   Outro:
Eb|---2-----0----0-----0----0----2----0------------------|
Bb|---3-----0----0-----1----1----3----0------------------|
Gb|---2-----1----1-----0----0----2----1------------------|
Db|---0-----2----2-----2----2----0----2------------------|
Ab|---0-----2----2-----3----3---------2------------------|
Eb|---------0----0--------------------0------------------|



All F**ked Up

e|--------------------------------------------------------------|
B|--------------------------------------------------------------|
G|-8-8-8/10-10-10/12-12-12-12----8-8-8/10-10-10/12-12-12/13\12--|
D|--------------------------------------------------------------|
A|-6-6-6/8--8--8-/10-10-10-10----6-6-6/8--8--8-/10-10-10/11\10--|
E|--------------------------------------------------------------|

e|----------------------------------------------------|
B|----------------------------------------------------|
G|-8-8-8/10-10-10/12-12-12-12----6-6-6/8-8-8\5-5-5-5--|
D|----------------------------------------------------|
A|-6-6-6/8--8--8-/10-10-10-10----4-4-4/6-6-6\3-3-3-3--|
E|----------------------------------------------------|
   
   D#
e|---------------------------------------------------------------|
B|o--------------------------------------------------------------|
G|--8-8-8/10-10-10/12-12-12-12----8-8-8/10-10-10/12-12-12/13\12--|
D|---------------------------------------------------------------|
A|o-6-6-6/8--8--8-/10-10-10-10----6-6-6/8--8--8-/10-10-10/11\10--|
E|---------------------------------------------------------------|
 |                                                               |
e|---------------------------------------------------------------|
B|o-8-----------------------------8------------------------------|
G|--8-----------------------------8------------------------------|
D|--8-----------------------------8------------------------------|
A|o-6-----------------------------6------------------------------|
E|---------------------------------------------------------------|

   D#                            C#   D#     F
e|----------------------------------------------------| x3 (together 
B|---------------------------------------------------o| with above riff)
G|-8-8-8/10-10-10/12-12-12-12----6-6-6/8-8-8\5-5-5-5--|
D|----------------------------------------------------|
A|-6-6-6/8--8--8-/10-10-10-10----4-4-4/6-6-6\3-3-3-3-o|
E|----------------------------------------------------|
 |                                                    |
e|----------------------------------------------------|
B|-8-----------------------------6-6---8-8---5-5-5-5-o|
G|-8-----------------------------6-6---8-8---5-5-5-5--|
D|-8-----------------------------6-6---8-8---5-5-5-5--|
A|-6-----------------------------4-4---6-6---3-3-3-3-o|
E|----------------------------------------------------|
						No, it ain't easy.
						No, it ain't easy.
						No, it ain't easy, now

   D#m F#  B   C#  D#m F#  B   C#  D#m F#  B   C   Bb      G#
e|-----------------------------------------------------------------|
B|-7-7-----4-4-6-6-7-7-----4-4-6-6-7-7-----4-4-6-6-3-3-3-3---------|
G|-8-8-3-3-4-4-6-6-8-8-3-3-4-4-6-6-8-8-3-3-4-4-6-6-3-3-3-3-5-x-----|
D|-8-8-4-4-4-4-6-6-8-8-4-4-4-4-6-6-8-8-4-4-4-4-6-6-3-3-3-3-6-x-----|
A|-6-6-4-4-2-2-4-4-6-6-4-4-2-2-4-4-6-6-4-4-2-2-4-4-1-1-1-1-6-x-----|
E|-----2-2-------------2-2-------------2-2-----------------4-x-----|
pm..   .   .   .       .   .   .       .   .   .
         "hahaha," "hey, what the fuck are you laughing at..."
                                    "Get outta the way"  "1 2 3 4 1 2 3"

   D#m F#  B   C#  D#m F#  B   C#  D#m F#  B   C   Bb      G#
e|-----------------------------------------------------------------| x4
B|-7-7-----4-4-6-6-7-7-----4-4-6-6-7-7-----4-4-6-6-3-3-3-3---------|
G|-8-8-3-3-4-4-6-6-8-8-3-3-4-4-6-6-8-8-3-3-4-4-6-6-3-3-3-3-5-5-5-5-|
D|-8-8-4-4-4-4-6-6-8-8-4-4-4-4-6-6-8-8-4-4-4-4-6-6-3-3-3-3-6-6-6-6-|
A|-6-6-4-4-2-2-4-4-6-6-4-4-2-2-4-4-6-6-4-4-2-2-4-4-1-1-1-1-6-6-6-6-|
E|-----2-2-------------2-2-------------2-2-----------------4-4-4-4-|
(no lyrics first time)
Wooooooooooooooooahhhhhhhhhhhhhhhhhhhhhhhhhhhhhh 
I am all fucked up and I am ready to break. 
I don't wanna be the guy who is always on the outside. 
I wanna find my own good place. 
All fucked up and I don't know how. 
How I ever got to where I feel like I am dying on the inside. 
I want to be happy but I don't know how. 

   D#m   F#    B     C#    D#m   F#    B     C#  
e|-------------------------------------------------|
B|-7--7--------4--4--6--6--7--7--------4--4--6--6--|
G|-8--8--3--3--4--4--6--6--8--8--3--3--4--4--6--6--|
D|-8--8--4--4--4--4--6--6--8--8--4--4--4--4--6--6--|
A|-6--6--4--4--2--2--4--4--6--6--4--4--2--2--4--4--|
E|-------2--2--------------------2--2--------------|
 |						   |
e|-------------------------------------------------|
B|-7--7--7--7--7--7--9--9--11-11-11-11-11-11-13-13-|
G|-------------------------------------------------|
D|-------------------------------------------------|
A|-------------------------------------------------|
E|-------------------------------------------------|

   D#m   F#    B     C#    Bb          G#
e|-------------------------------------------------|
B|-7--7--------4--4--6--6--3--3--3--3--------------|
G|-8--8--3--3--4--4--6--6--3--3--3--3--5--5--5--5--|
D|-8--8--4--4--4--4--6--6--3--3--3--3--6--6--6--6--|
A|-6--6--4--4--2--2--4--4--1--1--1--1--6--6--6--6--|
E|-------2--2--------------------------4--4--4--4--|
 |						   |
e|-------------------------------------------------|
B|-14-14-14-14-14-14-16-16-14-14-13-13-11-11-9--9--|
G|-------------------------------------------------|
D|-------------------------------------------------|
A|-------------------------------------------------|
E|-------------------------------------------------|

   D#m F#  B   C#  D#m F#  B   C#  D#m F#  B   C   Bb      G#
e|-----------------------------------------------------------------| x2
B|-7-7-----4-4-6-6-7-7-----4-4-6-6-7-7-----4-4-6-6-3-3-3-3---------|
G|-8-8-3-3-4-4-6-6-8-8-3-3-4-4-6-6-8-8-3-3-4-4-6-6-3-3-3-3-5-5-5-5-|
D|-8-8-4-4-4-4-6-6-8-8-4-4-4-4-6-6-8-8-4-4-4-4-6-6-3-3-3-3-6-6-6-6-|
A|-6-6-4-4-2-2-4-4-6-6-4-4-2-2-4-4-6-6-4-4-2-2-4-4-1-1-1-1-6-6-6-6-|
E|-----2-2-------------2-2-------------2-2-----------------4-4-4-4-|
 |                                                                 |
e|-----------------------------------------------------------------|
B|---8---8---8---8---8---8---8---8---8---8---8---8---8---8---8---8-|
G|-7---7---7---7---7---7---7---7---7---7---7---7---7---7---7---7---|
D|-----------------------------------------------------------------|
A|-----------------------------------------------------------------|
E|-----------------------------------------------------------------|
I am all fucked up and it's always the same. 
I always get so close, then I let it get away. 
I got no one but myself to blame. 
I'm all fucked up and I don't know why. 
If the rest of my life is going to be like this, think I would rather die. 

e|-------------------------------------------------| x3 (end with
B|-7--7--7--7--7--7--7--7--7--7--7--7--7--7--7--7--| a pick scrape 
G|-8--11-8--11-8--11-8--11-8--11-8--11-8--11-8--11-| the last time)
D|-------------------------------------------------|
A|-------------------------------------------------|
E|-------------------------------------------------|
I am all fucked up.
Yes, I am all fucked up. 
All fucked up. 
Yes, I am all fucked up. 

(Note: The riff below looks the same, but is played slower and with 
a different rhythm. Listen to the CD/Mp3/Tape whatever)

   D#m   F#    B     C#    D#m   F#    B     C#  
e|-------------------------------------------------|
B|-7--7--------4--4--6--6--7--7--------4--4--6--6--|
G|-8--8--3--3--4--4--6--6--8--8--3--3--4--4--6--6--|
D|-8--8--4--4--4--4--6--6--8--8--4--4--4--4--6--6--|
A|-6--6--4--4--2--2--4--4--6--6--4--4--2--2--4--4--|
E|-------2--2--------------------2--2--------------|
 |						   |
e|-------------------------------------------------| 
B|-7--7--7--7--7--7--7--7--7--7--7--7--7--7--7--7--|
G|-8--11-8--11-8--11-8--11-8--11-8--11-8--11-8--11-|
D|-------------------------------------------------|
A|-------------------------------------------------|
E|-------------------------------------------------|

   D#m   F#    B     C#    Bb          G#
e|-------------------------------------------------| x2 (together with
B|-7--7--------4--4--6--6--3--3--3--3--------------| above riff)
G|-8--8--3--3--4--4--6--6--3--3--3--3--5--5--5--5--|
D|-8--8--4--4--4--4--6--6--3--3--3--3--6--6--6--6--|
A|-6--6--4--4--2--2--4--4--1--1--1--1--6--6--6--6--|
E|-------2--2--------------------------4--4--4--4--|
 |						   |
e|-------------------------------------------------| 
B|-7--7--7--7--7--7--7--7--7--7--7--7--7--7--7--7--| 
G|-8--11-8--11-8--11-8--11-8--11-8--11-8--11-8--11-|
D|-------------------------------------------------|
A|-------------------------------------------------|
E|-------------------------------------------------|
All fucked up

   D#m   B     C     G#    B     F#    Bb    G#
e|-------------------------------------------------| x2
B|-7--7--------5--5--------4--4--------3--3--------| 
G|-8--8--8--8--5--5--5--5--4--4--3--3--3--3--5--5--|
D|-8--8--9--9--5--5--6--6--4--4--4--4--3--3--6--6--|
A|-6--6--9--9--3--3--6--6--2--2--4--4--1--1--6--6--|
E|-------7--7--------4--4--------2--2--------4--4--|

   D#m   B     C     G#    B     F#    Bb    G#
e|-------------------------------------------------| x2
B|-7--7--------5--5--------4--4--------3--3--------| 
G|-8--8--8--8--5--5--5--5--4--4--3--3--3--3--5--5--|
D|-8--8--9--9--5--5--6--6--4--4--4--4--3--3--6--6--|
A|-6--6--9--9--3--3--6--6--2--2--4--4--1--1--6--6--|
E|-------7--7--------4--4--------2--2--------4--4--|
 |                                                 |
e|-11----11----11----11----11----11----11----11----|
B|----11----11----11----11----11----11----11----11-|
G|-------------------------------------------------|
D|-------------------------------------------------|
A|-------------------------------------------------|
E|-------------------------------------------------|

   D#m F#  B   C#  D#m F#  B   C#  D#m F#  B   C   Bb      G#
e|-----------------------------------------------------------------| x4
B|-7-7-----4-4-6-6-7-7-----4-4-6-6-7-7-----4-4-6-6-3-3-3-3---------|
G|-8-8-3-3-4-4-6-6-8-8-3-3-4-4-6-6-8-8-3-3-4-4-6-6-3-3-3-3-5-5-5-5-|
D|-8-8-4-4-4-4-6-6-8-8-4-4-4-4-6-6-8-8-4-4-4-4-6-6-3-3-3-3-6-6-6-6-|
A|-6-6-4-4-2-2-4-4-6-6-4-4-2-2-4-4-6-6-4-4-2-2-4-4-1-1-1-1-6-6-6-6-|
E|-----2-2-------------2-2-------------2-2-----------------4-4-4-4-|
 |                                                                 |
e|-----------------------------------------------------------------|
B|---8---8---8---8---8---8---8---8---8---8---8---8---8---8---8---8-|
G|-7---7---7---7---7---7---7---7---7---7---7---7---7---7---7---7---|
D|-----------------------------------------------------------------|
A|-----------------------------------------------------------------|
E|-----------------------------------------------------------------|
I am all fucked up
Yes, I am ready to break. 
I don't wanna be the guy who is always on the outside. 
I wanna find my own good place. 
All fucked up and I don't know how. 
How I ever got to where I feel like I'm dying on the inside. 
I want to be happy now. 
I am all fucked up and it is always the same. 
I always get so close then I let it get away. 
I got no one but myself to blame. 
I am all fucked up and I don't know why. 
If the rest of my life is going to be like this then I think I would rather die. 
(End on a D#m)
I am all fucked up


Overwhelming

NOTE: Tuning is half a step down (Low to High EbAbDbGbBbeb)
	All Chords are written with respect to that tuning 
		(ie A becomes G#)

(Verse Riff)
    B           F#          Ebm          Db 
eb|-------------------------------------------------|
Bb|-------------------------------------------------|
Gb|--------0-----------0-----------0-----------0----|
Db|-----5-----------------------9-----------7-------|
Ab|--3--------------5-----5--7--------6--5--------4-|
Eb|-----------5--3----------------------------------|

(No Guitar)             (Verse riff)
It can come from out of nowhere
Hit you when you're safe and warm
Take it easy my star
Your time is gonna come
Your time is gonna come

You got those crazy blue eyes
Yeah, you got those crazy blues
All those pretty smiles
I can see them laughing at you
Your time is gonna come
Your time is gonna come

(FOR CHORUS: Guitar (probably with a chorus pedal) plays each chord 
once, while another strums the chords continuously behind with palm 
muting)

(NOTE: Remember that it's tuned 1/2 step down. So play a B chord 
like you would play a C in standard tuning.)
    B                   C#    
eb|-3-------------------5----------------------------|
Bb|-5-------------------7----------------------------|
Gb|-5-------------------7----------------------------|
Db|-5-------------------7----------------------------|
Ab|-3-------------------5----------------------------|
Eb|--------------------------------------------------|
I don't wanna be your punching bag
   D#m               Bbm   
eb|-7----------------2----------------------------|
Bb|-8----------------3----------------------------|
Gb|-9----------------4----------------------------|
Db|-9----------------4----------------------------|
Ab|-7----------------3----------------------------|
Eb|-----------------------------------------------|
Your complaisant little princess all tragic and sad

   B                 C#
eb|-------------3----------------5--|
Bb|-------5-----5----------7-----7--|
Gb|-------5----------------7--------|
Db|----5-----5----------7-----7-----|
Ab|-3----------------5--------------|
Eb|---------------------------------|
I'm not gonna let you overwhelm me anymore

(Lead riff over verse riff)
eb|--------------12-10----------------------------|
Bb|-----------12------13-12-10--------------------|
Gb|-/12-----------------------12-11-9-------------|
Db|-----------------------------------------------|
Ab|-----------------------------------------------|
Eb|-----------------------------------------------|

(verse riff through 2nd verse)
Yeah you say you got this bad thing
You say you got it bad
You have broken every heart
Of every friend you've ever had
Some day the time will come
When all your friends will go away

I wonder why I stick around
Sometimes I wish you would leave
You say you'll love me forever
Then you spit on me
Your time is gonna come

(Verse riff played underneath distorted guitar below)
   B  F#  D#  C#      B   F#    D#    D C#    C  
eb|-------------------------------------------------|
Bb|-------------------------------------------------|
Gb|--------------------5---------9-9-9-8-7-7-7-6----|
Db|--------------------5---------9-9-9-8-7-7-7-6----|
Ab|--------------------3---------7-7-7-6-5-5-5-4----|
Eb|-------------------------------------------------|
i swear your time is gonna come

(Distorted Guitar plays each chord once, while another play continuously
behind it but palm muted. Chords are the same as the first chorus so play B
like you would play a C in standard tuning or look at the first chorus for
exact shape)
B                C#
Oh I don't wanna be your whipping boy
D#m               A#m 
Your pathetic little loser someone you can ignore
   B                C# 
eb|-------------3----------------5--|
Bb|-------5-----5----------7-----7--|
Gb|-------5----------------7--------|
Db|----5-----5----------7-----7-----|
Ab|-3----------------5--------------|
Eb|---------------------------------|
I'm not gonna let you overwhelm me anymore

     B           F#           C#          D#m   D C#
eb|----------------------------------------------------| x2    
Bb|----------------------------------------------------|
Gb|--5--5----------------------7--7--------9--9--8--7--|
Db|--5--5---------5--5---------7--7--------9--9--8--7--|
Ab|--3--3---------5--5---------5--5--------7--7--6--5--|
Eb|---------------3--3---------------------------------|
(no lyrics first time)
I'm not gonna let you hurt me anymore

     B           F#           C#          D#m   D C#
eb|----------------------------------------------------| x2    
Bb|----------------------------------------------------|
Gb|--5--5----------------------7--7--------9--9--8--7--|
Db|--5--5---------5--5---------7--7--------9--9--8--7--|
Ab|--3--3---------5--5---------5--5--------7--7--6--5--|
Eb|---------------3--3---------------------------------|
  |                                                    |
eb|---/12----------------------------------------------|
Bb|--------12-13--10-12--------------------------------|
Gb|----------------------12-14-11b---------------------|
Db|----------------------------------------------------|
Ab|----------------------------------------------------|
Eb|----------------------------------------------------|
I'm not gonna let you hit me anymore
I'm not gonna let you kick me anymore

     B           F#           C#        D D#m   D C#
eb|----------------------------------------------------| x2    
Bb|----------------------------------------------------|
Gb|--5--5----------------------7--7--7--8--9--9--8--7--|
Db|--5--5---------5--5---------7--7--7--8--9--9--8--7--|
Ab|--3--3---------5--5---------5--5--5--6--7--7--6--5--|
Eb|---------------3--3---------------------------------|
  |                                                    |
eb|---/12----------------------------------------------|
Bb|--------12-13--10-12--------------------------------|
Gb|----------------------12-14-11b---------------------|
Db|----------------------------------------------------|
Ab|----------------------------------------------------|
Eb|----------------------------------------------------|
I will not let you overwhelm me anymore

    B           F#          C#       D  D#m   D C#
eb|--------------------------------------------------|    
Bb|--------------------------------------------------|
Gb|--5--5--x--x--------x--x--7--7--7--8--9--9--8--7--|
Db|--5--5--x--x--5--5--x--x--7--7--7--8--9--9--8--7--|
Ab|--3--3--x--x--5--5--x--x--5--5--5--6--7--7--6--5--|
Eb|--------------3--3--x--x--------------------------|
I will not let you overwhelm me anymore
I will not let you overwhelm me anymore
I will not let you overwhelm me anymore

B
It can come from out of nowhere

B                C#
Oh I don't wanna be your simple saving grace
D#m                 A#m
Just another little victim with a happy face
B
Someday
C#           D#m    
Someday soon somebody's gonna come
A#m
I hope they do this to you
B             C# (strum palm-muted)
I'm not gonna let you overwhelm me
C# (gradually loosen muting)
I will not let you hurt me anymore

(Verse Riff)
Will not let you hit me anymore
Will not let you hurt me anymore
Will not let you twist me anymore
Will not let you turn me inside out 
(Strum a B to end)


Song From An American Movie Part 2


e-----15----------
b--------12----15-         repeat this for first 20 sec.
g-12--------------   



   C     G      C 
oooooooo Yeah
   Em7    C     G
Oh
   C    Em7     C
oooooo yeah yeah
G            C                      Em7 
Some Times I get To A Point Where I don't give a damn about 
C                G               C                   Em7
Anything Anymore, Sometimes A get to a point where i feel
           C
Numb and I just don't care

   (start to play intro part along with the chords..)
G   C   

Em7         C                      G       C
Sometimes I feel like a just don't care  
    Em7          C 
Yeah Sometimes I feel like a just don't 


G                        C
Sit In My Car and Listen To The Radio
  Em7                        C  
I Think about the past and it seems so long ago
G                    C
I Know The Pain is slowly gonna fade
Em7                    C
This Life is gonna get better
                          G
Things Are Gonna Be Better
                   C                     Em7
I wait Until my exwife had gone away  I walk around the 
              C                        
house gettin lost inside the old days
G                   C                  Em
I see picture where everybody's smilin
                           D        C
I know I gotta keep on the inside
             Em              D    C
I wanna get lost from my life sometimes
            Em                     D   C
Sit on the side and watch the world go by
            Em               D    G     C
I wanna get lost and I don't know why
            Em7                  C              G  C
Sometimes I wanna get lost and I don't know why 
            Em7           C               G
Sometimes I wanna get lost and just dream for a
G                        C                        
Waitin On My little girl waitin on the school bus
Em7                C
Goin To The Movies Yeah Just The Two Of Us
G                         C
Sit inside the dark and dream for a while
Em7                       C                          G
Our life is gonna get better Yeah Its gonna get better
                          C                  Em7
I wake up wierd in the middle of the night
                        G   
I Walk the floor til my mind gets right
G                             C                  Em
I think about the past and it make me wanna cry
                              D          C
I know I gotta keep it on the inside  
             Em             D         C
I wanna get lost from my life sometimes
               Em                 D     C
Sit on the side and watch the world go by
             Em          D           G
I wanna get lost in the dark and and dream for a while
                                                       D
Yeah Just sit inside a dark room and dream for a while
                     C                  G            D 
The Only Thing That Ever Made Scence To Me   ooooo
                  C                       G    D  
Is The Words To A Song From An American Movie
              C                     G             D
The Only That Ever Made Scence in My Life  oooooo
                                C
Is The Sound of my little girl laughin alive and happy
                   G  C      Em
In The Summer Time     Woah
                 C                         G   C       Em 
Alive and living happy in the summer time         Woah
     C
Woah  GO!

SOLO
               Bend here and hold
e-------15---15-15---------------------------------------
b-------15---15-15----------------------------------12---
g-14/-----------14-----------------14\12------------12---
d----------------------------------------14----12--------
a--------------------------------------------------------
e--------------------------------------------------------

e -------------------------15-----------------------------
b -----------------15/17--------17-17\15---15-15--15\13---
g -14--14--14/17------------------------------------------
d --------------------------------------------------------
a --------------------------------------------------------
e --------------------------------------------------------
                                    oooooo           yeah
e---------------------------------------------------------
b-13\12---12/10---10\8---8\7---7\5---5\3--3---------------
g-----------------------------------------------0---77777-
d---------------------------------------------------------
a---------------------------------------------------------
e---------------------------------------------------------

C             Em             D      C
I'm just like everyone that I know
               Em            D          C                
I am afraid of things That I don't know 
               Em          D            G
I am afraid of ever really being alone
                       D    C
Woah   Woah   Woah   Woah
                Em        D         C
Wanna Find Myself a brand new heart
               Em              D             C
I wanna find a girl and make a brand new new start
             Em           D           G
Wanna find a girl and get lost in the dark
  
I wanna find a girl and lost in the dark
                    C                      G      D
The Only Thing That Ever Made scene to me    oooo 
                  C                        G 
Is The Words To A Song From An American Movie
                    C                     G      D
The Only Thing That Ever Made Scence in my life
                               C
Is The Sound of my little girl laughing 
                                     G
Through the window of a summer night
                                                      D
I Sit Alone In The Backyard wishing I could be inside 
                                 C
Just The Sound of my little girl laughing makes me happy 
R    E    S   T
Just To Be Alive

Star Playing Intro While Playing:

G                    D
Woooooooooooooooooah 
            C                        G
Sometimes I happy just to be alive
          D
Oh  Woah
         C                      G
Yeah I'm happy just to be alive
     D              C                   G         D     C
Woah  Sometimes I'm happy just to be alive   Woah
     Em
Woooooooooooooah  

                    (let the Em chord ring out)
comments
We did not receive enough feedback on this tab! Please rate:
print report bad tab
1 2 3 4 5
I want to post or [tab]
guest
You may want to rate the tab now too:
select rating
Please do not post tabs as comments. Select "correction" instead!