Oops, an error
Loading. Please wait.

Blinded Tab

ver2
ver2

Whole song

More versions @911Tabs.com
1,407 views 1 this week
no commentswrite comment
1 2 3 4 5
please rate
Autoscroll
+/-
esc
set tempo
stop
WARNING: You are trying to view
                                    content from Ultimate-Guitar.com
                                    in an unauthorized application,
                                    which is prohibited.

                                    Please use an official Ultimate
                                    Guitar Tabs application for iPhone,
                                    iPad or Android to access legitimate
                                    chords, guitar, bass, and drum tabs
                                    from Ultimate-Guitar.com database.

                                    Type "ultimate guitar tabs" in Apple
                                    App Store's or Android Market's
                                    search to find the application.
                                     BLINDED
                             As recorded by Evergrey
                      (From the 2003 Album RECREATION DAY)

          E5                   F5
      0 2 2 x x x          1 3 3 x x x

Gtr I (E A D G B E) - 'Lead'
Gtr II (E A D G B E) - 'Rhythm'

 Intro
  Q=205
  N.C.
 4/4
  Gtr I
  S S  S S S S  S S S S  S S S S  S S
|--------7-8-7-------------7-8-7------||
|---9-10-------10-9---9-10-------10-9-||
|-9-----------------9-----------------||
|-------------------------------------||
|-------------------------------------||
|-------------------------------------||
|
| Gtr II
| S S  S S S S  S S S S  S S S S  S S
|--------4-5-4-------------4-5-4------||
|---6--7--------7-6---6--7--------6-7-||
|-6-----------------6-----------------||
|-------------------------------------||
|-------------------------------------||
|-------------------------------------||


  N.C.
 12/8
  PM----|        PM----------|          PM----|
  E S S E E  E E E S S E E E E   E  E E E S S E E E E E E E
|------------------------------|------------------------------|
|------------------------------|------------------------------|
|---------9-10-9---------------|-9-10-9-----------------------|
|------------------------------|----------------7-7-7-6-6-6---|
|---------7--8-7---------------|-7--8-7-----------------------|
|-0-0-0-0--------0-0-0-0-0-0-0-|--------0-0-0-0-5-5-5-4-4-4---|
|
| PM----|        PM----------|          PM----|
| E S S E E  E E E S S E E E E   E  E E E S S E E E E E E E
|------------------------------|------------------------------|
|------------------------------|------------------------------|
|---------9-10-9---------------|-9-10-9-----------------------|
|------------------------------|----------------7-7-7-6-6-6---|
|---------7--8-7---------------|-7--8-7-----------------------|
|-0-0-0-0--------0-0-0-0-0-0-0-|--------0-0-0-0-5-5-5-4-4-4---|


  N.C.
                 PM----------|          PM----|
  E S S E E  E E E S S E E E E   E  E E E S S E  E  E  E E E E
|------------------------------|-------------------------------|
|------------------------------|-------------------------------|
|---------9-10-9---------------|-9-10-9---------10-10-10-7-7-7-|
|------------------------------|-------------------------------|
|---------7--8-7---------------|-7--8-7----------8--8--8-5-5-5-|
|-0-0-0-0--------0-0-0-0-0-0-0-|--------0-0-0-0----------------|
|
|                PM----------|          PM----|
| E S S E E  E E E S S E E E E   E  E E E S S E  E  E  E E E E
|------------------------------|-------------------------------|
|------------------------------|-------------------------------|
|---------9-10-9---------------|-9-10-9---------10-10-10-7-7-7-|
|------------------------------|-------------------------------|
|---------7--8-7---------------|-7--8-7----------8--8--8-5-5-5-|
|-0-0-0-0--------0-0-0-0-0-0-0-|--------0-0-0-0----------------|


  PM----|        PM----------|
  E S S E E  E E E S S E E E E
|-------------------------------|
|-------------------------------|
|---------9-10-9----------------|
|-------------------------------|
|---------7--8-7----------------|
|-0-0-0-0--------0-0-0-0-0-0-0--|
|
| PM----|        PM----------|
| E S S E E  E E E S S E E E E
|-------------------------------|
|-------------------------------|
|---------9-10-9----------------|
|-------------------------------|
|---------7--8-7----------------|
|-0-0-0-0--------0-0-0-0-0-0-0--|


  N.C.
         PM----|
  E  E E E S S E  E  E  E  E  E  E
|----------------------------------|
|----------------------------------|
|-9-10-9---------------------------|
|-----------------7--7--7--9--9--9-|
|-7--8-7---------------------------|
|--------0-0-0-0--5--5--5--7--7--7-|
|
|        PM----|
| E  E E E S S E  E  E  E  E  E  E
|----------------------------------|
|----------------------------------|
|-9-10-9---------14-14-14-16-16-16-|
|----------------------------------|
|-7--8-7---------12-12-12-14-14-14-|
|--------0-0-0-0-------------------|


  PM----|        PM----------|          PM--|
  E S S E E  E E E S S E E E E   E  E E E S S E  E  E  E E E E
|------------------------------|---------------------------------|
|------------------------------|---------------------------------|
|---------9-10-9---------------|-9-10-9---------10-10-10-7-7-7---|
|------------------------------|---------------------------------|
|---------7--8-7---------------|-7--8-7----------8--8--8-5-5-5---|
|-0-0-0-0--------0-0-0-0-0-0-0-|--------0-0-0-0------------------|
|
| PM----|        PM----------|          PM--|
| E S S E E  E E E S S E E E E   E  E E E S S E  E  E  E E E E
|------------------------------|---------------------------------|
|------------------------------|---------------------------------|
|---------9-10-9---------------|-9-10-9---------10-10-10-7-7-7---|
|------------------------------|---------------------------------|
|---------7--8-7---------------|-7--8-7----------8--8--8-5-5-5---|
|-0-0-0-0--------0-0-0-0-0-0-0-|--------0-0-0-0------------------|


  E5                        F5
  PM--------------------------------------------|
  E E E E E E E E E E E E   E E E E E E E E E E E E
|-------------------------|-------------------------|
|-------------------------|-------------------------|
|-------------------------|-------------------------|
|-------------------------|-------------------------|
|-2---2---2---2---2---2---|-3---3---3---3---3---3---|
|-0---0---0---0---0---0---|-1---1---1---1---1---1---|
|
| PM--------------------------------------------|
| E E E E E E E E E E E E   E E E E E E E E E E E E
|-------------------------|-------------------------|
|-------------------------|-------------------------|
|-------------------------|-------------------------|
|-------------------------|-------------------------|
|-2---2---2---2---2---2---|-3---3---3---3---3---3---|
|-0---0---0---0---0---0---|-1---1---1---1---1---1---|


  E5                        F5          N.C.          E5
  Gtrs I, II
  PM--------------------------------|                 PM------------------|
  E E E E E E E E E E E E   E E E E E E E E E E E E   E E E E E E E E E E E E
|-------------------------|-------------------------|--------------------------|
|-------------------------|-------------------------|--------------------------|
|-------------------------|-------------------------|--------------------------|
|-------------------------|---------------------3-6-|--------------------------|
|-2---2---2---2---2---2---|-3---3---3-------2-5-----|-2---2---2---2---2---2----|
|-0---0---0---0---0---0---|-1---1---1---1-4---------|-0---0---0---0---0---0----|


  F5                        E5                        F5          N.C.
  PM----------------------------------------------------------|
  E E E E E E E E E E E E   E E E E E E E E E E E E   E E E E E E E E E E E E
|-------------------------|-------------------------|--------------------------|
|-------------------------|-------------------------|--------------------------|
|-------------------------|-------------------------|---------------------4-7--|
|-------------------------|-------------------------|-----------------3-6------|
|-3---3---3---3---3---3---|-2---2---2---2---2---2---|-3---3---3---2-5----------|
|-1---1---1---1---1---1---|-0---0---0---0---0---0---|-1---1---1----------------|


  E5                 F5              D5/A            N.C.
  E E E W        E   W.              E E E H..       E E
|------------------|---------------|----------------------|
|------------------|---------------|----------------------|
|------------------|---------------|----------------------|
|------------------|---------------|-0-0-0----------------|
|-2-2-2----------2-|-3-------------|-0-0-0----------------|
|-0-0-0----------0-|-1-------------|-----------------0-1--|


                       E5                    F5
  Gtr I
  ~~            ~~
  H.       Q.   Q.     E E E H..       E E   E E E W        E
|--------------------|---------------------|-------------------|
|--------------------|---------------------|-------------------|
|--------------------|---------------------|-------------------|
|--------------------|---------------------|-------------------|
|--------------------|-2-2-2-----------2-2-|-3-3-3-------------|
|-4--------8----7----|-0-0-0-----------0-0-|-1-1-1-------------|
|
| Gtr II
| ~~            ~~
| H.       Q.   Q.     E E E H..       E E   E E E W        E
|--------------------|---------------------|-------------------|
|--------------------|---------------------|-------------------|
|--------------------|---------------------|-------------------|
|--------------------|---------------------|-------------------|
|---------10----9----|-2-2-2-----------2-2-|-3-3-3-------------|
|-4------------------|-0-0-0-----------0-0-|-1-1-1-------------|


  D5/A             N.C.
                  4/4
  Gtr I
                                                         ~
  W.               S S  S S S S  S S S S  S S S S  S S   W
|---------------||--------7-8-7-------------7-8-7------|------|
|---------------||---9-10-------10-9---9-10-------10---|-9----|
|---------------||-9-----------------9---------------9-|------|
|-0-------------||-------------------------------------|------|
|-0-------------||-------------------------------------|------|
|---------------||-------------------------------------|------|
|
| Gtr II
|                                                        ~
| W.               S S  S S S S  S S S S  S S S S  S S   W
|---------------||--------4-5-4-------------4-5-4------|------|
|---------------||---6--7--------7-6---6--7--------6---|-6----|
|---------------||-6-----------------6---------------5-|------|
|-0-------------||-------------------------------------|------|
|-0-------------||-------------------------------------|------|
|---------------||-------------------------------------|------|


 Verse
  E5                                    F5
 12/8
  Gtrs I, II
  PM-------------------------------------------------
  E E E E E E E E E E E E   E E E E E E E E E E E E
|-------------------------|-------------------------|
|-------------------------|-------------------------|
|-------------------------|-------------------------|
|-------------------------|-------------------------|
|-2-2-2---2-2-2---2-2-2---|-2-2-2---2-2-3-3-3-3-3-3-|
|-0-0-0---0-0-0---0-0-0---|-0-0-0---0-0-1-1-1-1-1-1-|


  E5
 ---------------------|
  E E E E E E E E E E E E
|---------------------------|
|---------------------------|
|---------------------------|
|---------------------------|
|-2-2-2---2-2-2---2-2-2-----|
|-0-0-0---0-0-0---0-0-0-----|


  E5          N.C.
  PM--------|
  E E E E E E  E  E  E E E E
|----------------------------|
|----------------------------|
|-------------10-10-10-7-7-7-|
|----------------------------|
|-2-2-2---2-2--8--8--8-5-5-5-|
|-0-0-0---0-0----------------|


  E5                                    F5
  PM----------------------------------------------|
  E E E E E E E E E E E E   E E E E E E E E E E E E
|-------------------------|--------------------------|
|-------------------------|--------------------------|
|-------------------------|--------------------------|
|-------------------------|--------------------------|
|-2-2-2---2-2-2---2-2-2---|-2-2-2---2-2-3-3-3-3-3-3--|
|-0-0-0---0-0-0---0-0-0---|-0-0-0---0-0-1-1-1-1-1-1--|


  E5                                    N.C.
  PM----------------------------------|
  E E E E E E E E E E E E   E E E E E E  E  E  E E E E
|-------------------------|----------------------------|
|-------------------------|----------------------------|
|-------------------------|-------------10-10-10-7-7-7-|
|-------------------------|----------------------------|
|-2-2-2---2-2-2---2-2-2---|-2-2-2---2-2--8--8--8-5-5-5-|
|-0-0-0---0-0-0---0-0-0---|-0-0-0---0-0----------------|


  A5              G5              F5                       N.C.
 6/4
  W.              W.              W.              +H.      Q  Q  Q
|---------------|---------------|---------------|--------------------|
|---------------|---------------|---------------|--------------------|
|---------------|---------------|---------------|--------------------|
|---------------|---------------|---------------|--------------------|
|-7-------------|-5-------------|-3-------------|-(3)------3--3--5---|
|-5-------------|-3-------------|-1-------------|-(1)----------------|


  A5              G5              F5                       N.C.
  W.              W.              W.              +H.      Q  Q  Q
|---------------|---------------|---------------|---------------------|
|---------------|---------------|---------------|---------------------|
|---------------|---------------|---------------|---------------------|
|---------------|---------------|---------------|---------------------|
|-7-------------|-5-------------|-3-------------|-(3)------5--3--5----|
|-5-------------|-3-------------|-1-------------|-(1)-----------------|


 Chorus
  F5                               A5
 12/8
  Gtr I
  W.              +W.              W.              +W.
|---------------|----------------|---------------|--------|
|---------------|----------------|---------------|--------|
|---------------|----------------|---------------|--------|
|---------------|----------------|---------------|--------|
|-3-------------|-(3)------------|-7-------------|-(7)----|
|-1-------------|-(1)------------|-5-------------|-(5)----|
|
| Gtr II
| W.              +W.              W.              +W.
|---------------|----------------|---------------|--------|
|---------------|----------------|---------------|--------|
|---------------|----------------|---------------|--------|
|---------------|----------------|---------------|--------|
|-3-------------|-(3)------------|-7-------------|-(7)----|
|-1-------------|-(1)------------|-5-------------|-(5)----|


  G5
  W.                         +W.
|--------------------------|---------------------------|
|--------------------------|---------------------------|
|--------------------------|---------------------------|
|--------------------------|---------------------------|
|-5------------------------|-(5)-----------------------|
|-3------------------------|-(3)-----------------------|
|
| E  E E E E E E E E E E E    E  E E E E E E E E E E E
|--------------------------|---------------------------|
|--------------------------|---------------------------|
|-7--7-7-7-7-7-7-7-7-7-7-7-|--9--9-9-9-9-9-5-5-5-5-5-5-|
|--------------------------|---------------------------|
|-5--5-5-5-5-5-5-5-5-5-5-5-|--7--7-7-7-7-7-3-3-3-3-3-3-|
|--------------------------|---------------------------|


  W.
|---------------------------|
|---------------------------|
|---------------------------|
|---------------------------|
|-5-------------------------|
|-3-------------------------|
|
| E  E E E E E E E E E E E
|---------------------------|
|---------------------------|
|-7--7-7-7-7-7-7-7-7-7-7-7--|
|---------------------------|
|-5--5-5-5-5-5-5-5-5-5-5-5--|
|---------------------------|


                                      F5
  +W.                                 W.              +W.
|-----------------------------------|---------------|--------|
|-----------------------------------|---------------|--------|
|-----------------------------------|---------------|--------|
|-----------------------------------|---------------|--------|
|-(5)-------------------------------|-3-------------|-(3)----|
|-(3)-------------------------------|-1-------------|-(1)----|
|
|  E   E  E  E  E  E  E  E  E E E E   W.              +W.
|-----------------------------------|---------------|--------|
|-----------------------------------|---------------|--------|
|-12--12-12-12-12-12-10-10-10-9-9-9-|---------------|--------|
|-----------------------------------|---------------|--------|
|-10--10-10-10-10-10--8--8--8-7-7-7-|-3-------------|-(3)----|
|-----------------------------------|-1-------------|-(1)----|


  A5                               G5
  W.              +W.              W.
|---------------|----------------|---------------------------|
|---------------|----------------|---------------------------|
|---------------|----------------|---------------------------|
|---------------|----------------|---------------------------|
|-7-------------|-(7)------------|-5-------------------------|
|-5-------------|-(5)------------|-3-------------------------|
|
| W.              +W.              E  E E E E E E E E E E E
|---------------|----------------|---------------------------|
|---------------|----------------|---------------------------|
|---------------|----------------|-7--7-7-7-7-7-7-7-7-7-7-7--|
|---------------|----------------|---------------------------|
|-7-------------|-(7)------------|-5--5-5-5-5-5-5-5-5-5-5-5--|
|-5-------------|-(5)------------|---------------------------|


  +W.                         +W.
|---------------------------|---------------------------|
|---------------------------|---------------------------|
|---------------------------|---------------------------|
|---------------------------|---------------------------|
|-(5)-----------------------|-(5)-----------------------|
|-(3)-----------------------|-(3)-----------------------|
|
|  E  E E E E E E E E E E E    E  E E E E E E E E E E E
|---------------------------|---------------------------|
|---------------------------|---------------------------|
|--9--9-9-9-9-9-5-5-5-5-5-5-|--7--7-7-7-7-7-7-7-7-7-7-7-|
|---------------------------|---------------------------|
|--7--7-7-7-7-7-3-3-3-3-3-3-|--5--5-5-5-5-5-5-5-5-5-5-5-|
|---------------------------|---------------------------|


  +W.
|---------------------------------------|
|---------------------------------------|
|---------------------------------------|
|---------------------------------------|
|-(5)-----------------------------------|
|-(3)-----------------------------------|
|
|  E   E  E  E  E  E  E  E  E  E  E  E
|---------------------------------------|
|---------------------------------------|
|-12--12-12-12-12-12-12-12-12-12-12-12--|
|---------------------------------------|
|-10--10-10-10-10-10-10-10-10-10-10-10--|
|---------------------------------------|


                  Verse
                   E5
 6/4              12/8
                   Gtrs I, II
                   PM----------------------------------------------|
  W.               E E E E E E E E E E E E   E E E E E E E E E E E E
|---------------||-------------------------|-------------------------|
|---------------||-------------------------|-------------------------|
|---------------||-------------------------|-------------------------|
|---------------||-------------------------|-------------------------|
|---------------||-2-2-2---2-2-2---2-2-2---|-2-2-2---2-2-3-3-3-3-3-3-|
|---------------||-0-0-0---0-0-0---0-0-0---|-0-0-0---0-0-1-1-1-1-1-1-|


  E5
  PM-----------------------
  E E E E E E E E E E E E
|-------------------------|
|-------------------------|
|-------------------------|
|-------------------------|
|-2-2-2---2-2-2---2-2-2---|
|-0-0-0---0-0-0---0-0-0---|


              N.C.             E5
 -----------|                  PM------------------|
  E E E E E E  E  E  E E E E   E E E E E E E E E E E E
|----------------------------|--------------------------|
|----------------------------|--------------------------|
|-------------10-10-10-7-7-7-|--------------------------|
|----------------------------|--------------------------|
|-2-2-2---2-2--8--8--8-5-5-5-|-2-2-2---2-2-2---2-2-2----|
|-0-0-0---0-0----------------|-0-0-0---0-0-0---0-0-0----|


  E5          F5            E5
  PM-------------------------------------------------
  E E E E E E E E E E E E   E E E E E E E E E E E E
|-------------------------|-------------------------|
|-------------------------|-------------------------|
|-------------------------|-------------------------|
|-------------------------|-------------------------|
|-2-2-2---2-2-3-3-3-3-3-3-|-2-2-2---2-2-2---2-2-2---|
|-0-0-0---0-0-1-1-1-1-1-1-|-0-0-0---0-0-0---0-0-0---|


  E5          N.C.
 -----------|
  E E E E E E  E  E  E E E E
|-----------------------------|
|-----------------------------|
|-------------10-10-10-7-7-7--|
|-----------------------------|
|-2-2-2---2-2--8--8--8-5-5-5--|
|-0-0-0---0-0-----------------|


 Bridge
  C#5                              A5
  W.              +W.              W.              +W.
|---------------|----------------|---------------|--------|
|---------------|----------------|---------------|--------|
|---------------|----------------|---------------|--------|
|-6-------------|-(6)------------|-2-------------|-(2)----|
|-4-------------|-(4)------------|-0-------------|-(0)----|
|---------------|----------------|---------------|--------|


  F#5
  W.              +W.
|---------------|----------------|
|---------------|----------------|
|---------------|----------------|
|---------------|----------------|
|-4-------------|-(4)------------|
|-2-------------|-(2)------------|


  N.C.
  PM--------------------|
  E E E E E E E E E E E E   Q  Q  Q  Q  Q  Q
|-------------------------|---------------------|
|-------------------------|----------5--4-------|
|-------------------------|-------4--------4----|
|-------------------------|----4----------------|
|-2-2-2-2-2-2-2-2-2-2-2-2-|-6-------------------|
|-0-0-0-0-0-0-0-0-0-0-0-0-|---------------------|


  C#5                              A5
  W.              +W.              W.              +W.
|---------------|----------------|---------------|--------|
|---------------|----------------|---------------|--------|
|---------------|----------------|---------------|--------|
|-6-------------|-(6)------------|-2-------------|-(2)----|
|-4-------------|-(4)------------|-0-------------|-(0)----|
|---------------|----------------|---------------|--------|


  F#5
  W.              +W.
|---------------|----------------|
|---------------|----------------|
|---------------|----------------|
|---------------|----------------|
|-4-------------|-(4)------------|
|-2-------------|-(2)------------|


  N.C.
  PM--------------------|                     ~
  E E E E E E E E E E E E   Q  q  E  E  Q  Q  Q
|-------------------------|------------------------|
|-------------------------|-------------5--4-------|
|-------------------------|---------(4)-------4----|
|-------------------------|----4-------------------|
|-2-2-2-2-2-2-2-2-2-2-2-2-|-6----------------------|
|-0-0-0-0-0-0-0-0-0-0-0-0-|------------------------|


  A5              G5              F5                       N.C.
  W.              W.              W.              +H.      Q  Q  Q
|---------------|---------------|---------------|---------------------|
|---------------|---------------|---------------|---------------------|
|---------------|---------------|---------------|---------------------|
|---------------|---------------|---------------|---------------------|
|-7-------------|-5-------------|-3-------------|-(3)------3--3--5----|
|-5-------------|-3-------------|-1-------------|-(1)-----------------|


  A5              G5              F5                       N.C.
  W.              W.              W.              +H.      Q  Q  Q
|---------------|---------------|---------------|---------------------|
|---------------|---------------|---------------|---------------------|
|---------------|---------------|---------------|---------------------|
|---------------|---------------|---------------|---------------------|
|-7-------------|-5-------------|-3-------------|-(3)------5--3--5----|
|-5-------------|-3-------------|-1-------------|-(1)-----------------|


 Chorus
  F5                               A5
 12/8
  Gtr I
  W.              +W.              W.              +W.
|---------------|----------------|---------------|--------|
|---------------|----------------|---------------|--------|
|---------------|----------------|---------------|--------|
|---------------|----------------|---------------|--------|
|-3-------------|-(3)------------|-7-------------|-(7)----|
|-1-------------|-(1)------------|-5-------------|-(5)----|
|
| Gtr II
| W.              +W.              W.              +W.
|---------------|----------------|---------------|--------|
|---------------|----------------|---------------|--------|
|---------------|----------------|---------------|--------|
|---------------|----------------|---------------|--------|
|-3-------------|-(3)------------|-7-------------|-(7)----|
|-1-------------|-(1)------------|-5-------------|-(5)----|


  G5
  W.                         +W.
|--------------------------|---------------------------|
|--------------------------|---------------------------|
|--------------------------|---------------------------|
|--------------------------|---------------------------|
|-5------------------------|-(5)-----------------------|
|-3------------------------|-(3)-----------------------|
|
| E  E E E E E E E E E E E    E  E E E E E E E E E E E
|--------------------------|---------------------------|
|--------------------------|---------------------------|
|-7--7-7-7-7-7-7-7-7-7-7-7-|--9--9-9-9-9-9-5-5-5-5-5-5-|
|--------------------------|---------------------------|
|-5--5-5-5-5-5-5-5-5-5-5-5-|--7--7-7-7-7-7-3-3-3-3-3-3-|
|--------------------------|---------------------------|


  W.
|---------------------------|
|---------------------------|
|---------------------------|
|---------------------------|
|-5-------------------------|
|-3-------------------------|
|
| E  E E E E E E E E E E E
|---------------------------|
|---------------------------|
|-7--7-7-7-7-7-7-7-7-7-7-7--|
|---------------------------|
|-5--5-5-5-5-5-5-5-5-5-5-5--|
|---------------------------|


                                      F5
  +W.                                 W.              +W.
|-----------------------------------|---------------|--------|
|-----------------------------------|---------------|--------|
|-----------------------------------|---------------|--------|
|-----------------------------------|---------------|--------|
|-(5)-------------------------------|-3-------------|-(3)----|
|-(3)-------------------------------|-1-------------|-(1)----|
|
|  E   E  E  E  E  E  E  E  E E E E   W.              +W.
|-----------------------------------|---------------|--------|
|-----------------------------------|---------------|--------|
|-12--12-12-12-12-12-10-10-10-9-9-9-|---------------|--------|
|-----------------------------------|---------------|--------|
|-10--10-10-10-10-10--8--8--8-7-7-7-|-3-------------|-(3)----|
|-----------------------------------|-1-------------|-(1)----|


  A5                               G5
  W.              +W.              W.
|---------------|----------------|---------------------------|
|---------------|----------------|---------------------------|
|---------------|----------------|---------------------------|
|---------------|----------------|---------------------------|
|-7-------------|-(7)------------|-5-------------------------|
|-5-------------|-(5)------------|-3-------------------------|
|
| W.              +W.              E  E E E E E E E E E E E
|---------------|----------------|---------------------------|
|---------------|----------------|---------------------------|
|---------------|----------------|-7--7-7-7-7-7-7-7-7-7-7-7--|
|---------------|----------------|---------------------------|
|-7-------------|-(7)------------|-5--5-5-5-5-5-5-5-5-5-5-5--|
|-5-------------|-(5)------------|---------------------------|


  G5
  +W.                         +W.
|---------------------------|---------------------------|
|---------------------------|---------------------------|
|---------------------------|---------------------------|
|---------------------------|---------------------------|
|-(5)-----------------------|-(5)-----------------------|
|-(3)-----------------------|-(3)-----------------------|
|
|  E  E E E E E E E E E E E    E  E E E E E E E E E E E
|---------------------------|---------------------------|
|---------------------------|---------------------------|
|--9--9-9-9-9-9-5-5-5-5-5-5-|--7--7-7-7-7-7-7-7-7-7-7-7-|
|---------------------------|---------------------------|
|--7--7-7-7-7-7-3-3-3-3-3-3-|--5--5-5-5-5-5-5-5-5-5-5-5-|
|---------------------------|---------------------------|


  +W.
|---------------------------------------|
|---------------------------------------|
|---------------------------------------|
|---------------------------------------|
|-(5)-----------------------------------|
|-(3)-----------------------------------|
|
|  E   E  E  E  E  E  E  E  E  E  E  E
|---------------------------------------|
|---------------------------------------|
|-12--12-12-12-12-12-12-12-12-12-12-12--|
|---------------------------------------|
|-10--10-10-10-10-10-10-10-10-10-10-10--|
|---------------------------------------|


 Interlude
  N.C.
  PM----|        PM----------|
  E S S E E  E E E S S E E E E
|------------------------------|
|------------------------------|
|---------9-10-9---------------|
|------------------------------|
|---------7--8-7---------------|
|-0-0-0-0--------0-0-0-0-0-0-0-|
|
| PM----|        PM----------|
| E S S E E  E E E S S E E E E
|------------------------------|
|------------------------------|
|---------9-10-9---------------|
|------------------------------|
|---------7--8-7---------------|
|-0-0-0-0--------0-0-0-0-0-0-0-|


         PM----|               PM----|        PM----------|
  E  E E E S S E E E E E E E   E S S E E  E E E S S E E E E
|----------------------------|-------------------------------|
|----------------------------|-------------------------------|
|-9-10-9---------------------|---------9-10-9----------------|
|----------------7-7-7-6-6-6-|-------------------------------|
|-7--8-7---------------------|---------7--8-7----------------|
|--------0-0-0-0-5-5-5-4-4-4-|-0-0-0-0--------0-0-0-0-0-0-0--|
|
|        PM----|               PM----|        PM----------|
| E  E E E S S E E E E E E E   E S S E E  E E E S S E E E E
|----------------------------|-------------------------------|
|----------------------------|-------------------------------|
|-9-10-9---------------------|---------9-10-9----------------|
|----------------7-7-7-6-6-6-|-------------------------------|
|-7--8-7---------------------|---------7--8-7----------------|
|--------0-0-0-0-5-5-5-4-4-4-|-0-0-0-0--------0-0-0-0-0-0-0--|


  N.C.
         PM----|                  PM----|        PM----------|
  E  E E E S S E  E  E  E E E E   E S S E E  E E E S S E E E E
|-------------------------------|------------------------------|
|-------------------------------|------------------------------|
|-9-10-9---------10-10-10-7-7-7-|---------9-10-9---------------|
|-------------------------------|------------------------------|
|-7--8-7----------8--8--8-5-5-5-|---------7--8-7---------------|
|--------0-0-0-0----------------|-0-0-0-0--------0-0-0-0-0-0-0-|
|
|        PM----|                  PM----|        PM----------|
| E  E E E S S E  E  E  E E E E   E S S E E  E E E S S E E E E
|-------------------------------|------------------------------|
|-------------------------------|------------------------------|
|-9----9---------10-10-10-7-7-7-|---------9-10-9---------------|
|-------------------------------|------------------------------|
|-7--8-7----------8--8--8-5-5-5-|---------7--8-7---------------|
|--------0-0-0-0----------------|-0-0-0-0--------0-0-0-0-0-0-0-|


         PM----|
  E  E E E S S E  E  E  E  E  E  E
|------------------------------------|
|------------------------------------|
|-9-10-9-----------------------------|
|-----------------7--7--7--9--9--9---|
|-7--8-7-----------------------------|
|--------0-0-0-0--5--5--5--7--7--7---|
|
|        PM----|
| E  E E E S S E  E  E  E  E  E  E
|------------------------------------|
|------------------------------------|
|-9-10-9---------14-14-14-16-16-16---|
|------------------------------------|
|-7--8-7---------12-12-12-14-14-14---|
|--------0-0-0-0---------------------|


  N.C.
  PM----|        PM----------|          PM----|
  E S S E E  E E E S S E E E E   E  E E E S S E  E  E  E E E E
|------------------------------|--------------------------------|
|------------------------------|--------------------------------|
|---------9-10-9---------------|-9-10-9---------10-10-10-7-7-7--|
|------------------------------|--------------------------------|
|---------7--8-7---------------|-7--8-7----------8--8--8-5-5-5--|
|-0-0-0-0--------0-0-0-0-0-0-0-|--------0-0-0-0-----------------|
|
| PM----|        PM----------|          PM----|
| E S S E E  E E E S S E E E E   E  E E E S S E  E  E  E E E E
|------------------------------|--------------------------------|
|------------------------------|--------------------------------|
|---------9-10-9---------------|-9-10-9---------10-10-10-7-7-7--|
|------------------------------|--------------------------------|
|---------7--8-7---------------|-7--8-7----------8--8--8-5-5-5--|
|-0-0-0-0--------0-0-0-0-0-0-0-|--------0-0-0-0-----------------|


 Guitar Solo
  N.C.                E5
 3/4                 4/4
  Gtr II
   H.                  W              +W
                       |               |
                       /               /

  Gtr I
                                       ~~~~~~~~~~~~~~
   Q.      E  E  E     W              +Q    H.
|---------13p12----||-16b17r=======|=(16)--16-------|
|-15b17---------15-||--------------|----------------|
|------------------||--------------|----------------|
|------------------||--------------|----------------|
|------------------||--------------|----------------|
|------------------||--------------|----------------|


                       F5
                      3/4
   +W                   H.
    |                   |
    /                   /

 ~~~~~~
   +Q    Q   Q   Q      H        +Q
|-(16)--16--17--19--||-19b20r===(19)--|
|-------------------||----------------|
|-------------------||----------------|
|-------------------||----------------|
|-------------------||----------------|
|-------------------||----------------|


                                             E5
 4/4                                                                  2/4
  +W                     +W           +H     H      +W                 +H
   |                      |            |     |       |                  |
   /                      /            /     /       /                  /

                                       \3
                          ~~~~                                   ~~~~~~~~~~
   H        Q   Q        +W            W             Q  +Q   Q   Q     +H
|-19b20r===19--20b22--|-(20)--------|-------------|-----------------||--------|
|---------------------|-------------|-------------|-----------------||--------|
|---------------------|-------------|-------------|-----------------||--------|
|---------------------|-------------|-------------|-----------------||--------|
|---------------------|-------------|-------------|--7--(7)p=5--h5--||-(5)----|
|---------------------|-------------|--0----------|-----------------||--------|


               F5
 4/4
  +H            H                  +W
   |            |                   |
   /            /                   /

   ~~           T        T                           T        T
       |--3--|  |--3--|  |--3--|    |-3--|  |--3--|  |--3--|  |--3--|
   Q   E  E  E  E  E  E  E  E  E    E E  E  E  E  E  E  E  E  E  E  E
|-12--10h12h13h15p13p12h15p13p12p|=10p8h12p10-------------------------|
|--------------------------------|------------13p12h15p13p12h15p13p12p|
|--------------------------------|------------------------------------|
|--------------------------------|------------------------------------|
|--------------------------------|------------------------------------|
|--------------------------------|------------------------------------|


                                      2/4
  +W                                   +H
   |                                    |
   /                                    /

        T        T             T             ~~~~~~
   |-3--|  |--3--|  |--3--| |--3--|     |-3--|
   E E  E  E  E  E  E  E  E E  E  E     E E  E +Q
|-----------------------------------||---------------|
|-10p8------------------------------||---------------|
|------16p14p12h16p14p12p10p9h12p10p||==9p7----------|
|-----------------------------------||---------------|
|-----------------------------------||------h7-(7)---|
|-----------------------------------||---------------|


 Instrumental Break
  E5
 6/4
  Gtrs I, II
  PM-----------------------------------------------------------------|
  E E E Q.   E E E E E E   Q.   E E E H.        E E E Q.   E E E E E E
|------------------------|--------------------|--------------------------|
|------------------------|--------------------|--------------------------|
|------------------------|--------------------|--------------------------|
|------------------------|--------------------|--------------------------|
|-2-2-2------2-2-2-2-2-2-|------2-2-2---------|-2-2-2------2-2-2-2-2-2---|
|-0-0-0------0-0-0-0-0-0-|------0-0-0---------|-0-0-0------0-0-0-0-0-0---|


  E5
  PM-----------------------------------------------------|
  E Q  E E E H.        E E E Q.   E E E E E E   Q.   E E E H.
|--------------------|------------------------|------------------|
|--------------------|------------------------|------------------|
|--------------------|------------------------|------------------|
|--------------------|------------------------|------------------|
|-2----2-2-2---------|-2-2-2------2-2-2-2-2-2-|------2-2-2-------|
|-0----0-0-0---------|-0-0-0------0-0-0-0-0-0-|------0-0-0-------|


  E5                                  N.C.             E5
  PM--------------------------------|                  PM-------------------|
  E E E Q.   E E E E E E   E Q  E E E  E  E  E E E E   E E E Q.   E E E E E E
|------------------------|---------------------------|-------------------------|
|------------------------|---------------------------|-------------------------|
|------------------------|------------10-10-10-7-7-7-|-------------------------|
|------------------------|---------------------------|-------------------------|
|-2-2-2------2-2-2-2-2-2-|-2----2-2-2--8--8--8-5-5-5-|-2-2-2------2-2-2-2-2-2--|
|-0-0-0------0-0-0-0-0-0-|-0----0-0-0----------------|-0-0-0------0-0-0-0-0-0--|


       E5
       PM------------------------------------------------|
  Q.   E E E H.        E E E Q.   E E E E E E   E Q  E E E H.
|--------------------|------------------------|------------------|
|--------------------|------------------------|------------------|
|--------------------|------------------------|------------------|
|--------------------|------------------------|------------------|
|------2-2-2---------|-2-2-2------2-2-2-2-2-2-|-2----2-2-2-------|
|------0-0-0---------|-0-0-0------0-0-0-0-0-0-|-0----0-0-0-------|


  E5
  PM-----------------------------------------------------------------|
  E E E Q.   E E E E E E   E Q  E E E H.        E E E Q.   E E E E E E
|------------------------|--------------------|-------------------------|
|------------------------|--------------------|-------------------------|
|------------------------|--------------------|-------------------------|
|------------------------|--------------------|-------------------------|
|-2-2-2------2-2-2-2-2-2-|-2----2-2-2---------|-2-2-2------2-2-2-2-2-2--|
|-0-0-0------0-0-0-0-0-0-|-0----0-0-0---------|-0-0-0------0-0-0-0-0-0--|


  E5         N.C(E5)
  Gtr I
  PM-------|
  E Q  E E E  E  E  E E E E   E E E E  E E E E  E  E  E  E
|---------------------------|------------------------------|
|---------------------------|------------------------------|
|------------10-10-10-7-7-7-|-9-9-9-9--9-9-9-9-10-10-10-10-|
|---------------------------|------------------------------|
|-2----2-2-2--8--8--8-5-5-5-|-7-7-7-7--7-7-7-7--8--8--8--8-|
|-0----0-0-0----------------|------------------------------|
|
| Gtr II
| PM-------|                  PM----------------------------
| E Q  E E E  E  E  E E E E   E E E Q.     E E  E  E  E  E
|---------------------------|------------------------------|
|---------------------------|------------------------------|
|------------10-10-10-7-7-7-|------------------------------|
|---------------------------|------------------------------|
|-2----2-2-2--8--8--8-5-5-5-|-2-2-2--------2-2--2--2--2--2-|
|-0----0-0-0----------------|-0-0-0--------0-0--0--0--0--0-|


   E   E  E  E  E  E  E   E  E  E  E  E
|----------------------------------------|
|----------------------------------------|
|-10--10-10-10-10-10-10--10-10-10-10-10--|
|----------------------------------------|
|--8---8--8--8--8--8--8---8--8--8--8--8--|
|----------------------------------------|
|
|-----------------|
|  Q.        E  E  E  H.
|----------------------------------------|
|----------------------------------------|
|----------------------------------------|
|----------------------------------------|
|------------2--2--2---------------------|
|------------0--0--0---------------------|


  N.(E5)
  E E E E  E E  E  E  E  E  E  E    E  E  E  E  E  E  E  E  E  E  E  E
|--------------------------------|-------------------------------------|
|--------------------------------|-------------------------------------|
|-9-9-9-9--9-9-10-10-10-10-10-10-|-10-10-10-10-10-10-10-10-10-10-10-10-|
|--------------------------------|-------------------------------------|
|-7-7-7-7--7-7--8--8--8--8--8--8-|--8--8--8--8--8--8--8--8--8--8--8--8-|
|--------------------------------|-------------------------------------|
|
| PM----------------------------------------------|
| E E E Q.      E  E  E  E  E  E    E  Q     E  E  E  E  E  E  E  E  E
|--------------------------------|-------------------------------------|
|--------------------------------|-------------------------------------|
|--------------------------------|-------------------10-10-10--7--7--7-|
|--------------------------------|-------------------------------------|
|-2-2-2---------2--2--2--2--2--2-|--2--------2--2--2--8--8--8--5--5--5-|
|-0-0-0---------0--0--0--0--0--0-|--0--------0--0--0-------------------|


 Out-Chorus
  F5                               A5
 12/8
  Gtr I
  W.              +W.              W.              +W.
|---------------|----------------|---------------|--------|
|---------------|----------------|---------------|--------|
|---------------|----------------|---------------|--------|
|---------------|----------------|---------------|--------|
|-3-------------|-(3)------------|-7-------------|-(7)----|
|-1-------------|-(1)------------|-5-------------|-(5)----|
|
| Gtr II
| W.              +W.              W.              +W.
|---------------|----------------|---------------|--------|
|---------------|----------------|---------------|--------|
|---------------|----------------|---------------|--------|
|---------------|----------------|---------------|--------|
|-3-------------|-(3)------------|-7-------------|-(7)----|
|-1-------------|-(1)------------|-5-------------|-(5)----|


  G5
  W.                         +W.
|--------------------------|---------------------------|
|--------------------------|---------------------------|
|--------------------------|---------------------------|
|--------------------------|---------------------------|
|-5------------------------|-(5)-----------------------|
|-3------------------------|-(3)-----------------------|
|
| E  E E E E E E E E E E E    E  E E E E E E E E E E E
|--------------------------|---------------------------|
|--------------------------|---------------------------|
|-7--7-7-7-7-7-7-7-7-7-7-7-|--9--9-9-9-9-9-5-5-5-5-5-5-|
|--------------------------|---------------------------|
|-5--5-5-5-5-5-5-5-5-5-5-5-|--7--7-7-7-7-7-3-3-3-3-3-3-|
|--------------------------|---------------------------|


  G5
  W.
|---------------------------|
|---------------------------|
|---------------------------|
|---------------------------|
|-5-------------------------|
|-3-------------------------|
|
| E  E E E E E E E E E E E
|---------------------------|
|---------------------------|
|-7--7-7-7-7-7-7-7-7-7-7-7--|
|---------------------------|
|-5--5-5-5-5-5-5-5-5-5-5-5--|
|---------------------------|


                                      F5
  +W.                                 W.              +W.
|-----------------------------------|---------------|--------|
|-----------------------------------|---------------|--------|
|-----------------------------------|---------------|--------|
|-----------------------------------|---------------|--------|
|-(5)-------------------------------|-3-------------|-(3)----|
|-(3)-------------------------------|-1-------------|-(1)----|
|
|  E   E  E  E  E  E  E  E  E E E E   W.              +W.
|-----------------------------------|---------------|--------|
|-----------------------------------|---------------|--------|
|-12--12-12-12-12-12-10-10-10-9-9-9-|---------------|--------|
|-----------------------------------|---------------|--------|
|-10--10-10-10-10-10--8--8--8-7-7-7-|-3-------------|-(3)----|
|-----------------------------------|-1-------------|-(1)----|


  A5                               G5
  W.              +W.              W.
|---------------|----------------|---------------------------|
|---------------|----------------|---------------------------|
|---------------|----------------|---------------------------|
|---------------|----------------|---------------------------|
|-7-------------|-(7)------------|-5-------------------------|
|-5-------------|-(5)------------|-3-------------------------|
|
| W.              +W.              E  E E E E E E E E E E E
|---------------|----------------|---------------------------|
|---------------|----------------|---------------------------|
|---------------|----------------|-7--7-7-7-7-7-7-7-7-7-7-7--|
|---------------|----------------|---------------------------|
|-7-------------|-(7)------------|-5--5-5-5-5-5-5-5-5-5-5-5--|
|-5-------------|-(5)------------|---------------------------|


  +W.                         +W.
|---------------------------|---------------------------|
|---------------------------|---------------------------|
|---------------------------|---------------------------|
|---------------------------|---------------------------|
|-(5)-----------------------|-(5)-----------------------|
|-(3)-----------------------|-(3)-----------------------|
|
|  E  E E E E E E E E E E E    E  E E E E E E E E E E E
|---------------------------|---------------------------|
|---------------------------|---------------------------|
|--9--9-9-9-9-9-5-5-5-5-5-5-|--7--7-7-7-7-7-7-7-7-7-7-7-|
|---------------------------|---------------------------|
|--7--7-7-7-7-7-3-3-3-3-3-3-|--5--5-5-5-5-5-5-5-5-5-5-5-|
|---------------------------|---------------------------|


  +W.                                    W
|--------------------------------------|------*|
|--------------------------------------|------*|
|--------------------------------------|------*|
|--------------------------------------|------*|
|-(5)----------------------------------|------*|
|-(3)----------------------------------|------*|
|
|  E   E  E  E  E  E  E  E  E  E  E  E   W
|--------------------------------------|------*|
|--------------------------------------|------*|
|-12--12-12-12-12-12-12-12-12-12-12-12-|------*|
|--------------------------------------|------*|
|-10--10-10-10-10-10-10-10-10-10-10-10-|------*|
|--------------------------------------|------*|


Duration Legend
---------------
W - whole; H - half; Q - quarter; E - 8th; S - 16th; T - 32nd; X - 64th; a - acciaccatura
+ - note tied to previous; . - note dotted; .. - note double dotted
Uncapitalized letters represent notes that are staccato (1/2 duration)
Irregular groupings are notated above the duration line
Duration letters will always appear directly above the note/fret number it represents the
duration for.  Duration letters with no fret number below them represent rests.  Multi-
bar rests are notated in the form Wxn, where n is the number of bars to rest for.  Low
melody durations appear below the staff

Tablature Legend
----------------
 h   - hammer-on
 p   - pull-off
 b   - bend
 pb  - pre-bend
 r   - bend release (if no number after the r, then release immediately)
 /\  - slide into or out of (from/to "nowhere")
 s   - legato slide
 S   - shift slide
  - natural harmonic
[n]  - artificial harmonic
n(n) - tapped harmonic
 ~   - vibrato
 tr  - trill
 T   - tap
 TP  - trem. picking
 PM  - palm muting
\n/  - tremolo bar dip; n = amount to dip
 \n  - tremolo bar down
 n/  - tremolo bar up
/n\  - tremolo bar inverted dip
 =   - hold bend; also acts as connecting device for hammers/pulls
 <>  - volume swell (louder/softer)
 x   - on rhythm slash represents muted slash
 o   - on rhythm slash represents single note slash

Misc Legend
-----------
 |  - bar
||  - double bar
||o - repeat start
o|| - repeat end
*|  - double bar (ending)
 :  - bar (freetime)
 $  - Segno
 &  - Coda
Tempo markers -  = BPM(8/16=s8/s16), where s8 = swing 8ths, s16 = swing 16ths
comments
We did not receive enough feedback on this tab! Please rate:
1 2 3 4 5
I want to post or [tab]
guest
You may want to rate the tab now too:
select rating
Please do not post tabs as comments. Select "correction" instead!