Oops, an error
Loading. Please wait.

The Great Deceiver Tab

ver1
ver1

Whole song

Interactive

More versions @911Tabs.com
1,411 views 1 this week
1 commentread comment
1 2 3 4 5
excellent!
x 1
Autoscroll
+/-
esc
set tempo
stop
Contributor
Tuning
C G C F A D
Hey! There's an official Ultimate Guitar app which is ideal
for learning songs when you're away from computer. Get the app
WARNING: You are trying to view
                                    content from Ultimate-Guitar.com
                                    in an unauthorized application,
                                    which is prohibited.

                                    Please use an official Ultimate
                                    Guitar Tabs application for iPhone,
                                    iPad or Android to access legitimate
                                    chords, guitar, bass, and drum tabs
                                    from Ultimate-Guitar.com database.

                                    Type "ultimate guitar tabs" in Apple
                                    App Store's or Android Market's
                                    search to find the application.
#----------------------------------PLEASE NOTE---------------------------------#
#This file is the author's own work and represents their interpretation of the #
#song. You may only use this file for private study, scholarship, or research. #
#------------------------------------------------------------------------------#

THE GREAT DECEIVER
As recorded by Evergrey
(From the 2003 Album RECREATION DAY)

Transcribed by yanndc@hotmail.com
        

Words and Music by Evergrey

Gtr I (C G C F A D) - 'Untitled'
Gtr II (C G C F A D) - 'Untitled'
Gtr III (C G C F A D) - 'Untitled'
Gtr IV (C G C F A D) - 'Untitled'

 Intro
  Q=176
 4/4
  Gtr I
   |--3--|  |--3--|  |--3--|  |--3--|    |--3--|  |--3--|  |--3--|  |--3--|
   E  E  E  E  E  E  E  E  E  E  E  E    E  E  E  E  E  E  E  E  E  E  E  E
|----------12s15-12-------------10s14-|-12----------------------------------|
|-------12----------13-------12-------|----13-12-10----12-10----------10-12-|
|----12----------------12-11----------|-------------12-------12-11-12-------|
|-14----------------------------------|-------------------------------------|
|-------------------------------------|-------------------------------------|
|-------------------------------------|-------------------------------------|
|
| Gtr II
|  |--3--|  |--3--|  |--3--|  |--3--|    |--3--|  |--3--|  |--3--|  |--3--|
|  E  E  E  E  E  E  E  E  E  E  E  E    E  E  E  E  E  E  E  E  E  E  E  E
|----------12s15-12-------------10s14-|-------------------------------------|
|-------12----------13-------12-------|-13-10-------------------------------|
|----12----------------12-11----------|-------12-11----12-11----------11-12-|
|-14----------------------------------|-------------14-------14-13-14-------|
|-------------------------------------|-------------------------------------|
|-------------------------------------|-------------------------------------|
|
| Gtrs III, IV
|  PM---|      PM    PM---|      PM      PM---|      PM    PM---|      PM
|  |--3--|  |--3--|  |--3--|  |--3--|    |--3--|  |--3--|  |--3--|  |--3--|
|  E  E  E  E  E  E  E  E  E  E  E  E    E  E  E  E  E  E  E  E  E  E  E  E
|-------------------------------------|-------------------------------------|
|-------------------------------------|-----------------------------0-----1-|
|-------------------------------------|-----------4-----2-----------0-----2-|
|-----------2-----0-----------2-----4-|-----------5-----4-------------------|
|-------------------------------------|-------------------------------------|
|--2--2--2-----2-----2--2--2-----2----|--2--2--2-----2-----2--2--2-----2----|


   |--3--|  |--3--|  |--3--|  |--3--|
   E  E  E  E  E  E  E  E  E  E  E  E
|----------12s15-12-------------11s14---|
|-------12----------13-------12---------|
|----12----------------12-11------------|
|-14------------------------------------|
|---------------------------------------|
|---------------------------------------|
|
|  |--3--|  |--3--|  |--3--|  |--3--|
|  E  E  E  E  E  E  E  E  E  E  E  E
|----------12s15-12-------------11s14---|
|-------12----------13-------12---------|
|----12----------------12-11------------|
|-14------------------------------------|
|---------------------------------------|
|---------------------------------------|
|
|  PM---|      PM    PM---|      PM
|  |--3--|  |--3--|  |--3--|  |--3--|
|  E  E  E  E  E  E  E  E  E  E  E  E
|---------------------------------------|
|---------------------------------------|
|---------------------------------------|
|-----------5-----4-----------5-----4---|
|--3--3--3-----3-----3--3--3-----3------|
|---------------------------------------|


   |--3--|  |--3--|  |-----3------|
   E  E  E  E  E  E  E      +E   +E   Q
|-17-14--------------------------------------|
|-------15-----------------------------------|
|----------14-11-----------------------------|
|----------------12-10b12==(10)r(10)---------|
|--------------------------------------------|
|------------------------------------10\-----|
|
|  |--3--|  |--3--|  |-----3------|
|  E  E  E  E  E  E  E      +E   +E   Q
|-17-14--------------------------------------|
|-------15-----------------------------------|
|----------14-11-----------------------------|
|----------------12-10b12==(10)r(10)---------|
|--------------------------------------------|
|------------------------------------10\-----|
|
|  PM---|      PM    PM-----------------------
|  |--3--|  |--3--|  |-----3------|   |-3--|
|  E  E  E  E  E  E  E       E    E   E  E E
|--------------------------------------------|
|--------------------------------------------|
|-----------4-----5--------------------------|
|-----------5-----7--------------------------|
|--5--5--5-----5-----5-------5----2---0------|
|----------------------------------------5-4-|


   |--3--|  |--3--|  |--3--|  |--3--|    |--3--|  |--3--|  |--3--|  |--3--|
   E  E  E  E  E  E  E  E  E  E  E  E    E  E  E  E  E  E  E  E  E  E  E  E
|----------12s15-12-------------10s14-|-12-------------12-10-----------------|
|-------12----------13-------12-------|----13-12-10----------13-12-10--------|
|----12----------------12-11----------|-------------12----------------12-11--|
|-14----------------------------------|--------------------------------------|
|-------------------------------------|--------------------------------------|
|-------------------------------------|--------------------------------------|
|
|  |--3--|  |--3--|  |--3--|  |--3--|    |--3--|  |--3--|  |--3--|  |--3--|
|  E  E  E  E  E  E  E  E  E  E  E  E    E  E  E  E  E  E  E  E  E  E  E  E
|----------12s15-12-------------10s14-|-12-----------------------------------|
|-------12----------13-------12-------|----10----------13-12-----------------|
|----12----------------12-11----------|-------12-11----------14-12-11--------|
|-14----------------------------------|-------------14----------------14-13--|
|-------------------------------------|--------------------------------------|
|-------------------------------------|--------------------------------------|
|
|------------------------------------------------------------------------|
|  |--3--|  |--3--|  |--3--|  |--3--|    |--3--|  |--3--|  |--3--|  |--3--|
|  E  E  E  E  E  E  E  E  E  E  E  E    E  E  E  E  E  E  E  E  E  E  E  E
|-------------------------------------|--------------------------------------|
|-------------------------------------|--------------------------------------|
|-------------------------------------|--------------------------------------|
|-------------------------------------|--------------------------------------|
|-------------------------------------|--------------------------------------|
|--2--2--2--2--2--2--2--2--2--2--2--2-|--4--4--4--4--4--4--4--4--4--4--4--4--|


   |--3--|  |--3--|  |--3--|  |--3--|
   E  E  E  E  E  E  E  E  E  E  E  E
|----------12s15-12-------------11s14-|
|-------12----------13-------12-------|
|----12----------------12-11----------|
|-14----------------------------------|
|-------------------------------------|
|-------------------------------------|
|
|  |--3--|  |--3--|  |--3--|  |--3--|
|  E  E  E  E  E  E  E  E  E  E  E  E
|----------12s15-12-------------11s14-|
|-------12----------13-------12-------|
|----12----------------12-11----------|
|-14----------------------------------|
|-------------------------------------|
|-------------------------------------|
|
|  PM----------------------------------
|  |--3--|  |--3--|  |--3--|  |--3--|
|  E  E  E  E  E  E  E  E  E  E  E  E
|-------------------------------------|
|-------------------------------------|
|-------------------------------------|
|-------------------------------------|
|-------------------------------------|
|--5--5--5--5--5--5--5--5--5--5--5--5-|


                                  Intro Solo
                     ~~
   |--3--|  |--3--|                 |--3--|  |--3--|  |--3--|  |--3--|
   E  E  E  E  E  E  H              E  E  E  E  E  E  E  E  E  E  E  E
|-19-15--------------------------|-17h19-15h17-14h15-17h19-15h17-14h15--|
|-------17-------15S20-----------|--------------------------------------|
|----------16-14-----------------|--------------------------------------|
|--------------------------------|--------------------------------------|
|--------------------------------|--------------------------------------|
|--------------------------------|--------------------------------------|
|
|                    ~~             PM---|      PM    PM---|      PM
|  |--3--|  |--3--|                 |--3--|  |--3--|  |--3--|  |--3--|
|  E  E  E  E  E  E  H              E  E  E  E  E  E  E  E  E  E  E  E
|-19-15----------14S19-----------|--------------------------------------|
|-------17-----------------------|--------------------------------------|
|----------16-14-----------------|--------------------------------------|
|--------------------------------|-----------2-----0-----------2-----4--|
|--------------------------------|--------------------------------------|
|--------------------------------|--2--2--2-----2-----2--2--2-----2-----|
|
|                                Gtr III
|----------------------------------------|      PM    PM---|      PM
|  |--3--|  |--3--|  |-3-| |-3-|    |--3--|  |--3--|  |--3--|  |--3--|
|  E  E  E  E  E  E  E E E E E E    E  E  E  E  E  E  E  E  E  E  E  E
|--------------------------------|--------------------------------------|
|--------------------------------|--------------------------------------|
|--------------------------------|--------------------------------------|
|--------------------------2-4-5-|-----------2-----0-----------2-----4--|
|--0--2--3--2--3--5--2-3-5-------|--------------------------------------|
|--------------------------------|--2--2--2-----2-----2--2--2-----2-----|


   |-------5-------|  |----5-----|    |-------5-------|  |-------5-------|
   S  S    S  S    S  S  S    S  E    S  S    S  S    S  S  S    S  S    S
|-17h19p==17---------------------------------------------------------------|
|------------20p==19-19h20p==19p17---17h20p==19-17p==16-17h20p==17---------|
|------------------------------------------------------------------19p==17-|
|--------------------------------------------------------------------------|
|--------------------------------------------------------------------------|
|--------------------------------------------------------------------------|
|
|  PM-----------|          PM         PM-----------|          PM
|  |-----3------|     |-----3------|  |-----3------|     |-----3------|
|  E    E       E     E    E       E  E    E       E     E    E       E
|--------------------------------------------------------------------------|
|--------------------------------------------------------------------------|
|---------------------4------------2---------------------4------------5----|
|--------------------------------------------------------------------------|
|--------------------------------------------------------------------------|
|--2----2-------2----------2----------2----2-------2----------2------------|
|
|  PM-----------|          PM         PM-----------|          PM
|  |-----3------|     |-----3------|  |-----3------|     |-----3------|
|  E    E       E     E    E       E  E    E       E     E    E       E
|--------------------------------------------------------------------------|
|--------------------------------------------------------------------------|
|---------------------------------------------------------------------2----|
|---------------------5------------4---------------------5-----------------|
|--------------------------------------------------------------------------|
|--2----2-------2----------2----------2----2-------2----------2------------|


   |--3--|  |3-|  |--3--|  |3-|  |--3--|  |--3--|  |--3--|  |--3--|
   S  S  S  S  E  S  S  S  S  E  S  S  S  S  S  S  S  S  S  S  S  S
|-------------------------------------------------------------------|
|-13h15h17-15p13-12h13h15p13p12-10h12h13-10h12h13-12h13h15-13p12h13-|
|-------------------------------------------------------------------|
|-------------------------------------------------------------------|
|-------------------------------------------------------------------|
|-------------------------------------------------------------------|
|
|  PM---------|         PM       PM---------|            PM
|  |-----3-----|  |-----3-----|  |-----3-----|     |-----3-----|
|  E     E     E  E     E     E  E     E     E     E     E     E
|-------------------------------------------------------------------|
|-------------------------------------------------------------------|
|-------------------------------------------------------------------|
|-----------------5-----------4--------------------5-----------4----|
|--3-----3-----3--------3--------3-----3-----3-----------3----------|
|-------------------------------------------------------------------|
|
|  PM---------|         PM       PM---------|            PM
|  |-----3-----|  |-----3-----|  |-----3-----|     |-----3-----|
|  E     E     E  E     E     E  E     E     E     E     E     E
|-------------------------------------------------------------------|
|-------------------------------------------------------------------|
|-------------------------------------------------------------------|
|-----------------5-----------4--------------------5-----------4----|
|--3-----3-----3--------3--------3-----3-----3-----------3----------|
|-------------------------------------------------------------------|


      |-3--|   |--3--|  |3-|   |3|  |-3--|  |3|
   S  S    S.  E  E  E  S  E   S E  E E  E  S S
|-10h13---10------------------------------------|
|-------------13p12p10--------------------------|
|----------------------12p11---9p8--------------|
|----------------------------------10p9---------|
|---------------------------------------12-10p9-|
|-----------------------------------------------|
|
|  PM---------|      PM      PM------------------
|  |-----3-----|  |--3--|    |--3---| |--3--|
|  E    E      E  E  E  E    E   E  E E  E  E
|-----------------------------------------------|
|-----------------------------------------------|
|-----------------4-----5-----------------------|
|-----------------------------------------------|
|--5----5------5-----5-------5---5--2-0---------|
|----------------------------------------5--4---|
|
|  PM---------|      PM      PM------------------
|  |-----3-----|  |--3--|    |--3---| |--3--|
|  E    E      E  E  E  E    E   E  E E  E  E
|-----------------------------------------------|
|-----------------------------------------------|
|-----------------------------------------------|
|-----------------5-----7-----------------------|
|--5----5------5-----5-------5---5--2-0---------|
|----------------------------------------5--4---|


  ~                         PM--|
                            |-3-| |-3-| |-3-|
  W                         E E E E E E E E E a Q
|-------------------------|-------------------6s7-----|
|-------------------------|---------------7-5---------|
|-------------------------|---------5-9-8-------------|
|-------------------------|-------7-------------------|
|-7-----------------------|-7-9-7---------------------|
|-------------------------|---------------------------|
|
|---------------------------------------------------|
| |-3-| |-3-| |-3-| |-3-|   |-3-| |-3-| |-3-|   |-3-|
| E E E E E E E E E E E E   E E E E E E E E E   E E E
|-------------------------|---------------------------|
|-------------------------|---------------------------|
|-------------------------|---------------------------|
|-------------------------|---------------------------|
|-------------------------|---------------------------|
|-2-2-2-2-2-2-2-2-2-2-2-2-|-4-4-4-4-4-4-4-4-4---4-4-4-|
|
|---------------------------------------------------|
| |-3-| |-3-| |-3-| |-3-|   |-3-| |-3-| |-3-|   |-3-|
| E E E E E E E E E E E E   E E E E E E E E E   E E E
|-------------------------|---------------------------|
|-------------------------|---------------------------|
|-------------------------|---------------------------|
|-------------------------|---------------------------|
|-------------------------|---------------------------|
|-2-2-2-2-2-2-2-2-2-2-2-2-|-4-4-4-4-4-4-4-4-4---4-4-4-|


  +W
|-(7)-----------------------|
|---------------------------|
|---------------------------|
|---------------------------|
|---------------------------|
|---------------------------|
|
|  PM------------------------
|  |-3--| |-3-| |-3-| |-3-|
|  E  E E E E E E E E E E E
|---------------------------|
|---------------------------|
|---------------------------|
|---------------4-2-0-------|
|---------------------0-----|
|--5--5-5-5-5-5---------5-4-|
|
|  PM------------------------
|  |-3--| |-3-| |-3-| |-3-|
|  E  E E E E E E E E E E E
|---------------------------|
|---------------------------|
|---------------------------|
|---------------4-2-0-------|
|---------------------0-----|
|--5--5-5-5-5-5---------5-4-|


   |---3----|  |3-|  |-3-|
   E  E  S  S  E  E  S.  E    S    S    S    Q
|--------------------------------------14-([15])-----|
|-------10-12-13-15-12--13---15---17-----------------|
|-11-12----------------------------------------------|
|----------------------------------------------------|
|----------------------------------------------------|
|----------------------------------------------------|
|
|--------------------------------------------------|
|  |--3--|     |--3--|     |----3----|       |--3--|
|  E  E  E     E  E  E     E    E    E       E   E E
|----------------------------------------------------|
|----------------------------------------------------|
|----------------------------------------------------|
|--2--0--------------------4----2----0---------------|
|--------3-------------------------------------------|
|--------------5--4--2-----------------------4---2-0-|
|
|--------------------------------------------------|
|  |--3--|     |--3--|     |----3----|       |--3--|
|  E  E  E     E  E  E     E    E    E       E   E E
|----------------------------------------------------|
|----------------------------------------------------|
|----------------------------------------------------|
|--2--0--------------------4----2----0---------------|
|--------3-------------------------------------------|
|--------------5--4--2-----------------------4---2-0-|


 Verse
  $
  Gtrs I, II
                               PM-----------------------
    |-3--|                     |-3-| |-3-| |-3-| |-3-|
   +Q    E Q     H             E E E E E E E E E E E E
|-(15)-----------------------|-------------------------|
|----------------------------|-------------------------|
|----------------------------|-------------------------|
|----------------------------|-------------------------|
|----------------------------|-------------------------|
|---2--2-2-2-2-2-2-2-2-2-2-2-|-2-2-2-2-2-2-3-3-3-0-0-3-|
    E  E E E E E E E E E E E
    |-3--| |-3-| |-3-| |-3-|


 -------------------------------------------------|
  |-3-| |-3-| |-3-| |-3-|   |-3-| |-3-| |-3-| |-3-|
  E E E E E E E E E E E E   E E E E E E E E E E E E
|-------------------------|----------------------------|
|-------------------------|----------------------------|
|-------------------------|----------------------------|
|-------------------------|----------------------------|
|-------------------------|----------------------------|
|-2-2-2-2-2-2-2-2-2-2-2-2-|-2-2-2-2-2-2-3-3-3-0-0-2----|


  Gtr I
  PM-------------------------------------------------
  |-3-| |-3-| |-3-| |-3-|   |-3-| |-3-| |-3-| |-3-|
  E E E E E E E E E E E E   E E E E E E E E E E E E
|-------------------------|-------------------------|
|-------------------------|-------------------------|
|-------------------------|-------------------------|
|-------------------------|-------------------------|
|-------------------------|-------------------------|
|-3-3-3-3-3-3-3-3-3-3-3-3-|-3-3-3-3-3-3-3-3-3-3-3-3-|
|
| Gtr II
| PM-------------------------------------------------
| |-3-| |-3-| |-3-| |-3-|   |-3-| |-3-| |-3-| |-3-|
| E E E E E E E E E E E E   E E E E E E E E E E E E
|-------------------------|-------------------------|
|-------------------------|-------------------------|
|-------------------------|-------------------------|
|-------------------------|-------------------------|
|-------------------------|-------------------------|
|-3-3-3-3-3-3-3-3-3-3-3-3-|-3-3-3-3-3-3-3-3-3-3-3-3-|


 ----------------------------------------------------|
   |--3--| |-3-| |-3-| |-3-|   |-3-| |-3-| |-3-| |-3-|
   E  E  E E E E E E E E E E   E E E E E E E E E E E E
|-10-10-10-7-7-7-------------|----------------------------|
|----------------------------|-6-6-6-5-5-5-3-3-3-----5----|
|----------------7-7-7-4-4-4-|-------------------5-7------|
|----------------------------|----------------------------|
|----------------------------|----------------------------|
|----------------------------|----------------------------|
|
|----------------------------------------------------|
|  |--3--| |-3-| |-3-| |-3-|   |-3-| |-3-| |-3-| |-3-|
|  E  E  E E E E E E E E E E   E E E E E E E E E E E E
|-10-10-10-7-7-7-------------|-5-5-5-4-4-4----------------|
|----------------6-6-6-5-5-5-|-------------6-6-6-----5----|
|----------------------------|-------------------5-7------|
|----------------------------|----------------------------|
|----------------------------|----------------------------|
|----------------------------|----------------------------|


  Gtrs I, II
   PM---| PM--| PM-------------------------------------
                              |-3-| |-3-| |-3-| |-3-|
   Q      Q     H             E E E E E E E E E E E E
|---------------------------|-------------------------|
|-[5]-----------------------|-------------------------|
|---------------------------|-------------------------|
|---------------------------|-------------------------|
|---------------------------|-------------------------|
|--2--2-2-2-2-2-2-2-2-2-2-2-|-2-2-2-2-2-2-3-3-3-0-0-3-|
   E  E E E E E E E E E E E
   |-3--| |-3-| |-3-| |-3-|


 -------------------------------------------------|
  |-3-| |-3-| |-3-| |-3-|   |-3-| |-3-| |-3-| |-3-|
  E E E E E E E E E E E E   E E E E E E E E E E E E
|-------------------------|----------------------------|
|-------------------------|----------------------------|
|-------------------------|----------------------------|
|-------------------------|----------------------------|
|-------------------------|----------------------------|
|-2-2-2-2-2-2-2-2-2-2-2-2-|-2-2-2-2-2-2-3-3-3-0-0-2----|


  Gtr I
  PM-------------------------------------------------
  |-3-| |-3-| |-3-| |-3-|   |-3-| |-3-| |-3-| |-3-|
  E E E E E E E E E E E E   E E E E E E E E E E E E
|-------------------------|-------------------------|
|-------------------------|-------------------------|
|-------------------------|-------------------------|
|-------------------------|-------------------------|
|-------------------------|-------------------------|
|-3-3-3-3-3-3-3-3-3-3-3-3-|-3-3-3-3-3-3-3-3-3-3-3-3-|
|
| Gtr II
| PM-------------------------------------------------
| |-3-| |-3-| |-3-| |-3-|   |-3-| |-3-| |-3-| |-3-|
| E E E E E E E E E E E E   E E E E E E E E E E E E
|-------------------------|-------------------------|
|-------------------------|-------------------------|
|-------------------------|-------------------------|
|-------------------------|-------------------------|
|-------------------------|-------------------------|
|-3-3-3-3-3-3-3-3-3-3-3-3-|-3-3-3-3-3-3-3-3-3-3-3-3-|


                                              To Coda
 ----------------------------------------------------|
   |--3--| |-3-| |-3-| |-3-|   |-3-| |-3-| |-3-| |-3-|
   E  E  E E E E E E E E E E   E E E E E E E E E E E E
|-10-10-10-7-7-7-------------|----------------------------|
|----------------------------|-6-6-6-5-5-5-3-3-3-----5----|
|----------------7-7-7-4-4-4-|-------------------5-7------|
|----------------------------|----------------------------|
|----------------------------|----------------------------|
|----------------------------|----------------------------|
|
|----------------------------------------------------|
|  |--3--| |-3-| |-3-| |-3-|   |-3-| |-3-| |-3-| |-3-|
|  E  E  E E E E E E E E E E   E E E E E E E E E E E E
|-10-10-10-7-7-7-------------|-5-5-5-4-4-4----------------|
|----------------6-6-6-5-5-5-|-------------6-6-6-----5----|
|----------------------------|-------------------5-7------|
|----------------------------|----------------------------|
|----------------------------|----------------------------|
|----------------------------|----------------------------|


   Chorus
    $$
    PM--|   PM  PM--|   PM
    |-3-| |-3-| |-3-| |-3-|
    E E E E E E E E E E E E
||--------------------------|
||o-------------------------|
||--------------------------|
||--------2-----------2---4-|
||o-----------5-------------|
||--2-2-2---2---2-2-2---2---|
|
|   PM--|   PM  PM--|   PM
|   |-3-| |-3-| |-3-| |-3-|
|   E E E E E E E E E E E E
||--------------------------|
||o-------------------------|
||--------------------------|
||--------2-----------2---4-|
||o-----------5-------------|
||--2-2-2---2---2-2-2---2---|


  PM--|   PM  PM--|   PM    PM--|   PM  PM--|   PM
  |-3-| |-3-| |-3-| |-3-|   |-3-| |-3-| |-3-| |-3-|
  E E E E E E E E E E E E   E E E E E E E E E E E E
|-------------------------|-------------------------|
|-------------------------|-------------------------|
|-----------------------2-|-------------------------|
|-------5---4-------5-----|-------5---4-------5---4-|
|-------------------------|-3-3-3---3---3-3-3---3---|
|-2-2-2---2---2-2-2---2---|-------------------------|
|
| PM--|   PM  PM--|   PM    PM--|   PM  PM--|   PM
| |-3-| |-3-| |-3-| |-3-|   |-3-| |-3-| |-3-| |-3-|
| E E E E E E E E E E E E   E E E E E E E E E E E E
|-------------------------|-------------------------|
|-------------------------|-------------------------|
|-------4---2-------4---5-|-------------------------|
|-------------------------|-------5---4-------5---4-|
|-------------------------|-3-3-3---3---3-3-3---3---|
|-2-2-2---2---2-2-2---2---|-------------------------|


  PM--|   PM  PM------------------------------------------------------------|
  |-3-| |-3-| |-3-| |-3-|   |-3-| |-3-| |-3-| |-3-|   |-3-| |-3-| |-3-| |-3-|
  E E E E E E E E E E E E   E E E E E E E E E E E E   E E E E E E E E E E E E
|-------------------------|-------------------------|--------------------------|
|-------------------------|-------------------------|--------------------------|
|-------------------------|-------------------------|--------------------------|
|-------5---7-------------|-------------------------|--------------------------|
|-5-5-5---5---5-5-2-0-----|-------------------------|--------------------------|
|---------------------5-4-|-2-2-2-2-2-2-2-2-2-2-2-2-|-4-4-4-4-4-4-4-4-4-4-4-4--|
|
| PM--|   PM  PM------------------------------------------------------------|
| |-3-| |-3-| |-3-| |-3-|   |-3-| |-3-| |-3-| |-3-|   |-3-| |-3-| |-3-| |-3-|
| E E E E E E E E E E E E   E E E E E E E E E E E E   E E E E E E E E E E E E
|-------------------------|-------------------------|--------------------------|
|-------------------------|-------------------------|--------------------------|
|-------4---5-------------|-------------------------|--------------------------|
|-------------------------|-------------------------|--------------------------|
|-5-5-5---5---5-5-2-0-----|-------------------------|--------------------------|
|---------------------5-4-|-2-2-2-2-2-2-2-2-2-2-2-2-|-4-4-4-4-4-4-4-4-4-4-4-4--|


  1.
  Gtrs I, II
  PM---------------------------------------------------
  |-3-| |-3-| |-3-| |-3-|   |-3-| |-3-| |-3-| |-3-|
  E E E E E E E E E E E E   E E E E E E E E E E E E
|-------------------------|--------------------------||
|-------------------------|-------------------------o||
|-------------------------|--------------------------||
|-------------------------|-------------------2-4-5--||
|-------------------------|-0-2-3-2-3-5-2-3-5-------o||
|-5-5-5-5-5-5-5-5-5-5-5-5-|--------------------------||


  2.
                                       To Dbl. Coda
                                       To Dbl. Coda
 --------------------------------------------------|
   |-3-| |-3-| |-3-| |-3-|   |-3-| |-3-| |-3-| |-3-|
   E E E E E E E E E E E E   E E E E E E E E E E E E
|--------------------------|---------------------------|
|--------------------------|---------------------------|
|--------------------------|---------------------------|
|--------------4-2-0-------|-2-0---------4-2-0---------|
|--------------------0-----|-----3---------------------|
|--5-5-5-5-5-5---------5-4-|-------5-4-2-------4-2-0---|


 Interlude
  Q=88
  &
  PM------------------------------------------|      PM----------------|
  e S e e S e e S S S S   e S e e S e e S S S S    E S e e S e e S S S S
|-----------------------|-----------------------|------------------------|
|-----------------------|-----------------------|------------------------|
|-----------------------|-----------------------|------------------------|
|-----------------------|-----------------------|------------------------|
|-----------------------|-----------------------|-/8---------------------|
|-2-2-2-2-2-2-2-2-2-0-0-|-2-2-2-2-2-2-2-2-2-0-0-|----3-3-3-3-3-3-3-3-2-2-|


                 Eb5/Bb    D5
     PM--------|           PM------------------------------------------|
   E S e e S e e   Q       E S e e S e e S S S S   e S e e S e e S S S S
|----------------------||------------------------|-----------------------|
|----------------------||o-----------------------|-----------------------|
|----------------------||------------------------|-----------------------|
|----------------------||--2---------------------|-----------------------|
|-/5--------------/8\--||o-2---------------------|-----------------------|
|----0-0-0-0-0-0-/10\--||--2-2-2-2-2-2-2-2-2-0-0-|-2-2-2-2-2-2-2-2-2-0-0-|


                       D.S.S. al Dbl. Coda
                                          Eb5/Bb
     PM----------------|      PM--------|
   E S e e S e e S S S S    E S e e S e e   Q    3x
|------------------------|-----------------------||
|------------------------|----------------------o||
|------------------------|-----------------------||
|------------------------|-----------------------||
|-/8---------------------|-/5--------------/8\--o||
|----3-3-3-3-3-3-3-3-2-2-|----0-0-0-0-0-0-/10\---||


  &&
 1/4  4/4
         PM------------------------------|    PM------------------------|
  Q    S e S e e S e e S S S   e e S S E S E. S S E   e S e e S e e e S S
|----|-----------------------|----------------------|---------------------|
|----|-----------------------|----------------------|---------------------|
|----|-----------------------|----------------------|---------------------|
|----|-----------------------|----------------------|---------------------|
|----|-----------------------|----------------------|---------------------|
|----|---2-2-2-2-2-2-2-2-2-2-|-2-2-2-2---2----2-2---|-3-3-3-3-3-3-3-3-3-3-|


  PM-----------------------------------------------------------|
  S Q  e S S S S e S e   e e S S E e e e S S   e e S S e e e e e
|----------------------|---------------------|--------------------|
|----------------------|---------------------|--------------------|
|----------------------|---------------------|--------------------|
|----------------------|---------------------|--------------------|
|----------------------|---------------------|--------------------|
|-0----0-0-0-0-0-0-0-0-|-2-2-2-2---2-2-2-2-2-|-2-2-2-2-2-2-2-2-2--|


  PM------------------|    PM|   PM--------------------------------|
  e e e e e e e S S   S E. S S E S S S S e e   S e S e e S e e S S S
|-------------------|------------------------|-----------------------|
|-------------------|------------------------|-----------------------|
|-------------------|------------------------|-----------------------|
|-------------------|------------------------|-----------------------|
|-------------------|------------------------|-----------------------|
|-3-3-3-3-3-3-3-3-3-|-0----0-0---0-0-0-0-0-0-|-2-2-2-2-2-2-2-2-2-2-2-|


  PM--------------------------------------------------------------|
  e e S S E S E. S S E   e S e e S e e e S S   S Q  e S S S S e S e
|----------------------|---------------------|----------------------|
|----------------------|---------------------|----------------------|
|----------------------|---------------------|----------------------|
|----------------------|---------------------|----------------------|
|----------------------|---------------------|----------------------|
|-2-2-2-2---2----2-2---|-3-3-3-3-3-3-3-3-3-3-|-0----0-0-0-0-0-0-0-0-|


   PM------------------------------------------|
   E S e e S e e S S S S   e S e e S e e S S S S
|------------------------|-----------------------|
|------------------------|-----------------------|
|------------------------|-----------------------|
|------------------------|-----------------------|
|-/7---------------------|-----------------------|
|----2-2-2-2-2-2-2-2-0-0-|-2-2-2-2-2-2-2-2-2-0-0-|


   Chorus
    Q=176
    Gtr I
    PM--|   PM  PM--|   PM
    |-3-| |-3-| |-3-| |-3-|
    E E E E E E E E E E E E
||--------------------------|
||o-------------------------|
||--------------------------|
||--------2-----------2---4-|
||o-----------5-------------|
||--2-2-2---2---2-2-2---2---|
|
|   Gtr II
|   PM--|   PM  PM--|   PM
|   |-3-| |-3-| |-3-| |-3-|
|   E E E E E E E E E E E E
||--------------------------|
||o-------------------------|
||--------------------------|
||--------2-----------2---4-|
||o-----------5-------------|
||--2-2-2---2---2-2-2---2---|


  PM--|   PM  PM--|   PM    PM--|   PM  PM--|   PM
  |-3-| |-3-| |-3-| |-3-|   |-3-| |-3-| |-3-| |-3-|
  E E E E E E E E E E E E   E E E E E E E E E E E E
|-------------------------|-------------------------|
|-------------------------|-------------------------|
|-----------------------2-|-------------------------|
|-------5---4-------5-----|-------5---4-------5---4-|
|-------------------------|-3-3-3---3---3-3-3---3---|
|-2-2-2---2---2-2-2---2---|-------------------------|
|
| PM--|   PM  PM--|   PM    PM--|   PM  PM--|   PM
| |-3-| |-3-| |-3-| |-3-|   |-3-| |-3-| |-3-| |-3-|
| E E E E E E E E E E E E   E E E E E E E E E E E E
|-------------------------|-------------------------|
|-------------------------|-------------------------|
|-------4---2-------4---5-|-------------------------|
|-------------------------|-------5---4-------5---4-|
|-------------------------|-3-3-3---3---3-3-3---3---|
|-2-2-2---2---2-2-2---2---|-------------------------|


  PM--|   PM  PM------------------------------------------------------------|
  |-3-| |-3-| |-3-| |-3-|   |-3-| |-3-| |-3-| |-3-|   |-3-| |-3-| |-3-| |-3-|
  E E E E E E E E E E E E   E E E E E E E E E E E E   E E E E E E E E E E E E
|-------------------------|-------------------------|--------------------------|
|-------------------------|-------------------------|--------------------------|
|-------------------------|-------------------------|--------------------------|
|-------5---7-------------|-------------------------|--------------------------|
|-5-5-5---5---5-5-2-0-----|-------------------------|--------------------------|
|---------------------5-4-|-2-2-2-2-2-2-2-2-2-2-2-2-|-4-4-4-4-4-4-4-4-4-4-4-4--|
|
| PM--|   PM  PM------------------------------------------------------------|
| |-3-| |-3-| |-3-| |-3-|   |-3-| |-3-| |-3-| |-3-|   |-3-| |-3-| |-3-| |-3-|
| E E E E E E E E E E E E   E E E E E E E E E E E E   E E E E E E E E E E E E
|-------------------------|-------------------------|--------------------------|
|-------------------------|-------------------------|--------------------------|
|-------4---5-------------|-------------------------|--------------------------|
|-------------------------|-------------------------|--------------------------|
|-5-5-5---5---5-5-2-0-----|-------------------------|--------------------------|
|---------------------5-4-|-2-2-2-2-2-2-2-2-2-2-2-2-|-4-4-4-4-4-4-4-4-4-4-4-4--|


  1.
  Gtrs I, II
  PM---------------------------------------------------
  |-3-| |-3-| |-3-| |-3-|   |-3-| |-3-| |-3-| |-3-|
  E E E E E E E E E E E E   E E E E E E E E E E E E
|-------------------------|--------------------------||
|-------------------------|-------------------------o||
|-------------------------|--------------------------||
|-------------------------|-------------------2-4-5--||
|-------------------------|-0-2-3-2-3-5-2-3-5-------o||
|-5-5-5-5-5-5-5-5-5-5-5-5-|--------------------------||


  2.
 -------------------------------------------------|
  |-3-| |-3-| |-3-| |-3-|   |-3-| |-3-| |-3-| |-3-|
  E E E E E E E E E E E E   E E E E E E E E E E E E
|-------------------------|----------------------------|
|-------------------------|----------------------------|
|-------------------------|----------------------------|
|-------------4-2-0-------|-2-0---------4-2-0----------|
|-------------------0-----|-----3----------------------|
|-5-5-5-5-5-5---------5-4-|-------5-4-2-------4-2-0----|


 Outro Solo
  Gtr I
   |--3--|  |--3--|  |--3--|  |--3--|    |--3--|  |--3--|  |--3--|  |--3--|
   E  E  E  E  E  E  E  E  E  E  E  E    E  E  E  E  E  E  E  E  E  E  E  E
|----------12s15-12-------------10s14-|-12----------------------------------|
|-------12----------13-------12-------|----13-12-10----12-10----------10-12-|
|----12----------------12-11----------|-------------12-------12-11-12-------|
|-14----------------------------------|-------------------------------------|
|-------------------------------------|-------------------------------------|
|-------------------------------------|-------------------------------------|
|
| Gtr II
|  |--3--|  |--3--|  |--3--|  |--3--|    |--3--|  |--3--|  |--3--|  |--3--|
|  E  E  E  E  E  E  E  E  E  E  E  E    E  E  E  E  E  E  E  E  E  E  E  E
|----------12s15-12-------------10s14-|-------------------------------------|
|-------12----------13-------12-------|-13-10-------------------------------|
|----12----------------12-11----------|-------12-11----12-11----------11-12-|
|-14----------------------------------|-------------14-------14-13-14-------|
|-------------------------------------|-------------------------------------|
|-------------------------------------|-------------------------------------|
|
| Gtrs III, IV
|  PM---|      PM    PM---|      PM      PM---|      PM    PM---|      PM
|  |--3--|  |--3--|  |--3--|  |--3--|    |--3--|  |--3--|  |--3--|  |--3--|
|  E  E  E  E  E  E  E  E  E  E  E  E    E  E  E  E  E  E  E  E  E  E  E  E
|-------------------------------------|-------------------------------------|
|-------------------------------------|-----------------------------0-----1-|
|-------------------------------------|-----------4-----2-----------0-----2-|
|-----------2-----0-----------2-----4-|-----------5-----4-------------------|
|-------------------------------------|-------------------------------------|
|--2--2--2-----2-----2--2--2-----2----|--2--2--2-----2-----2--2--2-----2----|


   |--3--|  |--3--|  |--3--|  |--3--|
   E  E  E  E  E  E  E  E  E  E  E  E
|----------12s15-12-------------11s14--|
|-------12----------13-------12--------|
|----12----------------12-11-----------|
|-14-----------------------------------|
|--------------------------------------|
|--------------------------------------|
|
|  |--3--|  |--3--|  |--3--|  |--3--|
|  E  E  E  E  E  E  E  E  E  E  E  E
|----------12s15-12-------------11s14--|
|-------12----------13-------12--------|
|----12----------------12-11-----------|
|-14-----------------------------------|
|--------------------------------------|
|--------------------------------------|
|
|  PM---|      PM    PM---|      PM
|  |--3--|  |--3--|  |--3--|  |--3--|
|  E  E  E  E  E  E  E  E  E  E  E  E
|--------------------------------------|
|--------------------------------------|
|--------------------------------------|
|-----------5-----4-----------5-----4--|
|--3--3--3-----3-----3--3--3-----3-----|
|--------------------------------------|


   |--3--|  |--3--|  |-----3------|
   E  E  E  E  E  E  E      +E   +E   Q
|-17-14--------------------------------------|
|-------15-----------------------------------|
|----------14-11-----------------------------|
|----------------12-10b12==(10)r(10)---------|
|--------------------------------------------|
|------------------------------------10\-----|
|
|  |--3--|  |--3--|  |-----3------|
|  E  E  E  E  E  E  E      +E   +E   Q
|-17-14--------------------------------------|
|-------15-----------------------------------|
|----------14-11-----------------------------|
|----------------12-10b12==(10)r(10)---------|
|--------------------------------------------|
|------------------------------------10\-----|
|
|  PM---|      PM    PM-----------------------
|  |--3--|  |--3--|  |-----3------|   |-3--|
|  E  E  E  E  E  E  E       E    E   E  E E
|--------------------------------------------|
|--------------------------------------------|
|-----------4-----5--------------------------|
|-----------5-----7--------------------------|
|--5--5--5-----5-----5-------5----2---0------|
|----------------------------------------5-4-|


   |--3--|  |--3--|  |--3--|  |--3--|    |--3--|  |--3--|  |--3--|  |--3--|
   E  E  E  E  E  E  E  E  E  E  E  E    E  E  E  E  E  E  E  E  E  E  E  E
|----------12s15-12-------------10s14-|-12-------------12-10-----------------|
|-------12----------13-------12-------|----13-12-10----------13-12-10--------|
|----12----------------12-11----------|-------------12----------------12-11--|
|-14----------------------------------|--------------------------------------|
|-------------------------------------|--------------------------------------|
|-------------------------------------|--------------------------------------|
|
|  |--3--|  |--3--|  |--3--|  |--3--|    |--3--|  |--3--|  |--3--|  |--3--|
|  E  E  E  E  E  E  E  E  E  E  E  E    E  E  E  E  E  E  E  E  E  E  E  E
|----------12s15-12-------------10s14-|-12-----------------------------------|
|-------12----------13-------12-------|----10----------13-12-----------------|
|----12----------------12-11----------|-------12-11----------14-12-11--------|
|-14----------------------------------|-------------14----------------14-13--|
|-------------------------------------|--------------------------------------|
|-------------------------------------|--------------------------------------|
|
|------------------------------------------------------------------------|
|  |--3--|  |--3--|  |--3--|  |--3--|    |--3--|  |--3--|  |--3--|  |--3--|
|  E  E  E  E  E  E  E  E  E  E  E  E    E  E  E  E  E  E  E  E  E  E  E  E
|-------------------------------------|--------------------------------------|
|-------------------------------------|--------------------------------------|
|-------------------------------------|--------------------------------------|
|-------------------------------------|--------------------------------------|
|-------------------------------------|--------------------------------------|
|--2--2--2--2--2--2--2--2--2--2--2--2-|--4--4--4--4--4--4--4--4--4--4--4--4--|


                                                            ~~~~~
   |--3--|  |--3--|  |--3--|  |--3--|    |--3--|  |--3--|
   E  E  E  E  E  E  E  E  E  E  E  E    E  E  E  E  E  E  +H
|----------12s15-12-------------11s14-|-19-15-----------------------------|
|-------12----------13-------12-------|-------17--------------------------|
|----12----------------12-11----------|----------16-14--------------------|
|-14----------------------------------|-----------------------------------|
|-------------------------------------|-----------------------------------|
|-------------------------------------|----------------14-(14)\-----------|
|
|                                                           ~~~~~
|  |--3--|  |--3--|  |--3--|  |--3--|    |--3--|  |--3--|
|  E  E  E  E  E  E  E  E  E  E  E  E    E  E  E  E  E  E  +H
|----------12s15-12-------------11s14-|-19-15-----------------------------|
|-------12----------13-------12-------|-------17--------------------------|
|----12----------------12-11----------|----------16-14--------------------|
|-14----------------------------------|-----------------------------------|
|-------------------------------------|-----------------------------------|
|-------------------------------------|----------------14-(14)\-----------|
|
|  PM----------------------------------------------------------------------
|  |--3--|  |--3--|  |--3--|  |--3--|    |--3--|  |--3--|   |--3--| |-3-|
|  E  E  E  E  E  E  E  E  E  E  E  E    E  E  E  E  E  E   E   E E E E E
|-------------------------------------|-----------------------------------|
|-------------------------------------|-----------------------------------|
|-------------------------------------|-----------------------------------|
|-------------------------------------|-----------------------------2-4-5-|
|-------------------------------------|--0--2--3--2--3--5---2---3-5-------|
|--5--5--5--5--5--5--5--5--5--5--5--5-|-----------------------------------|


   |----3----|
   Q        +E   +H.
|--------------------------------------|
|--------------------------------------|
|--9b11=====(9)--(9)r------------------|
|--------------------------------------|
|--------------------------------------|
|--------------------------------------|
|
|  |----3----|
|  Q        +E   +H.
|--------------------------------------|
|--------------------------------------|
|--------------------------------------|
|-10b12====(10)-(10)r------------------|
|--------------------------------------|
|--------------------------------------|
|
|----------|          PM  PM--|   PM
|  |----3----|    |--3--| |-3-| |-3-|
|  E     E   E    E   E E E E E E E E
|--------------------------------------|
|--------------------------------------|
|--------------------------------------|
|-----------------2-----0-------2---4--|
|--------------------------------------|
|--2-----2---2--------2---2-2-2---2----|


   |----3----|                                     |----3----|             |---3---|
   Q        +E   +H.                     Q         Q        +E   +Q       +E    E  E
|-------------------------------------|----------------------------------------------|
|-------------------------------------|-10b12r====10b12====(10)-(10)-----(10)r-13-15-|
|-11b12====(11)-(11)r-----------------|----------------------------------------------|
|-------------------------------------|----------------------------------------------|
|-------------------------------------|----------------------------------------------|
|-------------------------------------|----------------------------------------------|
|
|  |----3----|                                     |----3----|             |---3---|
|  Q        +E   +H.                     Q         Q        +E   +Q       +E    E  E
|-------------------------------------|----------------------------------------------|
|-------------------------------------|----------------------------------------10-12-|
|-------------------------------------|-10b12r====10b12====(10)-(10)-----(10)r-------|
|-12b14====(12)-(12)r-----------------|----------------------------------------------|
|-------------------------------------|----------------------------------------------|
|-------------------------------------|----------------------------------------------|
|
|  PM------|          PM  PM--|   PM     PM-----|        PM       PM---|        PM
|  |----3----|    |--3--| |-3-| |-3-|    |--3---|  |----3----|    |-3--|   |---3---|
|  E     E   E    E   E E E E E E E E    E    E E  E     E   E    E  E E   E    E  E
|-------------------------------------|----------------------------------------------|
|-------------------------------0---1-|----------------------------------------------|
|-----------------4-----2-------0---2-|----------------------------------------------|
|-----------------5-----4-------------|------------5---------4-------------5-------4-|
|-------------------------------------|--3----3-3--------3--------3--3-3--------3----|
|--2-----2---2--------2---2-2-2---2---|----------------------------------------------|


                    ~~~~~~~~~
   |-------3--------|
   Q        +Q      Q    +Q       Q
|-----------------------------------------|
|-----------------------------------------|
|-14b16====(14)r--------------------------|
|------------------12---(12)-----12-------|
|-----------------------------------------|
|-----------------------------------------|
|
|  |-------3--------|
|  Q        +Q      Q    +Q      +Q
|-----------------------------------------|
|-----------------------------------------|
|-10b12====(10)r--------------------------|
|-------------------9----(9)-----(9)------|
|-----------------------------------------|
|-----------------------------------------|
|
|  PM------|        PM    PM-----------|
|  |----3----|   |-3--|   |-3--|  |-3--|
|  E     E   E   E  E E   E  E E  E  E E
|-----------------------------------------|
|-----------------------------------------|
|----------------4----5-------------------|
|----------------5----7-------------------|
|--5-----5---5------5-----5--5-2--0-------|
|------------------------------------5-4--|


                |----3-----|
   H            q     q    q         H..                      E
|---------------------------------|-------------------------------|
|---------------------------------|--------------------------13---|
|---------------------------------|-12----------------------------|
|-14-----------12----14---12------|-------------------------------|
|---------------------------------|-------------------------------|
|---------------------------------|-------------------------------|
|
|               |--3--|
|  H            E  E  E E     E      H..                      E
|---------------------------------|-------------------------------|
|---------------------------------|--------------------------13---|
|---------------------------------|-------------------------------|
|-14------------------------------|-14----------------------------|
|--------------12-14-12------10---|-------------------------------|
|---------------------------------|-------------------------------|
|
|  PM--------------------------------------------------------------
|  |-3-| |-3-|  |--3--| |---3---|    |--3--| |-3-| |-3-| |--3---|
|  E E E E E E  E  E  E E  E    E    E   E E E E E E E E E E    E
|---------------------------------|-------------------------------|
|---------------------------------|-------------------------------|
|---------------------------------|-------------------------------|
|---------------------------------|-------------------------------|
|---------------------------------|-------------------------------|
|--2-2-2-2-2-2--2--2--2-2--2----2-|--4---4-4-4-4-4-4-4-4-4-4----4-|


   |--3--|  |--3--|  |--3--|  |--3--|
   E  E  E  E  E  E  E  E  E  E  E  E
|-------15h19p15-19-20p19p15-17h19p15--|
|-15h17--------------------------------|
|--------------------------------------|
|--------------------------------------|
|--------------------------------------|
|--------------------------------------|
|
|  |--3--|  |--3--|  |--3--|  |--3--|
|  E  E  E  E  E  E  E  E  E  E  E  E
|-------15h19p15-19-20p19p15-17h19p15--|
|-15h17--------------------------------|
|--------------------------------------|
|--------------------------------------|
|--------------------------------------|
|--------------------------------------|
|
|----------------------------------|
|  |--3--|  |--3--|  |--3--|  |--3--|
|  E  E  E  E  E  E  E  E  E  E  E  E
|--------------------------------------|
|--------------------------------------|
|--------------------------------------|
|--------------------4--2--0-----------|
|-----------------------------0--------|
|--5--5--5--5--5--5--------------5--4--|


   |--3--|  |--3--|  |--3--|  |--3--|
   E  E  E  E  E  E  E  E  E  E  E  E
|-14h15p14----------------------------|
|----------15p13h15-13p12----15p12----|
|-------------------------12-------12-|
|-------------------------------------|
|-------------------------------------|
|-------------------------------------|
|
|  |--3--|  |--3--|  |--3--|  |--3--|
|  E  E  E  E  E  E  E  E  E  E  E  E
|-14h15p14-------------------14p10----|
|----------15p13h15-13p12----------12-|
|-------------------------12----------|
|-------------------------------------|
|-------------------------------------|
|-------------------------------------|
|
|  PM----------------------------------
|  |--3--|  |--3--|  |--3--|  |--3--|
|  E  E  E  E  E  E  E  E  E  E  E  E
|-------------------------------------|
|-------------------------------------|
|-------------------------------------|
|--2--0--------------4--2--0----------|
|--------3----------------------------|
|-----------5--4--2-----------4--2--0-|


   ~~~                           ~~
                       |3-|
   H.                  E  Q      W
|-----------------------------|---------------------------|
|-----------------------------|---------------------------|
|-11------------------11s12---|-11------------------------|
|-----------------------------|---------------------------|
|-----------------------------|---------------------------|
|-----------------------------|---------------------------|
|
|  ~~~                           ~~
|                      |3-|
|  H.                  E  Q      W
|-----------------------------|---------------------------|
|-10------------------10s12---|-10------------------------|
|-----------------------------|---------------------------|
|-----------------------------|---------------------------|
|-----------------------------|---------------------------|
|-----------------------------|---------------------------|
|
|-------|   PM  PM--|     PM     PM--|   PM  PM--|   PM
|  |-3--| |-3-| |-3-|  |-3--|    |-3-| |-3-| |-3-| |-3-|
|  E  E E E E E E E E  E  E E    E E E E E E E E E E E E
|-----------------------------|---------------------------|
|-----------------------------|--------------------0---1--|
|-----------------------------|--------4---2-------0---2--|
|---------2---0--------2----4-|--------5---4--------------|
|-----------------------------|---------------------------|
|--2--2-2---2---2-2-2-----2---|--2-2-2---2---2-2-2---2----|


                    |------3------|      |----3----|
   a  H            +Q     a  Q    Q      q    q    Q    H
|-------------------------------------|-----------------------------|
|------------------------12s13---12---|-10--------------------------|
|-11s12-----------(12)----------------|------12---11---12-----------|
|-------------------------------------|-----------------------------|
|-------------------------------------|-----------------------------|
|-------------------------------------|-----------------------------|
|
|                   |------3------|      |----3----|
|  a  H            +Q     a  Q    Q      q    q    Q    H
|--8s10-----------(10)---10s12---10---|-----------------------------|
|-------------------------------------|-13---12---10---12-----------|
|-------------------------------------|-----------------------------|
|-------------------------------------|-----------------------------|
|-------------------------------------|-----------------------------|
|-------------------------------------|-----------------------------|
|
|     PM--|   PM    PM------|     PM     PM--|     PM   PM--------|
|     |-3-| |-3-|   |---3----| |-3--|    |-3--| |-3--|  |-3-| |-3-|
|     E E E E E E   E  E     E E  E E    E E  E E  E E  E E E E E E
|-------------------------------------|-----------------------------|
|-------------------------------------|-----------------------------|
|-------------------------------------|---------4----5--------------|
|-----------5---4--------------5----4-|---------5----7--------------|
|-----3-3-3---3-----3--3-----3----3---|--5-5--5----5----5-5-2-0-----|
|-------------------------------------|-------------------------5-4-|


   |-3--| |3|  |--3--|  |-3--|  |--3--|  |3-|  |--3--|  |3-|
   S S  S S E  S  S  S  S S  S  S  S  S  S  E  S  S  S  S  E
|------------------------------------------------------------|
|------------------------------------------------------------|
|------------------------------------------------------------|
|------------------------------------------------------------|
|-10p9h10p9s7-12p10h12p10s9h10-14p12h14p12s10-15p14h15p14s12-|
|------------------------------------------------------------|
|
|  |-3--| |3|  |--3--|  |-3--|  |--3--|  |3-|  |--3--|  |3-|
|  S S  S S E  S  S  S  S S  S  S  S  S  S  E  S  S  S  S  E
|------------------------------------------------------------|
|------------------------------------------------------------|
|------------------------------------------------------------|
|------------------------------------------------------------|
|-10p9h10p9s7-12p10h12p10s9h10-14p12h14p12s10-15p14h15p14s12-|
|------------------------------------------------------------|
|
|  PM---------------------------------------------------------
|  |---3----|  |----3-----|     |-----3-----|  |-----3-----|
|  E    E   E  E     E    E     E     E     E  E     E     E
|------------------------------------------------------------|
|------------------------------------------------------------|
|------------------------------------------------------------|
|------------------------------------------------------------|
|------------------------------------------------------------|
|--2----2---2--2-----2----2-----2-----2-----2--2-----2-----2-|


   |--3--|  |3|  |--3--|  |3-|  |-3--| |3|  |--3--|  |3|
   S  S  S  S E  S  S  S  S  E  S S  S S E  S  S  S  S E
|----------------------------------------------------------|
|----------------------------------------------------------|
|------------------------------11p9h11p9s7-12p11h12p11s9---|
|-12p10h12p10s9-14p12h14p12s10-----------------------------|
|----------------------------------------------------------|
|----------------------------------------------------------|
|
|  |--3--|  |3|  |--3--|  |3-|  |-3--| |3|  |--3--|  |3|
|  S  S  S  S E  S  S  S  S  E  S S  S S E  S  S  S  S E
|----------------------------------------------------------|
|----------------------------------------------------------|
|------------------------------11p9h11p9s7-12p11h12p11s9---|
|-12p10h12p10s9-14p12h14p12s10-----------------------------|
|----------------------------------------------------------|
|----------------------------------------------------------|
|
|------------------------------------------------------|
|  |----3-----|  |-----3-----|  |---3----|  |----3-----|
|  E     E    E  E     E     E  E    E   E  E     E    E
|----------------------------------------------------------|
|----------------------------------------------------------|
|----------------------------------------------------------|
|----------------------------------------------------------|
|----------------------------------------------------------|
|--4-----4----4--4-----4-----4--4----4---4--4-----4----4---|


   |--3--|  |3-|  |--3--|  |3|  |--3--|  |3-|  |--3--|  |3-|
   S  S  S  S  E  S  S  S  S E  S  S  S  S  E  S  S  S  S  E
|------------------------------------------------------------|
|----------------12p10h12p10s8-13p12h13p12s10-15p13h15p13s12-|
|-14p12h14p12s11---------------------------------------------|
|------------------------------------------------------------|
|------------------------------------------------------------|
|------------------------------------------------------------|
|
|  |--3--|  |3-|  |--3--|  |3|  |--3--|  |3-|  |--3--|  |3-|
|  S  S  S  S  E  S  S  S  S E  S  S  S  S  E  S  S  S  S  E
|------------------------------------------------------------|
|----------------12p10h12p10s8-13p12h13p12s10-15p13h15p13s12-|
|-14p12h14p12s11---------------------------------------------|
|------------------------------------------------------------|
|------------------------------------------------------------|
|------------------------------------------------------------|
|
|  PM---------------------------------------------------------
|  |-----3-----|  |----3-----|  |-----3-----|  |-----3-----|
|  E     E     E  E     E    E  E     E     E  E     E     E
|------------------------------------------------------------|
|------------------------------------------------------------|
|------------------------------------------------------------|
|------------------------------------------------------------|
|------------------------------------------------------------|
|--5-----5-----5--5-----5----5--5-----5-----5--5-----5-----5-|


   |--3--|  |3-|  |--3--|       |--3--|  |3-|  |--3--|  |3-|
   S  S  S  S  E  S  S  S  E    S  S  S  S  E  S  S  S  S  E
|-15p14h15p14s12-20p19h20p17---19p17h19p17s15-17p15h17p15s14-|
|------------------------------------------------------------|
|------------------------------------------------------------|
|------------------------------------------------------------|
|------------------------------------------------------------|
|------------------------------------------------------------|
|
|  |--3--|  |3-|  |--3--|       |--3--|  |3-|  |--3--|  |3-|
|  S  S  S  S  E  S  S  S  E    S  S  S  S  E  S  S  S  S  E
|-15p14h15p14s12-20p19h20p17---19p17h19p17s15-17p15h17p15s14-|
|------------------------------------------------------------|
|------------------------------------------------------------|
|------------------------------------------------------------|
|------------------------------------------------------------|
|------------------------------------------------------------|
|
|---------------------------------------------------------|
|  |-----3-----|  |----3-----|  |-----3-----|  |-----3-----|
|  E     E     E  E     E    E  E     E     E  E     E     E
|------------------------------------------------------------|
|------------------------------------------------------------|
|------------------------------------------------------------|
|----------------------------------------------2-----4-----5-|
|--0-----2-----3--2-----3----5--2-----3-----5----------------|
|------------------------------------------------------------|


   |--3--|  |3-|  |--3--|  |3-|  |--3--|  |3-|  |--3--|  |3|
   S  S  S  S  E  S  S  S  S  E  S  S  S  S  E  S  S  S  S E
|-15p14h15p14s12---------------------------------------------|
|----------------15p13h15p13s12------------------------------|
|-------------------------------14p12h14p12s11-12p11h12p11s9-|
|------------------------------------------------------------|
|------------------------------------------------------------|
|------------------------------------------------------------|
|
|  |--3--|  |3-|  |--3--|  |3-|  |--3--|  |3-|  |--3--|  |3|
|  S  S  S  S  E  S  S  S  S  E  S  S  S  S  E  S  S  S  S E
|-15p14h15p14s12---------------------------------------------|
|----------------15p13h15p13s12------------------------------|
|-------------------------------14p12h14p12s11-12p11h12p11s9-|
|------------------------------------------------------------|
|------------------------------------------------------------|
|------------------------------------------------------------|
|
|  PM---------|         PM       PM---------|         PM
|  |-----3-----|  |-----3-----|  |-----3-----|  |----3-----|
|  E     E     E  E     E     E  E     E     E  E     E    E
|------------------------------------------------------------|
|------------------------------------------------------------|
|------------------------------------------------------------|
|-----------------2-----------0-----------------2----------4-|
|------------------------------------------------------------|
|--2-----2-----2--------2--------2-----2-----2--------2------|


   |-3--| |---3----| |3| |-3-| |3| |-3-|
   S S  S S S E.   S S E S S S S E S S S E
|--------------------------------------------|
|--------------------------------------------|
|-11p9h11p9s7h9----9p7s5h7p5h7p5s4-----------|
|----------------------------------5h7p5h7---|
|--------------------------------------------|
|--------------------------------------------|
|
|  |-3--| |---3----| |3| |-3-| |3| |-3-|
|  S S  S S S E.   S S E S S S S E S S S E
|--------------------------------------------|
|--------------------------------------------|
|-11p9h11p9s7h9----9p7s5h7p5h7p5s4-----------|
|----------------------------------5h7p5h7---|
|--------------------------------------------|
|--------------------------------------------|
|
|  PM-------|      PM    PM------|     PM
|  |---3----|    |--3--| |---3---| |---3---|
|  E    E   E    E E   E E   E   E E   E   E
|--------------------------------------------|
|----------------------------------0-------1-|
|----------------4-----2-----------0-------2-|
|----------------5-----4---------------------|
|--------------------------------------------|
|--2----2---2------2-----2---2---2-----2-----|


  ~
               |---3----|     |----3----|        |--3--|
  H           +Q    Q   Q     Q   q   E E Q     +Q     E
|---------------------------|-------------------------15-|
|---------------------------|----------------------------|
|-5-----------(5)---7---5---|-7---5---5p4-5-----(5)------|
|---------------------------|----------------------------|
|---------------------------|----------------------------|
|---------------------------|----------------------------|
|
| ~
|              |---3----|     |----3----|        |--3--|
| H           +Q    Q   Q     Q   q   E E Q     +Q     E
|---------------------------|-------------------------15-|
|---------------------------|----------------------------|
|---------------------------|----------------------------|
|-7-----------(7)---9---7---|-9---7---7p5-7-----(7)------|
|---------------------------|----------------------------|
|---------------------------|----------------------------|
|
| PM--|   PM   PM---|   PM    PM--|   PM  PM--------------
| |-3-| |-3-|  |-3--| |-3-|   |-3-| |-3-| |-3-|  |--3--|
| E E E E E E  E  E E E E E   E E E E E E E E E  E  E  E
|---------------------------|----------------------------|
|---------------------------|----------------------------|
|---------------------------|-------4---5----------------|
|-------5---4---------5---4-|-------5---7----------------|
|-3-3-3---3----3--3-3---3---|-5-5-5---5---5-5-2--0-------|
|---------------------------|-----------------------5--4-|


   |--3--|  |--3--|  |--3--|  |--3--|
   E  E  E  E  E  E  E  E  E  E  E  E
|-19p15----------------------15h18p15--|
|-------17----------------17-----------|
|----------16----------16--------------|
|-------------17p16-17-----------------|
|--------------------------------------|
|--------------------------------------|
|
|  |--3--|  |--3--|  |--3--|  |--3--|
|  E  E  E  E  E  E  E  E  E  E  E  E
|-19p15----------------------15h18p15--|
|-------17----------------17-----------|
|----------16----------16--------------|
|-------------17p16-17-----------------|
|--------------------------------------|
|--------------------------------------|
|
|----------------------------------|
|  |--3--|  |--3--|  |--3--|  |--3--|
|  E  E  E  E  E  E  E  E  E  E  E  E
|--------------------------------------|
|--------------------------------------|
|--------------------------------------|
|--------------------------------------|
|--------------------------------------|
|--2--2--2--2--2--2--2--2--2--2--2--2--|


   |--3--|  |--3--|  |--3--|  |--3--|    |--3--|  |--3--|  |--3--|  |--3--|
   E  E  E  E  E  E  E  E  E  E  E  E    E  E  E  E  E  E  E  E  E  E  E  E
|-17p14-------------------------14h17-|-15p12-------------------------12h15-|
|-------15-------------------15-------|-------13-------------------13-------|
|----------14-------------14----------|----------12-------------12----------|
|-------------16p14----14-------------|-------------14p12----12-------------|
|-------------------17----------------|-------------------15----------------|
|-------------------------------------|-------------------------------------|
|
|  |--3--|  |--3--|  |--3--|  |--3--|    |--3--|  |--3--|  |--3--|  |--3--|
|  E  E  E  E  E  E  E  E  E  E  E  E    E  E  E  E  E  E  E  E  E  E  E  E
|-17p14-------------------------14h17-|-15p12-------------------------12h15-|
|-------15-------------------15-------|-------13-------------------13-------|
|----------14-------------14----------|----------12-------------12----------|
|-------------16p14----14-------------|-------------14p12----12-------------|
|-------------------17----------------|-------------------15----------------|
|-------------------------------------|-------------------------------------|
|
|  PM------------------------------------------------------------------------
|  |--3--|  |--3--|  |--3--|  |--3--|    |--3--|  |--3--|  |--3--|  |--3--|
|  E  E  E  E  E  E  E  E  E  E  E  E    E  E  E  E  E  E  E  E  E  E  E  E
|-------------------------------------|-------------------------------------|
|-------------------------------------|-------------------------------------|
|-------------------------------------|-------------------------------------|
|-------------------------------------|--------------------4--2--0----------|
|-------------------------------------|-----------------------------0-------|
|--4--4--4--4--4--4--4--4--4--4--4--4-|--5--5--5--5--5--5--------------5--4-|


   |--3--|  |--3--|  |--3--|  |--3--|
   E  E  E  E  E  E  E  E  E  E  E  E
|-17-19-17-15--------------------------*|
|-------------17-15-17-19-17-15--------*|
|-------------------------------17-16--*|
|--------------------------------------*|
|--------------------------------------*|
|--------------------------------------*|
|
|  |--3--|  |--3--|  |--3--|  |--3--|
|  E  E  E  E  E  E  E  E  E  E  E  E
|-14-15-14-12--------------------------*|
|-------------13-12-13-15-13-12--------*|
|-------------------------------14-12--*|
|--------------------------------------*|
|--------------------------------------*|
|--------------------------------------*|
|
|----------------------------------|
|  |--3--|  |--3--|  |--3--|  |--3--|
|  E  E  E  E  E  E  E  E  E  E  E  E
|--------------------------------------*|
|--------------------------------------*|
|--------------------------------------*|
|--2--0--------------4--2--0-----------*|
|--------3-----------------------------*|
|-----------5--4--2-----------4--2--0--*|



Duration Legend
---------------
W - whole; H - half; Q - quarter; E - 8th; S - 16th; T - 32nd; X - 64th; a - acciaccatura
+ - note tied to previous; . - note dotted; .. - note double dotted
Uncapitalized letters represent notes that are staccato (1/2 duration)
Irregular groupings are notated above the duration line
Duration letters will always appear directly above the note/fret number it represents the
duration for.  Duration letters with no fret number below them represent rests.  Multi-
bar rests are notated in the form Wxn, where n is the number of bars to rest for.  Low
melody durations appear below the staff

Tablature Legend
----------------
 h   - hammer-on
 p   - pull-off
 b   - bend
 pb  - pre-bend
 r   - bend release (if no number after the r, then release immediately)
 /\  - slide into or out of (from/to "nowhere")
 s   - legato slide
 S   - shift slide
<n> - natural harmonic
[n]  - artificial harmonic
n(n) - tapped harmonic
 ~   - vibrato
 tr  - trill
 T   - tap
 TP  - trem. picking
 PM  - palm muting
\n/  - tremolo bar dip; n = amount to dip
 \n  - tremolo bar down
 n/  - tremolo bar up
/n\  - tremolo bar inverted dip
 =   - hold bend; also acts as connecting device for hammers/pulls
 <> - volume swell (louder/softer)
 x   - on rhythm slash represents muted slash
 o   - on rhythm slash represents single note slash

Misc Legend
-----------
 |  - bar
||  - double bar
||o - repeat start
o|| - repeat end
*|  - double bar (ending)
 :  - bar (freetime)
 $  - Segno
 &  - Coda
Tempo markers - <E/E./Q/Q./H/H.> = BPM(8/16=s8/s16), where s8 = swing 8ths, s16 = swing 16ths

comments
We did not receive enough feedback on this tab! Please rate:
print report bad tab
1 2 3 4 5
1 comment total.
0 reply
penguinkiller72 wrote on September 14 2009, 01:44 am

wow props, nicely done

I want to post or [tab]
guest
You may want to rate the tab now too:
select rating
Please do not post tabs as comments. Select "correction" instead!