Oops, an error
Loading. Please wait.

The Masterplan Tab

ver1
ver1

Whole song

Interactive

More versions @911Tabs.com
1,563 views 1 this week
no commentswrite comment
1 2 3 4 5
please rate
Autoscroll
+/-
esc
set tempo
stop
Contributor
Hey! There's an official Ultimate Guitar app which is ideal
for learning songs when you're away from computer. Get the app
WARNING: You are trying to view
                                    content from Ultimate-Guitar.com
                                    in an unauthorized application,
                                    which is prohibited.

                                    Please use an official Ultimate
                                    Guitar Tabs application for iPhone,
                                    iPad or Android to access legitimate
                                    chords, guitar, bass, and drum tabs
                                    from Ultimate-Guitar.com database.

                                    Type "ultimate guitar tabs" in Apple
                                    App Store's or Android Market's
                                    search to find the application.
#----------------------------------PLEASE NOTE---------------------------------#
#This file is the author's own work and represents their interpretation of the #
#song. You may only use this file for private study, scholarship, or research. #
#------------------------------------------------------------------------------#

THE MASTERPLAN
As recorded by Evergrey
(From the 2001 Album IN SEARCH OF TRUTH)

Transcribed by Nikki Engstrom
        

Words by Tom S. Englund Music by Evergrey
Arranged by Evergrey

Gtr I (E A D G B E) - 'Piano'
Gtr II (E A D G B E) - 'Distortion 1'
Gtr III (E A D G B E) - 'Distortion 2'
Gtr IV (E A D G B E) - 'Distortion 3'
Gtr V (E A D G B E) - 'Synth 1'
Gtr VI (E A D G B E) - 'Synth 2'

 Intro
  Q=85
  N.C.
 7/8
  Gtrs II, III
  H                  Q.             H                  Q          E
|---------------------------------|----------------------------------|
|---------------------------------|----------------------------------|
|---------------------------------|----------------------------------|
|---------------------------------|----------------------------------|
|---------------------------------|----------------------------------|
|---------------------------------|-------------------------------7\-|
|
| Gtr I
| S  S  S  S  S E S  S  S  S  S E   S  S  S  S  S E S  S  S  S  S E
|---------------------------------|----------------------------------|
|---------------------------------|----------------------------------|
|-4-(4)-4-(4)-0-2-2-(2)-4-(4)-0-2-|-2-(2)-4-(4)-0-2-4-(4)-4-(4)-0-2--|
|----2-----2----2----2-----2----2-|----2-----2----2----2-----2----2--|
|---------------------------------|----------------------------------|
|---------------------------------|----------------------------------|


  N.C.
  PM-------------------------------
  e   T T e   e   e   T T e   e
|---------------------------------|
|---------------------------------|
|---------------------------------|
|---------------------------------|
|---------------------------------|
|-0---0-0-0---0---0---0-0-0---0---|
|
| E   S   E   E   E   S   E   E
|---------------------------------|
|---------------------------------|
|-4---0---2---4---2---0---2---4---|
|---------------------------------|
|---------------------------------|
|---------------------------------|
|
| Gtr V
| S S S   S S S S S S S   S S S S
|-7---7---7---7---7---7---7---7---|
|---------------------------------|
|-4---4---4---4---4---4---4---4---|
|---------------------------------|
|---------------------------------|
|---------------------------------|


 ---------------------------------------------------------------|
  e   T T e   e   e   T T e   e     e   T T e   e   e   T T e   e
|---------------------------------|---------------------------------|
|---------------------------------|---------------------------------|
|---------------------------------|---------------------------------|
|---------------------------------|---------------------------------|
|---------------------------------|---------------------------------|
|-0---0-0-0---0---0---0-0-0---0---|-0---0-0-0---0---0---0-0-0---0---|
|
| E   S   E   E   E   S   E   E     E   S   E   E   E   S   E   E
|---------------------------------|---------------------------------|
|---------------------------------|---------------------------------|
|-2---0---2---2---4---0---2---4---|-2---0---2---4---2---0---2---4---|
|---------------------------------|---------------------------------|
|---------------------------------|---------------------------------|
|---------------------------------|---------------------------------|
|
| S S S   S S S S S S S   S S S S   S S S   S S S S S S S   S S S S
|-8---8---8---8---8---8---8---8---|-5---5---5---5---5---5---5---5---|
|---------------------------------|---------------------------------|
|-5---5---5---5---5---5---5---5---|-2---2---2---2---2---2---2---2---|
|---------------------------------|---------------------------------|
|---------------------------------|---------------------------------|
|---------------------------------|---------------------------------|


  N.C.
  PM-------------------------------
  e   T T e   e   e   T T e   e
|---------------------------------|
|---------------------------------|
|---------------------------------|
|---------------------------------|
|---------------------------------|
|-0---0-0-0---0---0---0-0-0---0---|
|
| E   S   E   E   E   S   E   E
|---------------------------------|
|---------------------------------|
|-2---0---2---2---2---0---2---4---|
|---------------------------------|
|---------------------------------|
|---------------------------------|
|
| S S S   S S S S S S S   S S S S
|-3---3---3---3---2---2---2---2---|
|---------------------------------|
|-0---0---0---0-------------------|
|-----------------4---4---4---4---|
|---------------------------------|
|---------------------------------|


 ---------------------------------------------------------------|
  e   T T e   e   e   T T e   e     e   T T e   e   e   T T e   e
|---------------------------------|---------------------------------|
|---------------------------------|---------------------------------|
|---------------------------------|---------------------------------|
|---------------------------------|---------------------------------|
|---------------------------------|---------------------------------|
|-0---0-0-0---0---0---0-0-0---0---|-0---0-0-0---0---0---0-0-0---0---|
|
| E   S   E   E   E   S   E   E     E   S   E   E   E   S   E   E
|---------------------------------|---------------------------------|
|---------------------------------|---------------------------------|
|-2---0---2---4---2---0---2---4---|-2---0---2---2---2---0---2---4---|
|---------------------------------|---------------------------------|
|---------------------------------|---------------------------------|
|---------------------------------|---------------------------------|
|
| S S S   S S S S S S S   S S S S   S S S   S S S S S S S   S S S S
|-7---7---7---7---7---7---7---7---|-8---8---8---8---8---8---8---8---|
|---------------------------------|---------------------------------|
|-4---4---4---4---4---4---4---4---|-5---5---5---5---5---5---5---5---|
|---------------------------------|---------------------------------|
|---------------------------------|---------------------------------|
|---------------------------------|---------------------------------|


  N.C.
  PM-------------------------------
  e   T T e   e   e   T T e   e
|---------------------------------|
|---------------------------------|
|---------------------------------|
|---------------------------------|
|---------------------------------|
|-0---0-0-0---0---0---0-0-0---0---|
|
| E   S   E   E   E   S   E   E
|---------------------------------|
|---------------------------------|
|-2---0---2---4---2---0---2---4---|
|---------------------------------|
|---------------------------------|
|---------------------------------|
|
| S S S   S S S S S S S   S S S S
|-5---5---5---5---5---5---5---5---|
|---------------------------------|
|-2---2---2---2---2---2---2---2---|
|---------------------------------|
|---------------------------------|
|---------------------------------|


                                    4/4
 -----------------------------|        PM|   PM|   PM|   PM|       ~~~
  e   T T e   e   e   T T e   e      S S S S S S S S S S S S  S E +S
|---------------------------------||----------------------------------|
|---------------------------------||----------------------------------|
|---------------------------------||----------------------------------|
|---------------------------------||----------------------------------|
|---------------------------------||-7-----7-----7-----7-----/7-5-(5)-|
|-0---0-0-0---0---0---0-0-0---0---||---0-0---0-0---0-0---0-0----------|
|
| E   S   E   E   E   S   E   E      W
|---------------------------------||----------------------------------|
|---------------------------------||----------------------------------|
|-2---0---2---2---2---0---2---4---||----------------------------------|
|---------------------------------||----------------------------------|
|---------------------------------||----------------------------------|
|---------------------------------||----------------------------------|
|
| S S S   S S S S S S S   S S S S    W
|-3---3---3---3---2---2---2---2---||----------------------------------|
|---------------------------------||----------------------------------|
|-0---0---0---0-------------------||----------------------------------|
|-----------------4---4---4---4---||----------------------------------|
|---------------------------------||----------------------------------|
|---------------------------------||----------------------------------|


  N.C.
  Gtr II
    PM|   PM|   PM|        ~~     PM|   PM|   PM|   PM|       ~~~
  S S S S S S S S S E. T T E.   S S S S S S S S S S S S  S E +S
|-----------------------------|----------------------------------|
|-----------------------------|----------------------------------|
|----------------------4h5p4--|----------------------------------|
|-----------------------------|----------------------------------|
|-3-----3-----3-----3---------|-7-----7-----7-----7-----/7-5-(5)-|
|---0-0---0-0---0-0-----------|---0-0---0-0---0-0---0-0----------|
|
| Gtr III
|   PM|   PM|   PM|        ~~     PM|   PM|   PM|   PM|       ~~~
| S S S S S S S S S E. T T E.   S S S S S S S S S S S S  S E +S
|----------------------7h8p7--|----------------------------------|
|-----------------------------|----------------------------------|
|-----------------------------|----------------------------------|
|-----------------------------|----------------------------------|
|-3-----3-----3-----3---------|-7-----7-----7-----7-----/7-5-(5)-|
|---0-0---0-0---0-0-----------|---0-0---0-0---0-0---0-0----------|


  N.C.        F5
    PM|   PM|
  S S S S S S E  T  T T T  T  T T T  T T  T T  T   +S.
|---------------12p10p8s7------------------------------|
|-------------------------10h12p8s7--------------------|
|-----------------------------------12p9---------------|
|----------------------------------------12p9----------|
|-3-----3-----3-------------------------------10--(10)-|
|---0-0---0-0------------------------------------------|
|
|   PM|   PM|
| S S S S S S H                               +E
|------------------------------------------------------|
|------------------------------------------------------|
|------------------------------------------------------|
|-------------5-------------------------------(5)------|
|-3-----3-----3-------------------------------(3)------|
|---0-0---0-0------------------------------------------|


  N.C.
    PM|   PM|   PM|   PM|       ~~~
  S S S S S S S S S S S S  S E +S
|------------------------------------|
|------------------------------------|
|------------------------------------|
|------------------------------------|
|-7-----7-----7-----7-----/7-5-(5)---|
|---0-0---0-0---0-0---0-0------------|
|
|   PM|   PM|   PM|   PM|       ~~~
| S S S S S S S S S S S S  S E +S
|------------------------------------|
|------------------------------------|
|------------------------------------|
|------------------------------------|
|-7-----7-----7-----7-----/7-5-(5)---|
|---0-0---0-0---0-0---0-0------------|


  N.C.
    PM|   PM|   PM|        ~~     PM|   PM|   PM|   PM|       ~~~
  S S S S S S S S S E. T T E.   S S S S S S S S S S S S  S E +S
|-----------------------------|----------------------------------|
|-----------------------------|----------------------------------|
|----------------------4h5p4--|----------------------------------|
|-----------------------------|----------------------------------|
|-3-----3-----3-----3---------|-7-----7-----7-----7-----/7-5-(5)-|
|---0-0---0-0---0-0-----------|---0-0---0-0---0-0---0-0----------|
|
|   PM|   PM|   PM|        ~~     PM|   PM|   PM|   PM|       ~~~
| S S S S S S S S S E. T T E.   S S S S S S S S S S S S  S E +S
|----------------------7h8p7--|----------------------------------|
|-----------------------------|----------------------------------|
|-----------------------------|----------------------------------|
|-----------------------------|----------------------------------|
|-3-----3-----3-----3---------|-7-----7-----7-----7-----/7-5-(5)-|
|---0-0---0-0---0-0-----------|---0-0---0-0---0-0---0-0----------|


  N.C.        F5
    PM|   PM|    T          T
  S S S S S S E  T T  T  T  T  T  T T T  T  T T  T   T T T
|---------------15p8h10h12h15p12p10p8p7h10-----------------|
|------------------------------------------10p8h12p=10p8p7-|
|----------------------------------------------------------|
|----------------------------------------------------------|
|-3-----3-----3--------------------------------------------|
|---0-0---0-0----------------------------------------------|
|
|   PM|   PM|
| S S S S S S H                                 +E
|----------------------------------------------------------|
|----------------------------------------------------------|
|----------------------------------------------------------|
|-------------5---------------------------------(5)--------|
|-3-----3-----3---------------------------------(3)--------|
|---0-0---0-0----------------------------------------------|


   Verse
                                      1.,2.,3.
    E5                                              F5          Asus4
    Gtr II
    PM----------------------------------|
    S S Q       S S H                 S S Q       S S +Q        Q        3x
||----------------------------------|------------------------------------||
||o---------------------------------|-----------------------------------o||
||----------------------------------|---------------------------7--------||
||----------------------------------|-------------2-3-(3)-------7--------||
||o-2-2-----------2-----------------|-2-2---------2-3-(3)-------5-------o||
||--0-0-----------0-----------------|-0-0---------0-1-(1)-------5--------||
|
|   Gtr III
|   PM----------------------------------|
|   S S Q       S S H                 S S Q       S S +Q        Q        3x
||----------------------------------|------------------------------------||
||o---------------------------------|-----------------------------------o||
||----------------------------------|---------------------------7--------||
||----------------------------------|-------------2-3-(3)-------7--------||
||o-2-2-----------2-----------------|-2-2---------2-3-(3)-------5-------o||
||--0-0-----------0-----------------|-0-0---------0-1-(1)-------5--------||
|
|   Gtr V
|   S S S S S S S S S S S S S S S S   S S S S S S S S  S  S S S S S S S  3x
||--7---7---7---7---7---7---7---7---|-8---8---8---8----5----5---5---5----||
||o---------------------------------|-----------------------------------o||
||--4---4---4---4---4---4---4---4---|-5---5---5---5----2----2---2---2----||
||----------------------------------|------------------------------------||
||o---------------------------------|-----------------------------------o||
||----------------------------------|------------------------------------||


  4.
  E5            F5          N.(E)
  PM|                       PM------------|
                            |--3--| |--3--|
  S S Q       S S +Q        S S   S S S   S
|----------------------------------------------|
|----------------------------------------------|
|-----------------------------------2-4---5----|
|-------------2-3-(3)-------2-4---5------------|
|-2-2---------2-3-(3)--------------------------|
|-0-0---------0-1-(1)--------------------------|
|
| PM|
| S S Q       S S +H
|----------------------------------------------|
|----------------------------------------------|
|----------------------------------------------|
|-------------2-3-(3)--------------------------|
|-2-2---------2-3-(3)--------------------------|
|-0-0---------0-1-(1)--------------------------|
|
| S S S S S S S S  S  S S S S   S   S   S
|-8---8---8---8----5----5---5-------5----------|
|----------------------------------------------|
|-5---5---5---5----2----2---2-------2----------|
|----------------------------------------------|
|----------------------------------------------|
|----------------------------------------------|


 Chorus
  H=85
  $
  $$
  E5         N.C.                   N.C. (G)
  Gtrs II, III
  W          H    H      W          H    H
|----------|-----------|----------|-----------|
|----------|-----------|----------|-----------|
|----------|-----------|----------|-----------|
|-2--------|-4----5----|----------|-----------|
|-2--------|-----------|-3--------|-3----3----|
|-0--------|-----------|----------|-2----3----|
|
| Gtr V
| W          H    H      W          H    H
|-3--------|-5----7----|-3--------|-2----3----|
|----------|-----------|----------|-----------|
|-0--------|-2----4----|-0--------|------0----|
|----------|-----------|----------|-4---------|
|----------|-----------|----------|-----------|
|----------|-----------|----------|-----------|


                                          To Dbl. Coda
  E5         N.C.
  W          H    H       H       +Q   +Q     H     H
|----------|-----------|--------------------|------------|
|----------|-----------|--------------------|------------|
|----------|-----------|--------------------|------------|
|-2--------|-4----5----|--5b7=====(5)--(5)r=|=5-----4----|
|-2--------|-----------|--------------------|------------|
|-0--------|-----------|--------------------|------------|
|
| W          H    H       W                   H     H
|-7--------|-5----7----|--8-----------------|-7----10----|
|-8--------|-7----8----|-10-----------------|-8----12----|
|----------|-----------|--------------------|------------|
|----------|-----------|--------------------|------------|
|----------|-----------|--------------------|------------|
|----------|-----------|--------------------|------------|


  E5         N.C.                   N.C(G)
                                       PM--|    PM--|
                                       |-3-|    |-3-|
  W          H    H      W          Q  E E E Q  E E E
|----------|-----------|----------|---------------------|
|----------|-----------|----------|---------------------|
|----------|-----------|----------|---------------------|
|-2--------|-4----5----|----------|---------------------|
|-2--------|-----------|-3--------|-3--------3----------|
|-0--------|-----------|----------|-2--2-2-2-3--3-3-3---|
|
| W          H    H      W          H        H
|-3--------|-5----7----|-3--------|-2--------3----------|
|----------|-----------|----------|---------------------|
|-0--------|-2----4----|-0--------|----------0----------|
|----------|-----------|----------|-4-------------------|
|----------|-----------|----------|---------------------|
|----------|-----------|----------|---------------------|


                                                                 To Coda
  E5                  N.C.
     PM--|    PM--|                   PM--|    PM--|      PM--|     PM--|
     |-3-|    |-3-|                   |-3-|    |-3-|      |-3-|     |-3-|
  Q  E E E Q  E E E   H    H       Q  E E E Q  E E E   Q  E E E  Q  E E E
|-------------------|-----------|--------------------|--------------------|
|-------------------|-----------|--------------------|--------------------|
|-------------------|-----------|--------------------|--------------------|
|-2--------2--------|-4----5----|--7-----------------|-5---------4--------|
|-2--------2--------|-----------|-----0-0-0-0--0-0-0-|--------------------|
|-0--0-0-0-0--0-0-0-|-----------|--------------------|----3-3-3-----2-2-2-|
|
| W                   H    H       W                   H         H
|-7-----------------|-5----7----|--8-----------------|-7--------10--------|
|-8-----------------|-7----8----|-10-----------------|-8--------12--------|
|-------------------|-----------|--------------------|--------------------|
|-------------------|-----------|--------------------|--------------------|
|-------------------|-----------|--------------------|--------------------|
|-------------------|-----------|--------------------|--------------------|


 Pre-Verse
  Q=84
  N.C.
 7/8
  PM-----------------------------------------------------------------
  e   T T e   e   e   T T e   e     e   T T e   e   e   T T e   e
|---------------------------------|---------------------------------|
|---------------------------------|---------------------------------|
|---------------------------------|---------------------------------|
|---------------------------------|---------------------------------|
|---------------------------------|---------------------------------|
|-0---0-0-0---0---0---0-0-0---0---|-0---0-0-0---0---0---0-0-0---0---|
|
| Gtr I
| E   S   E   E   E   S   E   E     E   S   E   E   E   S   E   E
|---------------------------------|---------------------------------|
|---------------------------------|---------------------------------|
|-2---0---2---4---2---0---2---4---|-2---0---2---2---2---0---2---4---|
|---------------------------------|---------------------------------|
|---------------------------------|---------------------------------|
|---------------------------------|---------------------------------|
|
| Gtr V
| S S S   S S S S S S S   S S S S   S S S   S S S S S S S   S S S S
|-5---3---5---7---5---3---5---7---|-5---3---5---5---7---3---5---7---|
|---------------------------------|---------------------------------|
|-2---0---2---4---2---0---2---4---|-2---0---2---2---4---0---2---4---|
|---------------------------------|---------------------------------|
|---------------------------------|---------------------------------|
|---------------------------------|---------------------------------|


 -----------------------------|
  e   T T e   e   e   T T e   e
|-----------------------------------|
|-----------------------------------|
|-----------------------------------|
|-----------------------------------|
|-----------------------------------|
|-0---0-0-0---0---0---0-0-0---0-----|
|
| E   S   E   E   E   S   E   E
|-----------------------------------|
|-----------------------------------|
|-2---0---2---4---2---0---2---4-----|
|-----------------------------------|
|-----------------------------------|
|-----------------------------------|
|
| S S S   S S S S S S S   S S S S
|-5---3---5---7---5---3---5---7-----|
|-----------------------------------|
|-2---0---2---4---2---0---2---4-----|
|-----------------------------------|
|-----------------------------------|
|-----------------------------------|


  N.C.
  PM-------------------------------
  e   T T e   e   e   T T e   e
|---------------------------------|
|---------------------------------|
|---------------------------------|
|---------------------------------|
|---------------------------------|
|-0---0-0-0---0---0---0-0-0---0---|
|
| E   S   E   E   E   S   E   E
|---------------------------------|
|---------------------------------|
|-2---0---2---2---2---0---2---4---|
|---------------------------------|
|---------------------------------|
|---------------------------------|
|
| S S S   S S S S S S S   S S S S
|-5---3---5---5---7---3---5---7---|
|---------------------------------|
|-2---0---2---2---4---0---2---4---|
|---------------------------------|
|---------------------------------|
|---------------------------------|


 -------------------------------------------------------|
  e   S S S e   e   S S S e     e   S S S e   e   S S S e
|-----------------------------|------------------------------|
|-----------------------------|------------------------------|
|-----------------------------|------------------------------|
|-----------------------------|------------------------------|
|-----------------------------|------------------------------|
|-0---0-0---0---0---0-0---0---|-0---0-0---0---0---0-0---0----|
|
| E   S E   E   E   S E   E     E   S E   E   E   S E   E
|-----------------------------|------------------------------|
|-----------------------------|------------------------------|
|-2---0-2---4---2---0-2---4---|-2---0-2---2---2---0-2---4----|
|-----------------------------|------------------------------|
|-----------------------------|------------------------------|
|-----------------------------|------------------------------|
|
| S S S S S S S S S S S S S S   S S S S S S S S S S S S S S
|-5---3-5---7---5---3-5---7---|-5---3-5---5---7---3-5---7----|
|-----------------------------|------------------------------|
|-2---0-2---4---2---0-2---4---|-2---0-2---2---4---0-2---4----|
|-----------------------------|------------------------------|
|-----------------------------|------------------------------|
|-----------------------------|------------------------------|


  N.C.
  PM----------------------------------------------------|
  e   S S S e   e   S S S e     e   S S S e   e   S S S e
|-----------------------------|-----------------------------|
|-----------------------------|-----------------------------|
|-----------------------------|-----------------------------|
|-----------------------------|-----------------------------|
|-----------------------------|-----------------------------|
|-0---0-0---0---0---0-0---0---|-0---0-0---0---0---0-0---0---|
|
| E   S E   E   E   S E   E     E   S E   E   E   S E   E
|-----------------------------|-----------------------------|
|-----------------------------|-----------------------------|
|-2---0-2---4---2---0-2---4---|-2---0-2---2---2---0-2---4---|
|-----------------------------|-----------------------------|
|-----------------------------|-----------------------------|
|-----------------------------|-----------------------------|
|
| S S S S S S S S S S S S S S   S S S S S S S S S S S S S S
|-5---3-5---7---5---3-5---7---|-5---3-5---5---7---3-5---7---|
|-----------------------------|-----------------------------|
|-2---0-2---4---2---0-2---4---|-2---0-2---2---4---0-2---4---|
|-----------------------------|-----------------------------|
|-----------------------------|-----------------------------|
|-----------------------------|-----------------------------|


 Verse
  E5                                              F5          Asus4
 4/4
  PM------------------------------------|
  S S Q       S S H                 S S Q       S S +Q        Q
|---------------------------------|-----------------------------------|
|---------------------------------|-----------------------------------|
|---------------------------------|---------------------------7-------|
|---------------------------------|-------------2-3-(3)-------7-------|
|-2-2-----------2-----------------|-2-2---------2-3-(3)-------5-------|
|-0-0-----------0-----------------|-0-0---------0-1-(1)-------5-------|
|
| Gtr V
| S S S S S S S S S S S S S S S S   S S S S S S S S  S  S S S S S S S
|-7---7---7---7---7---7---7---7---|-8---8---8---8----5----5---5---5---|
|---------------------------------|-----------------------------------|
|-4---4---4---4---4---4---4---4---|-5---5---5---5----2----2---2---2---|
|---------------------------------|-----------------------------------|
|---------------------------------|-----------------------------------|
|---------------------------------|-----------------------------------|


  E5                                              F5
  PM----------------------------------|
  S S Q       S S H                 S S Q       S S +H
|---------------------------------|-------------------------------------|
|---------------------------------|-------------------------------------|
|---------------------------------|-------------------------------------|
|---------------------------------|-------------2-3-(3)-----------------|
|-2-2-----------2-----------------|-2-2---------2-3-(3)-----------------|
|-0-0-----------0-----------------|-0-0---------0-1-(1)-----------------|
|
| S S S S S S S S S S S S S S S S   S S S S S S S S  S  S S S S S S S
|-7---7---7---7---7---7---7---7---|-8---8---8---8----5----5---5---5-----|
|---------------------------------|-------------------------------------|
|-4---4---4---4---4---4---4---4---|-5---5---5---5----2----2---2---2-----|
|---------------------------------|-------------------------------------|
|---------------------------------|-------------------------------------|
|---------------------------------|-------------------------------------|


  N.C.(B)
  Gtr II
                ~~             ~~
    S  S  S  S  E  S  S  S  S  E  S  S  S  S
|--------------------------------------------|
|--------------------------------------------|
|-/12-11--9-----9-12-11--9-----9-12-11--9----|
|-----------12-------------12-------------12-|
|--------------------------------------------|
|--------------------------------------------|
|
| Gtr III
|               ~~             ~~
|   S  S  S  S  E  S  S  S  S  E  S  S  S  S
|--------------------------------------------|
|-/12-10----------12-10----------12-10-------|
|--------12-11-12-------12-11-12-------12-11-|
|--------------------------------------------|
|--------------------------------------------|
|--------------------------------------------|
|
| Gtr V
|   H                    Q        Q
|--------------------------------------------|
|--------------------------------------------|
|---9-------------------12-------11----------|
|--------------------------------------------|
|---7-------------------10--------9----------|
|--------------------------------------------|


                ~~             ~~~
    S  S  S  S  E  S  S  S  S  Q.
|-----------------------------------|
|-----------------------------------|
|-/12-11--9-----9-12-11--9----------|
|-----------12-------------12-14----|
|-----------------------------------|
|-----------------------------------|
|
|               ~~             ~~~
|   S  S  S  S  E  S  S  S  S  Q.
|-----------------------------------|
|-/12-10----------12-10-------------|
|--------12-11-12-------12-11-12----|
|-----------------------------------|
|-----------------------------------|
|-----------------------------------|
|
|   H                    H
|-----------------------------------|
|-----------------------------------|
|---5--------------------7----------|
|-----------------------------------|
|---3--------------------5----------|
|-----------------------------------|


  N.C.(B)
                ~~             ~~
    S  S  S  S  E  S  S  S  S  E  S  S  S  S
|--------------------------------------------|
|--------------------------------------------|
|-/12-11--9-----9-12-11--9-----9-12-11--9----|
|-----------12-------------12-------------12-|
|--------------------------------------------|
|--------------------------------------------|
|
|               ~~             ~~
|   S  S  S  S  E  S  S  S  S  E  S  S  S  S
|--------------------------------------------|
|-/12-10----------12-10----------12-10-------|
|--------12-11-12-------12-11-12-------12-11-|
|--------------------------------------------|
|--------------------------------------------|
|--------------------------------------------|
|
|   H                    Q        Q
|--------------------------------------------|
|--------------------------------------------|
|---9-------------------12-------11----------|
|--------------------------------------------|
|---7-------------------10--------9----------|
|--------------------------------------------|


                                  D.S. al Coda
                                  N.(E)
                ~~             ~~~
    S  S  S  S  E  S  S  S  S  Q.
|-----------------------------------------------|
|-----------------------------------------------|
|-/12-11--9-----9-12-11--9----------------------|
|-----------12-------------12-14----------------|
|-----------------------------------------------|
|-----------------------------------------------|
|
|               ~~             ~~~
|   S  S  S  S  E  S  S  S  S  Q.
|-----------------------------------------------|
|-/12-10----------12-10-------------------------|
|--------12-11-12-------12-11-12----------------|
|-----------------------------------------------|
|-----------------------------------------------|
|-----------------------------------------------|
|
|                                 Gtr IV
|                                 PM--------|
|                                 |-3-| |-3-|
|   H                    Q        S S S S S S
|-----------------------------------------------|
|-----------------------------------------------|
|---5-----------------------------------2-4-5---|
|---------------------------------2-4-5---------|
|---3-------------------------------------------|
|-----------------------------------------------|


 Interlude
  Q=135
  &
  N.(E)
 3/4
  Gtr V
  S S S S S S S S S S S S   S S S S S S S S S S S S
|-------------------------|-------------------------|
|-------------------------|-------------------------|
|-------------------------|-------------------------|
|-------------------------|-------------------------|
|-0-------0-------0---1---|-0-------0-------0---4---|
|---1-2-1---1-2-1---1---1-|---1-2-1---1-2-1---1---1-|


  S S S S S S S S S S S S
|---------------------------|
|---------------------------|
|---------------------------|
|---------------------------|
|-3-------0-------0---1-----|
|---1-2-1---1-2-1---1---1---|


  Q=118
  N.(E)
 13/16
  Gtrs II, III
  H               E   E.
|----------------------------|
|----------------------------|
|----------------------------|
|----------------------------|
|----------------------------|
|---------------------7\-----|
|
| Gtr V
| S S S S S S S S S S S  S S
|----------------------------|
|----------------------------|
|----------------------------|
|---------------------4----3-|
|-0-------4---3--------------|
|---1-2-1---1---1-2-1----1---|


    H=85
    N.(F)
   4/4
    PM----------------------------------------|   PM
    |-3-| |-3-| |-3-| |-3-|   |-3-| |-3-| |-3-| |-3-|
    E E E E E E E E E E E E   E E E E E E E E E E E E
||--------------------------|---------------------------|
||o-------------------------|---------------------------|
||--------------------------|---------------------------|
||--------------------------|---------------------------|
||o-------------------------|-------------------4---3---|
||--1-1-1-2-1-1-1-1-1-2-1-2-|-1-1-1-2-1-1-1-1-1---1-----|
|
|   |-3-| |-3-| |-3-| |-3-|   |-3-| |-3-| |-3-| |-3-|
|   E E E E E E E E E E E E   E E E E E E E E E E E E
||--------------------------|---------------------------|
||o-------------------------|---------------------------|
||--------------------------|---------------------------|
||--------------------------|---------------------------|
||o-------------------------|-------------------4---3---|
||--1-1-1-2-1-1-1-1-1-2-1-2-|-1-1-1-2-1-1-1-1-1---1-----|


  N.(F)
  PM----------------------------|   PM  PM--|   PM
  |-3-| |-3-| |-3-| |-3-|   |-3-| |-3-| |-3-| |-3-|
  E E E E E E E E E E E E   E E E E E E E E E E E E
|-------------------------|--------------------------||
|-------------------------|-------------------------o||
|-------------------------|--------------------------||
|-------------------------|-------------------4---3--||
|-------------------------|-------4---3-------------o||
|-1-1-1-2-1-1-1-1-1-2-1-2-|-1-1-1---1---1-1-1---1----||
|
| |-3-| |-3-| |-3-| |-3-|   |-3-| |-3-| |-3-| |-3-|
| E E E E E E E E E E E E   E E E E E E E E E E E E
|-------------------------|--------------------------||
|-------------------------|-------------------------o||
|-------------------------|--------------------------||
|-------------------------|-------------------4---3--||
|-------------------------|-------4---3-------------o||
|-1-1-1-2-1-1-1-1-1-2-1-2-|-1-1-1---1---1-1-1---1----||


  N.(Bb)
  |-3-| |-3-| |-3-| |-3-|
  E E E E E E E E E E E E
|--------------------------|
|--------------------------|
|-------------2-5-3--------|
|-------1-4-3-------1-4-3--|
|-1-4-3--------------------|
|--------------------------|
|
| |-3-| |-3-| |-3-| |-3-|
| E E E E E E E E E E E E
|--------------------------|
|--------------------------|
|-------------2-5-3--------|
|-------1-4-3-------1-4-3--|
|-1-4-3--------------------|
|--------------------------|


 Guitar Solo I
  N.(F#)
  Gtr II
                              ~~~
  H            H             +H.                 +E    S   S
|--------------------------|---------------------------------|
|--------------------------|---------------------------------|
|-------------/6-----------|-(6)-----------------(6)---8p==6-|
|--------------------------|---------------------------------|
|--------------------------|---------------------------------|
|--------------------------|---------------------------------|
|
| Gtr III
| PM----------------------------------------------------------
| |-3-| |-3-|  |-3-| |-3-|    |-3--| |-3-| |-3-|  |--3---|
| E E E E E E  E E E E E E    E  E E E E E E E E  E  E   E
|--------------------------|---------------------------------|
|--------------------------|---------------------------------|
|--------------------------|---------------------------------|
|--------------------------|---------------------------------|
|--------------------------|---------------------------------|
|-2-2-2-2-2-2--2-2-2-2-2-2-|--2--2-2-2-2-2-2-2-2--2--2---2---|


  N.(E#)
  H           +E    +E       +S  +E.
|-------------------------------------------|
|-------------------------------------------|
|-8-----------(8)---(8)b10r==(8)-(8)b10r====|
|-------------------------------------------|
|-------------------------------------------|
|-------------------------------------------|
|
|-----------------------------------------|
| |-3-| |-3-|  |-----3-----|  |-----3-----|
| E E E E E E  E  E        E  E         E E
|-------------------------------------------|
|-------------------------------------------|
|-------------------------------------------|
|-------------------------------------------|
|-------------------------------------------|
|-1-1-1-1-1-1--1--1--------1--1---------1-1-|


  N.C.(E#)
  +E    +S       +E    +S       +S    S Q      Q
|----------------------------------------------------|
|----------------------------------------------------|
|-(8)---(8)b10r==(8)---(8)b10r==(8)p==6-3\-----------|
|----------------------------------------------------|
|----------------------------------------------------|
|----------------------------------------------------|
|
|  PM-------------------------------------------------
|  |-----3-----|     |------3-------|   |-3--| |-3-|
|  E  E        E     E        E     E   E  E E E E E
|----------------------------------------------------|
|----------------------------------------------------|
|----------------------------------------------------|
|----------------------------------------------------|
|----------------------------------------------------|
|--1--1--------1-----1--------1-----1---1--1-1-1-1-1-|


  N.C.(F#)
  S S   S   S S S   S   S S S   S   S T.T.  S.   S
|---------------------------------------------------|
|---------------------------------------------------|
|---------------------------------------------------|
|-----------4h6h8---6p==4p3----------------------4h=|
|-4h6h==8-------------------8p==6p==4-4h6h==8-------|
|---------------------------------------------------|
|
|----------------------------------------------|
| |---3---|   |---3---|   |---3---|   |---3----|
| E   E   E   E   E   E   E   E   E   E   E    E
|---------------------------------------------------|
|---------------------------------------------------|
|---------------------------------------------------|
|---------------------------------------------------|
|---------------------------------------------------|
|-2---2---2---2---2---2---2---2---2---2---2----2----|


  N.C.(F#)
              |-3-| |-3-|             |-3-|
  S S   S   S S S S S S S S S   S   S E E E
|-------------------------------------------|
|-------------------------------------------|
|-------5h==6h8p6p5-------------------5h6h8-|
|-6h8---------------8p6p4p3h4---4h==6-------|
|-------------------------------------------|
|-------------------------------------------|
|
| Gtr III
| W
|-------------------------------------------|
|-------------------------------------------|
|-------------------------------------------|
|-------------------------------------------|
|-------------------------------------------|
|-------------------------------------------|
|
| Gtr IV
| PM-----------------------------------------
| |---3---|   |---3---|   |---3---|   |-3-|
| E   E   E   E   E   E   E   E   E   E E E
|-------------------------------------------|
|-------------------------------------------|
|-------------------------------------------|
|-------------------------------------------|
|-------------------------------------------|
|-2---2---2---2---2---2---2---2---2---2-2-2-|


  N.C(E#)
  ~~                         ~~~~~~~~~~~~~~
                     |-3-|
  H.                 Q   E   H           H
|--------------------------|--------------------------|
|-9------------------7---6-|--------------------------|
|--------------------------|-8-----------6------------|
|--------------------------|--------------------------|
|--------------------------|--------------------------|
|--------------------------|--------------------------|
|
| ~~                         ~~~~~~~~~~~~~~
|                    |-3-|
| H.                 Q   E   H           H
|--------------------------|--------------------------|
|-6------------------4---2-|-1------------------------|
|--------------------------|-------------3------------|
|--------------------------|--------------------------|
|--------------------------|--------------------------|
|--------------------------|--------------------------|
|
|--------------------------------------------------|
| |-3--| |-3-| |-3-| |-3-|   |-3-| |-3-| |-3-| |-3-|
| E  E E E E E E E E E E E   E E E E E E E E E E E E
|--------------------------|--------------------------|
|--------------------------|--------------------------|
|--------------------------|--------------------------|
|--------------------------|--------------------------|
|--------------------------|--------------------------|
|-1--1-1-1-1-1-1-1-1-1-1-1-|-1-1-1-1-1-1-1-1-1-1-1-1--|


 Guitar Solo II
  N.C(E#)
   |--3--|  |--3--|  |--3--|  |--3--|
   E  E  E  E  E  E  E  E  E  E  E  E
|----------13-14-16-13-14----13-------|
|----13-14----------------16----14-16-|
|-15----------------------------------|
|-------------------------------------|
|-------------------------------------|
|-------------------------------------|
|
|  PM----------------------------------
|  |--3--|  |--3--|  |--3--|  |--3--|
|  E  E  E  E  E  E  E  E  E  E  E  E
|-------------------------------------|
|-------------------------------------|
|-------------------------------------|
|-------------------------------------|
|-------------------------------------|
|--2--2--2--2--2--2--2--2--2--2--2--2-|


                                   N.C.  (F)
                     ~~
   |--3--|  |--3--|                                        |---3---|
   E  E  E  E  E  E  H              H.                    +E   +E  E
|--------------------------------|-11b13r================(11)-(11)p9--|
|-13-14----14-13-----------------|------------------------------------|
|-------15-------13-15-----------|------------------------------------|
|--------------------------------|------------------------------------|
|--------------------------------|------------------------------------|
|--------------------------------|------------------------------------|
|
|------------------------------------------------------------------|
|  |--3--|  |--3--|  |-3-| |-3-|    |--3---| |-3-| |-3-|   |---3---|
|  E  E  E  E  E  E  E E E E E E    E    E E E E E E E E   E    E  E
|--------------------------------|------------------------------------|
|--------------------------------|------------------------------------|
|--------------------------------|------------------------------------|
|--------------------------------|------------------------------------|
|--------------------------------|------------------------------------|
|--2--2--2--2--2--2--2-2-2-2-2-2-|--1----1-1-1-1-1-1-1-1---1----1--1--|


  N.C(F)
     ~~~~~~~~
   |3|                  |--3--|
   E Q   +H             E  E  E
|-11-9---(9)--------------------|
|----------------------11-14-11-|
|-------------------------------|
|-------------------------------|
|-------------------------------|
|-------------------------------|
|
|  PM----------------------------
|  |-3-|  |-3--| |-3-|  |--3--|
|  E E E  E  E E E E E  E  E  E
|-------------------------------|
|-------------------------------|
|-------------------------------|
|-------------------------------|
|-------------------------------|
|--1-1-1--1--1-1-1-1-1--1--1--1-|


  N.C(E#)
                                              ~
   |-3--| |-3-| |-3--|  |-3--|    |-3-| |-3-|
   E E  E E E E E  E E  E  E E    E E E E E E H
|-13-9-----------------13----9-|-11-9-8-9p8----------------|
|------11-----------------11---|------------9--------------|
|------------------------------|--------------6------------|
|---------------8h11-----------|---------------------------|
|------------------------------|---------------------------|
|---------6-9-6----------------|---------------------------|
|
|-------------------------------------------------------|
|  |-3--| |-3-| |-3--|  |-3--|    |-3-| |-3-| |-3-| |-3-|
|  E E  E E E E E  E E  E  E E    E E E E E E E E E E E E
|------------------------------|---------------------------|
|------------------------------|---------------------------|
|------------------------------|---------------------------|
|------------------------------|---------------------------|
|------------------------------|---------------------------|
|--2-2--2-2-2-2-2--2-2--2--2-2-|--2-2-2-2-2-2-2-2-2-2-2-2--|


  N.C(A#)                          N.(G#)
  ~~                                      ~~~
                      |---3----|   |3|
  H.                 +E    +E  E   E Q   +H            +Q
|--------------------------------|------------------------------|
|--------------------------------|------------------------------|
|-8------------------(8)b9r(8)p6-|-8-6---(6)-----------(6)\-----|
|--------------------------------|------------------------------|
|--------------------------------|------------------------------|
|--------------------------------|------------------------------|
|
| ~~                                      ~~~
|                     |---3----|   |3|
| H.                 +E    +E  E   E Q   +H            +Q
|--------------------------------|------------------------------|
|-7------------------(7)b8r(7)p6-|-7-6---(6)-----------(6)\-----|
|--------------------------------|------------------------------|
|--------------------------------|------------------------------|
|--------------------------------|------------------------------|
|--------------------------------|------------------------------|
|
| Gtr IV
| PM----------------------------------------------------------|
| |-3--| |-3-| |-3-|  |---3----|   |-3-|  |-3--| |-3-|  |--3--|
| E  E E E E E E E E  E     E  E   E E E  E  E E E E E  E   E E
|--------------------------------|------------------------------|
|--------------------------------|------------------------------|
|--------------------------------|------------------------------|
|--------------------------------|------------------------------|
|--------------------------------|------------------------------|
|-6--6-6-6-6-6-6-6-6--6-----6--6-|-4-4-4--4--4-4-4-4-4--4---4-4-|


 Break
  Q.=85
  F5
 3/4
  PM-------------------------------------------------
  S S S H               S   S S S S H
|-------------------------|-------------------------|
|-------------------------|-------------------------|
|-------------------------|-------------------------|
|-------------------------|-------------------------|
|-3---3-----------------3-|---3---3-----------------|
|-1---1-----------------1-|---1---1-----------------|
|
| Gtr V
| S S S S S S S S S S S S   S S S S S S S S S S S S
|-------------------------|-------------------------|
|-------------------------|-------------------------|
|-------------------------|-------------------------|
|-------------------------|-------------------------|
|-0-------0-------0---1---|-0-------0-------0---4---|
|---1-2-1---1-2-1---1---1-|---1-2-1---1-2-1---1---1-|


 -------------|
  S S Q       S Q       S   H.
|-------------------------|---------------------------|
|-------------------------|---------------------------|
|-------------------------|---------------------------|
|-------------------------|---------------------------|
|---3---------3-----------|---------------------------|
|---1---------1-----------|---------------------------|
|
| S S S S S S S S S S S S   S  S S S S S S S S S S S
|-------------------------|---------------------------|
|-------------------------|---------------------------|
|-------------------------|---------------------------|
|-------------------------|----------------------4----|
|-3-------0-------0---1---|-0--------4---3------------|
|---1-2-1---1-2-1---1---1-|----1-2-1---1---1-2-1---1--|


    F5
    PM-----------------------------------------------
  S S S S H                 S S S S S S E   Q
|-------------------------|-------------------------|
|-------------------------|-------------------------|
|-------------------------|-------------------------|
|-------------------------|-------------------------|
|---3---3-----------------|-3---3---3---------------|
|---1---1-----------------|-1---1---1---------------|
|
| S S S S S S S S S S S S   S S S S S S S S S S S S
|-------------------------|-------------------------|
|-------------------------|-------------------------|
|-------------------------|-------------------------|
|-3-----------------------|-------------------------|
|---------0-------0---1---|-0-------0-------0---4---|
|---1-2-1---1-2-1---1---1-|---1-2-1---1-2-1---1---1-|


                            13/16
 ----------------------------|
  S S Q       S S Q          S H.
|-------------------------||----------------------------|
|-------------------------||----------------------------|
|-------------------------||----------------------------|
|-------------------------||---3------------------------|
|---3---------3-----------||---3------------------------|
|---1---------1-----------||---1------------------------|
|
| S S S S S S S S S S S S    S S  S S S S S S S S S S S
|-------------------------||----------------------------|
|-------------------------||----------------------------|
|-------------------------||----------------------------|
|-------------------------||----------------------4---3-|
|-3-------0-------0---1---||-0--------4---3-------------|
|---1-2-1---1-2-1---1---1-||---1--2-1---1---1-2-1---1---|


  H=85
  N.C.
 4/4
  Gtrs II, III
      PM--|    PM--|      PM--|    PM--|
      |-3-|    |-3-|      |-3-|    |-3-|
  Q   E E E Q  E E E   Q  E E E Q  E E E
|--------------------|-------------------|
|--------------------|-------------------|
|--------------------|-------------------|
|--------------------|-------------------|
|-4---------4--------|-6--------6--------|
|-4---4-4-4-4--4-4-4-|-6--6-6-6-6--6-6-6-|
|
| |---3---|    |-3-|      |-3-|    |-3-|
| E Q E E E Q  E E E   Q  E E E Q  E E E
|-2---2---1----2---1-|----2---1----2---1-|
|--------------------|-------------------|
|--------------------|-------------------|
|-4---4---3----4---3-|----4---3----4---3-|
|--------------------|-------------------|
|--------------------|-------------------|


  Bb5      G#5        F#5      F5
  H        H          H        H
|-------------------|---------------------|
|-------------------|---------------------|
|-------------------|---------------------|
|-8--------6--------|-4--------3----------|
|-8--------6--------|-4--------3----------|
|-6--------4--------|-2--------1----------|
|
|    |-3-|    |-3-|      |-3-|    |-3-|
| Q  E E E Q  E E E   Q  E E E Q  E E E
|----1--------------|---------------------|
|--------4----4---2-|----2---1----2---1---|
|-------------------|---------------------|
|----4---1----1-----|---------------------|
|-----------------4-|----4---3----4---3---|
|-------------------|---------------------|


 Zappa Section
  N.(A)
  |-3-| |-3-| |-3--| |-3-|    |--3--|  |--3--|  |--3--| |--3--|
  E E E E E E E  E E E E E    E  E  E  E  E  E  E  E  E E  E  E
|--------------------------|-10-13-12---------------------------|
|--------------------------|----------10-13-12-10-12-13---------|
|--------------------------|----------------------------9-12-10-|
|-------------7-10-8-------|------------------------------------|
|-------6-9-8--------6-9-8-|------------------------------------|
|-6-9-8--------------------|------------------------------------|
|
| Gtr VI
| |-3-| |-3-| |-3--| |-3-|    |--3--|  |--3--|  |--3--| |--3--|
| E E E E E E E  E E E E E    E  E  E  E  E  E  E  E  E E  E  E
|--------------------------|-10-13-12---------------------------|
|--------------------------|----------10-13-12-10-12-13---------|
|--------------------------|----------------------------9-12-10-|
|-------------7-10-8-------|------------------------------------|
|-------6-9-8--------6-9-8-|------------------------------------|
|-6-9-8--------------------|------------------------------------|


                      D.S.S. al Dbl. Coda
  N.(A)
  |-3--| |-3--| |-3-| |-3-|   |-3-|
  E  E E E E  E E E E E E E   E E E q  H
|---------------------------|---------------|
|---------------------------|---------------|
|-7-10-9--------------------|---------------|
|--------7-9-10-6-9-7-------|---------------|
|---------------------------|-5-8-7---------|
|---------------------5-8-7-|-------5-------|
|
| |-3--| |-3--| |-3-| |-3-|
| E  E E E E  E E E E E E E   W
|---------------------------|---------------|
|---------------------------|---------------|
|-7-10-9--------------------|---------------|
|--------7-9-10-6-9-7-------|---------------|
|---------------------------|---------------|
|---------------------5-8-7-|---------------|


 Chorus
  &&
  E5         N.C.                   N.C. (G)
  Gtrs II, III
  W          H    H      W          H    H
|----------|-----------|----------|-----------|
|----------|-----------|----------|-----------|
|----------|-----------|----------|-----------|
|-2--------|-4----5----|----------|-----------|
|-2--------|-----------|-3--------|-3----3----|
|-0--------|-----------|----------|-2----3----|
|
| Gtr V
| W          H    H      W          H    H
|-3--------|-5----7----|-3--------|-2----3----|
|----------|-----------|----------|-----------|
|-0--------|-2----4----|-0--------|------0----|
|----------|-----------|----------|-4---------|
|----------|-----------|----------|-----------|
|----------|-----------|----------|-----------|


  E5         N.C.
  W          H    H       W          H     H
|----------|-----------|-----------|------------|
|----------|-----------|-----------|------------|
|----------|-----------|-----------|------------|
|-2--------|-4----5----|--7--------|-5-----4----|
|-2--------|-----------|-----------|------------|
|-0--------|-----------|-----------|------------|
|
| W          H    H       W          H     H
|-7--------|-5----7----|--8--------|-7----10----|
|-8--------|-7----8----|-10--------|-8----12----|
|----------|-----------|-----------|------------|
|----------|-----------|-----------|------------|
|----------|-----------|-----------|------------|
|----------|-----------|-----------|------------|


 Out-Chorus - Guitar Solo III
  E5                         N.C.
  Gtr II
     PM--|          PM---|
     |-3-|          |-3--|
  Q  E E E  Q       E  E E     H     H              W
|--------------------------|--------------|-------------------------------------------|
|--------------------------|--------------|-------------------------------------------|
|--------------------------|--------------|-------------------------------------------|
|-2---------2--------------|---4-----5----|-------------------------------------------|
|-2---------2--------------|--------------|---------3---------------------------------|
|-0--0-0-0--0-------0--0-0-|--------------|-------------------------------------------|
|
| Gtr IV
|                   ~~~~~~~~~~~~~~
|                                                        |--3--|              |--3--|
| H         Q      +Q         +W             a     +Q    E  E  E  a     +Q    E  E  E
|----------10b12--(10)-----|-(10)---------|-13b15-(13)--15-14-12-13b15-(13)--15-14-12-|
|--------------------------|--------------|-------------------------------------------|
|--------------------------|--------------|-------------------------------------------|
|--------------------------|--------------|-------------------------------------------|
|--------------------------|--------------|-------------------------------------------|
|--------------------------|--------------|-------------------------------------------|
|
| Gtr V
| W                            H     H              W
|-3------------------------|---5-----7----|---------3---------------------------------|
|--------------------------|--------------|-------------------------------------------|
|-0------------------------|---2-----4----|---------0---------------------------------|
|--------------------------|--------------|-------------------------------------------|
|--------------------------|--------------|-------------------------------------------|
|--------------------------|--------------|-------------------------------------------|


  N.C.
               PM-----------|               PM---|
               |-----3------|               |-3--|
   Q           E     E      E   Q           E  E E
|--------------------------------------------------|
|--------------------------------------------------|
|--------------------------------------------------|
|--------------------------------------------------|
|--3----------------------------3------------------|
|--2-----------2-----2------2---3-----------3--3-3-|
|
|  E     +E   +E        +E     +E      +E   Q
|-17b19r(17)-(17)b19r==(17)---(17)b19r(17)-12/-----|
|--------------------------------------------------|
|--------------------------------------------------|
|--------------------------------------------------|
|--------------------------------------------------|
|--------------------------------------------------|
|
|  H                            H
|--2----------------------------3------------------|
|--------------------------------------------------|
|-------------------------------0------------------|
|--4-----------------------------------------------|
|--------------------------------------------------|
|--------------------------------------------------|


  E5
               PM--------|                 PM--------|
               |----3----|                 |----3----|
   Q           E    E    E     Q           E    E    E
|---------------------------------------------------------|
|---------------------------------------------------------|
|---------------------------------------------------------|
|--2---------------------------2--------------------------|
|--2---------------------------2--------------------------|
|--0-----------0----0----0-----0-----------0----0----0----|
|
|  S  S  S  S  S  S    S    S  S  S  S  S  S  S    S    S
|-15-14-15h17p15p14---15---14-12-15h17p15p14p12---15---17-|
|---------------------------------------------------------|
|---------------------------------------------------------|
|---------------------------------------------------------|
|---------------------------------------------------------|
|---------------------------------------------------------|
|
|  W
|--7------------------------------------------------------|
|--8------------------------------------------------------|
|---------------------------------------------------------|
|---------------------------------------------------------|
|---------------------------------------------------------|
|---------------------------------------------------------|


  N.C.
   H                       H            H                         +Q          +Q
|------------------------------------|-----------------------------------------------------|
|------------------------------------|-----------------------------------------------------|
|------------------------------------|-----------------------------------------------------|
|--4-----------------------5---------|--5b7=======================(5)---------(5)r=========|
|------------------------------------|-----------------------------------------------------|
|------------------------------------|-----------------------------------------------------|
|
|                          ~~~~~
|  S  S  S  S  S  S  S  S  Q.      E    S     S  S  S  S  S  S  S  S  S  S  S  S   S  S  S
|-15-14-15-14p12h15h17-15-13b15---12-|-14h===15h17p15p14s12--------------------------------|
|------------------------------------|----------------------13h15h17p15s13-12p10h=12h13p12-|
|------------------------------------|-----------------------------------------------------|
|------------------------------------|-----------------------------------------------------|
|------------------------------------|-----------------------------------------------------|
|------------------------------------|-----------------------------------------------------|
|
|  H                       H            W
|--5-----------------------7---------|--8--------------------------------------------------|
|--7-----------------------8---------|-10--------------------------------------------------|
|------------------------------------|-----------------------------------------------------|
|------------------------------------|-----------------------------------------------------|
|------------------------------------|-----------------------------------------------------|
|------------------------------------|-----------------------------------------------------|


  N.C.
   H                 H
|------------------------------------|
|------------------------------------|
|------------------------------------|
|--5-----------------4---------------|
|------------------------------------|
|------------------------------------|
|
|  S S S S  S S S S  S S S S S S S S
|------------------------------------|
|-10p8p7h8h10p8p7p5s=3h5h7p5---------|
|----------------------------7p5p4s2-|
|------------------------------------|
|------------------------------------|
|------------------------------------|
|
|  H                 H
|--7----------------10---------------|
|--8----------------12---------------|
|------------------------------------|
|------------------------------------|
|------------------------------------|
|------------------------------------|


  E5                                           N.C.
           PM------|            PM------|
           |---3---|            |---3---|
  Q        E   E   E   Q        E   E   E      H                 H
|--------------------------------------------|-------------------------------|
|--------------------------------------------|-------------------------------|
|--------------------------------------------|-------------------------------|
|-2--------------------2---------------------|-4-----------------5-----------|
|-2--------------------2---------------------|-------------------------------|
|-0--------0---0---0---0--------0---0---0----|-------------------------------|
|
|                                                                        ~~~~
| S S S  S S S   S   S S S  S S S S   S    S   S S S S S S  S S  Q      +Q
|--------------------------------------------|------------------10b12--(10)--|
|-8-7-8h10p8p7---8p==7p5h8h10p8-7-5---8---10-|-8p7h8p7p5-8-10-8--------------|
|--------------------------------------------|-------------------------------|
|--------------------------------------------|-------------------------------|
|--------------------------------------------|-------------------------------|
|--------------------------------------------|-------------------------------|
|
| W                                            H                 H
|-3------------------------------------------|-5-----------------7-----------|
|--------------------------------------------|-------------------------------|
|-0------------------------------------------|-2-----------------4-----------|
|--------------------------------------------|-------------------------------|
|--------------------------------------------|-------------------------------|
|--------------------------------------------|-------------------------------|


  N.C.
                                      PM---|     PM--|
                                      |-3--|     |-3-|
   W                             Q    E  E E  Q  E E E
|-----------------------------|------------------------|
|-----------------------------|------------------------|
|-----------------------------|------------------------|
|-----------------------------|------------------------|
|--3--------------------------|--3------------3--------|
|-----------------------------|--2----2--2-2--3--3-3-3-|
|
|          ~~~~                               ~~
|               |----3-----|     |---3---|
|  Q      +Q    Q     +Q   Q     Q  Q    Q    H
|-15b17--(15)--14b15r(14)-----|------------------------|
|-------------------------15--|----17--------17--------|
|-----------------------------|-14------14-------------|
|-----------------------------|------------------------|
|-----------------------------|------------------------|
|-----------------------------|------------------------|
|
|  W                             H            H
|--3--------------------------|--2------------3--------|
|-----------------------------|------------------------|
|--0--------------------------|---------------0--------|
|-----------------------------|--4---------------------|
|-----------------------------|------------------------|
|-----------------------------|------------------------|


  E5
               PM--------|                 PM--------|
               |----3----|                 |----3----|
   Q           E    E    E     Q           E    E    E
|----------------------------------------------------------|
|----------------------------------------------------------|
|----------------------------------------------------------|
|--2---------------------------2---------------------------|
|--2---------------------------2---------------------------|
|--0-----------0----0----0-----0-----------0----0----0-----|
|
|  S  S  S  S  S  S    S    S  S  S  S  S  S  S    S    S
|-15-14-17p15h17-14---15---14-12-15h17p15p14p12---15---17--|
|----------------------------------------------------------|
|----------------------------------------------------------|
|----------------------------------------------------------|
|----------------------------------------------------------|
|----------------------------------------------------------|
|
|  W
|--7-------------------------------------------------------|
|--8-------------------------------------------------------|
|----------------------------------------------------------|
|----------------------------------------------------------|
|----------------------------------------------------------|
|----------------------------------------------------------|


  N.C.
   H                       H
|-----------------------------------|
|-----------------------------------|
|-----------------------------------|
|--4-----------------------5--------|
|-----------------------------------|
|-----------------------------------|
|
|                          ~~~~~
|  S  S  S  S  S  S  S  S  Q.     E
|-15-14-15-14p12h15h17-15-13b15-----|
|-----------------------------------|
|---------------------------------9-|
|-----------------------------------|
|-----------------------------------|
|-----------------------------------|
|
|  H                       H
|--5-----------------------7--------|
|--7-----------------------8--------|
|-----------------------------------|
|-----------------------------------|
|-----------------------------------|
|-----------------------------------|


               PM--------------------------------|
               |---3----|               |---3----|
   Q           E   E    E     Q         E   E    E
|----------------------------------------------------|
|----------------------------------------------------|
|----------------------------------------------------|
|--7-------------------------------------------------|
|--------------0---0----0-----0---------0---0----0---|
|----------------------------------------------------|
|
|  S  S  S  S  S S    S    S  S  S  S S S S    S   S
|----------------------------------------------------|
|----------------------------------------------------|
|-11h12h14p12p11s9-----------------------------------|
|--------------------10h==12h14p12s10-9p7h9h==10p==9-|
|----------------------------------------------------|
|----------------------------------------------------|
|
|  W
|--8-------------------------------------------------|
|-10-------------------------------------------------|
|----------------------------------------------------|
|----------------------------------------------------|
|----------------------------------------------------|
|----------------------------------------------------|


  N.C.
              PM-------|             PM-----------
              |---3----|             |---3---|
   Q          E    E   E    Q        E   E   E
|------------------------------------------------|
|------------------------------------------------|
|------------------------------------------------|
|--5------------------------4--------------------|
|------------------------------------------------|
|-------------3----3---3-------------2---2---2---|
|
|  S  S S  S  S  S   S   S  S S S S  S S   S   S
|------------------------------------------------|
|------------------------------------------------|
|------------------------------------------------|
|------------------------------------------------|
|-12p10p9h10h12p10---9p==7p=5h7h9p7--------------|
|-----------------------------------10p8p==7p==5-|
|
|  H                        H
|--7-----------------------10--------------------|
|--8-----------------------12--------------------|
|------------------------------------------------|
|------------------------------------------------|
|------------------------------------------------|
|------------------------------------------------|


  E5
 ---|                 PM--|
  |---3----|          |-3-|
  Q Q      Q   H      Q Q Q H
|-------------------|------------*|
|-------------------|------------*|
|-------------------|------------*|
|-------------------|------------*|
|-2-2---------------|-2-2-2------*|
|-0-0---------------|-0-0-0------*|
|
| ~
|                     |-3-|
| Q   +E     E H      Q Q Q H
|-------------------|------------*|
|-------------------|------------*|
|-------------------|------------*|
|-------------------|------------*|
|-7---(7)\----------|-2-2-2------*|
|-------------------|-0-0-0------*|
|
| PM|                 PM--|
| |---3----|          |-3-|
| Q Q      Q   H      Q Q Q H
|-0-0---------------|-0-0-0------*|
|-0-0---------------|-0-0-0------*|
|-------------------|------------*|
|-------------------|------------*|
|-2-2---------------|-2-2-2------*|
|-0-0---------------|-0-0-0------*|



Duration Legend
---------------
W - whole; H - half; Q - quarter; E - 8th; S - 16th; T - 32nd; X - 64th; a - acciaccatura
+ - note tied to previous; . - note dotted; .. - note double dotted
Uncapitalized letters represent notes that are staccato (1/2 duration)
Irregular groupings are notated above the duration line
Duration letters will always appear directly above the note/fret number it represents the
duration for.  Duration letters with no fret number below them represent rests.  Multi-
bar rests are notated in the form Wxn, where n is the number of bars to rest for.  Low
melody durations appear below the staff

Tablature Legend
----------------
 h   - hammer-on
 p   - pull-off
 b   - bend
 pb  - pre-bend
 r   - bend release (if no number after the r, then release immediately)
 /\  - slide into or out of (from/to "nowhere")
 s   - legato slide
 S   - shift slide
 - natural harmonic
[n]  - artificial harmonic
n(n) - tapped harmonic
 ~   - vibrato
 tr  - trill
 T   - tap
 TP  - trem. picking
 PM  - palm muting
\n/  - tremolo bar dip; n = amount to dip
 \n  - tremolo bar down
 n/  - tremolo bar up
/n\  - tremolo bar inverted dip
 =   - hold bend; also acts as connecting device for hammers/pulls
 <> - volume swell (louder/softer)
 x   - on rhythm slash represents muted slash
 o   - on rhythm slash represents single note slash

Misc Legend
-----------
 |  - bar
||  - double bar
||o - repeat start
o|| - repeat end
*|  - double bar (ending)
 :  - bar (freetime)
 $  - Segno
 &  - Coda
Tempo markers -  = BPM(8/16=s8/s16), where s8 = swing 8ths, s16 = swing 16ths

comments
We did not receive enough feedback on this tab! Please rate:
print report bad tab
1 2 3 4 5
I want to post or [tab]
guest
You may want to rate the tab now too:
select rating
Please do not post tabs as comments. Select "correction" instead!