Oops, an error
Loading. Please wait.

For Always Forever Tab

6,314 views 6 this week
no commentswrite comment
1 2 3 4 5
excellent!
x 2
Autoscroll
+/-
esc
set tempo
stop
Contributor
Difficulty
Tuning
novice
D A D G B E
Hey! There's an official Ultimate Guitar app which is ideal
for learning songs when you're away from computer. Get the app
WARNING: You are trying to view
                                    content from Ultimate-Guitar.com
                                    in an unauthorized application,
                                    which is prohibited.

                                    Please use an official Ultimate
                                    Guitar Tabs application for iPhone,
                                    iPad or Android to access legitimate
                                    chords, guitar, bass, and drum tabs
                                    from Ultimate-Guitar.com database.

                                    Type "ultimate guitar tabs" in Apple
                                    App Store's or Android Market's
                                    search to find the application.
-----------------------------------------------------------------------------
                     For Always Forever - Every Avenue
-----------------------------------------------------------------------------
Tabbed By: Clay D.
Tuning: Drop D

 Ok, this is my first tab, and it's not exactly 100%, but I hope it helps.
Please post any corrections or things I missed, or was just too lazy to fix. thanks =]


[Intro]

{Rhythm Guitar}
e[-------------------------------------------------------------------]
B[-------------------------------------------------------------------]
G[------------------------10-----------------------------------------]
D[--7--7--8--8--7--8--10--10-10--7--7--8--8--7--8--10--/5--3--3------]
A[--7--7--8--8--7--8--10--8--10--7--7--8--8--7--8--10--/5--3--3------]
D[--7--7--8--8--7--8--10-----10--7--7--8--8--7--8--10--/5--3--3------]

e[-------------------------------------------------------------------]
B[-------------------------------------------------------------------]
G[------------------------10-----------------10----------------------]
D[--7--7--8--8--7--8--10--10-10--7--7--8--8--10-10-------------------]
A[--7--7--8--8--7--8--10--8--10--7--7--8--8--8--10-------------------]
D[--7--7--8--8--7--8--10-----10--7--7--8--8-----10-------------------]

{Lead Guitar}
e[-------------------------------------------------------------------]
B[--1--1-33333-11--33-55-66--55--1--1--3333--6--555565---------------]
G[-------------------------------------------------------------------]
D[-------------------------------------------------------------------]
A[-------------------------------------------------------------------]
D[-------------------------------------------------------------------]


[Verse 1]

{Lead}
e[------]
B[--14--]  (This note is played softly until the riff comes in)
G[------]
D[------]
A[------]
D[------]

e[-------------------------------------------------------------------]
B[-------------------------------------------------------------------]
G[-----10--10-----10--10------10--10------10--10---------------------]
D[-----10--10-----10--10------10--10------10--10---------------------]
A[--0----------8----------10----------10-----------------------------]
D[--0----------8----------10----------10-----------------------------]

e[-------------------------------------------------------------------]
B[-------------------------------------------------------------------]
G[-----10--10-----10--10------10--10------10--10---------------------]
D[-----10--10-----10--10------10--10------10--10---------------------]
A[--0----------8----------10----------10-----------------------------]
D[--0----------8----------10----------10-----------------------------]

e[--------------------------------------------------------------------------]
B[--------------------------------------------------------------------------]
G[----10--10-----10--10------10--10------10---------------------------------]
D[----10--10-----10--10------10--10------10--7-8-8-8-8-8-8-8-10-10-10-10-10\]
A[-0----------8----------10----------10------7-8-8-8-8-8-8-8-10-10-10-10-10\]
D[-0----------8----------10----------10------7-8-8-8-8-8-8-8-10-10-10-10-10\]


[Chorus] 

e[-------------------------------------------------------]
B[-------------------------------------------------------]
G[-------------------------------------------------------]
D[--3--3--3--3--3--3--3--3---8--8--8--8--8--8--8--8------]
A[--3--3--3--3--3--3--3--3---8--8--8--8--8--8--8--8------]
D[--3--3--3--3--3--3--3--3---8--8--8--8--8--8--8--8------]

e[-------------------------------------------------------]
B[-------------------------------------------------------]
G[--7--7--7--7--7--7--7--7---5--5--5--5--5--5--3---------]
D[--7--7--7--7--7--7--7--7---5--5--5--5--5--5--3---------]
A[--5--5--5--5--5--5--5--5---3--3--3--3--3--3--1---------]
D[-------------------------------------------------------]

e[-------------------------------------------------------]
B[-------------------------------------------------------]
G[-------------------------------------------------------]
D[--3--3--3--3--3--3--3--3---8--8--8--8--8--8--8--8------]
A[--3--3--3--3--3--3--3--3---8--8--8--8--8--8--8--8------]
D[--3--3--3--3--3--3--3--3---8--8--8--8--8--8--8--8------]

e[-------------------------------------------------------]
B[-------------------------------------------------------]
G[--7--7--7--7--7--7--7--7---5--5--5--5--5--5--5---------]
D[--7--7--7--7--7--7--7--7---5--5--5--5--5--5--5---------]
A[--5--5--5--5--5--5--5--5---3--3--3--3--3--3--3---------]
D[-------------------------------------------------------]

e[-------------------------------------------------------]
B[-------------------------------------------------------]
G[--3--3--3--3--3--3--3----------------------------------]
D[--3--3--3--3--3--3--3---3--3--3--3--3--3--3------------]
A[--1--1--1--1--1--1--1---3--3--3--3--3--3--3------------]
D[------------------------3--3--3--3--3--3--3------------]

e[-------------------------------------------------------]
B[-------------------------------------------------------]
G[--5--5--5--5--5--5--5---7--7--7--7--3--3--3--3---------]
D[--5--5--5--5--5--5--5---7--7--7--7--3--3--3--3---------]
A[--3--3--5--3--3--3--3---5--5--5--5--1--1--1--1---------]
D[-------------------------------------------------------]

e[-------------------------------------------------------]
B[-------------------------------------------------------]
G[--3--3--3--3--3--3--3--3--3~~~-------------------------]
D[--3--3--3--3--3--3--3--3--3~~~-------------------------]
A[--1--1--1--1--1--1--1--1--1~~~-------------------------]
D[-------------------------------------------------------]


[Verse 2]

{Lead}
e[------]
B[--14--]  (This note is played softly until the riff comes in)
G[------]
D[------]
A[------]
D[------]

e[-------------------------------------------------------------------]
B[-------------------------------------------------------------------]
G[-----10--10-----10--10------10--10------10--10---------------------]
D[-----10--10-----10--10------10--10------10--10---------------------]
A[--0----------8----------10----------10-----------------------------]
D[--0----------8----------10----------10-----------------------------]

e[-------------------------------------------------------------------]
B[-------------------------------------------------------------------]
G[-----10--10-----10--10------10--10------10--10---------------------]
D[-----10--10-----10--10------10--10------10--10---------------------]
A[--0----------8----------10----------10-----------------------------]
D[--0----------8----------10----------10-----------------------------]

e[--------------------------------------------------------------------------]
B[--------------------------------------------------------------------------]
G[----10--10-----10--10------10--10------10---------------------------------]
D[----10--10-----10--10------10--10------10--7-8-8-8-8-8-8-8-10-10-10-10-10\]
A[-0----------8----------10----------10------7-8-8-8-8-8-8-8-10-10-10-10-10\]
D[-0----------8----------10----------10------7-8-8-8-8-8-8-8-10-10-10-10-10\]


[Chorus 2]


e[-------------------------------------------------------]
B[-------------------------------------------------------]
G[-------------------------------------------------------]
D[--3--3--3--3--3--3--3--3---8--8--8--8--8--8--8--8------]
A[--3--3--3--3--3--3--3--3---8--8--8--8--8--8--8--8------]
D[--3--3--3--3--3--3--3--3---8--8--8--8--8--8--8--8------]

e[-------------------------------------------------------]
B[-------------------------------------------------------]
G[--7--7--7--7--7--7--7--7---5--5--5--5--5--5--3---------]
D[--7--7--7--7--7--7--7--7---5--5--5--5--5--5--3---------]
A[--5--5--5--5--5--5--5--5---3--3--3--3--3--3--1---------]
D[-------------------------------------------------------]

e[-------------------------------------------------------]
B[-------------------------------------------------------]
G[-------------------------------------------------------]
D[--3--3--3--3--3--3--3--3---8--8--8--8--8--8--8--8------]
A[--3--3--3--3--3--3--3--3---8--8--8--8--8--8--8--8------]
D[--3--3--3--3--3--3--3--3---8--8--8--8--8--8--8--8------]

e[-------------------------------------------------------]
B[-------------------------------------------------------]
G[--7--7--7--7--7--7--7--7---5--5--5--5--5--5--5---------]
D[--7--7--7--7--7--7--7--7---5--5--5--5--5--5--5---------]
A[--5--5--5--5--5--5--5--5---3--3--3--3--3--3--3---------]
D[-------------------------------------------------------]

e[-------------------------------------------------------]
B[-------------------------------------------------------]
G[--3--3--3--3--3--3--3----------------------------------]
D[--3--3--3--3--3--3--3---3--3--3--3--3--3--3------------]
A[--1--1--1--1--1--1--1---3--3--3--3--3--3--3------------]
D[------------------------3--3--3--3--3--3--3------------]

e[-------------------------------------------------------]
B[-------------------------------------------------------]
G[--5--5--5--5--5--5--5---7--7--7--7--3--3--3--3---------]
D[--5--5--5--5--5--5--5---7--7--7--7--3--3--3--3---------]
A[--3--3--5--3--3--3--3---5--5--5--5--1--1--1--1---------]
D[-------------------------------------------------------]

e[-------------------------------------------------------]
B[-------------------------------------------------------]
G[--3--3--3--3--3--3--3----------------------------------]
D[--3--3--3--3--3--3--3----------------------------------]
A[--1--1--1--1--1--1--1----------------------------------]
D[-------------------------------------------------------]


[Bridge]

{Rhythm Guitar}
e[-------------------------------------------------------------------]
B[-------------------------------------------------------------------]
G[------------------------10-----------------------------------------]
D[--7--7--8--8--7--8--10--10-10--7--7--8--8--7--8--10--/5--3--3------]
A[--7--7--8--8--7--8--10--8--10--7--7--8--8--7--8--10--/5--3--3------]
D[--7--7--8--8--7--8--10-----10--7--7--8--8--7--8--10--/5--3--3------]

e[-------------------------------------------------------------------]
B[-------------------------------------------------------------------]
G[------------------------10-----------------10----------------------]
D[--7--7--8--8--7--8--10--10-10--7--7--8--8--10-10-------------------]
A[--7--7--8--8--7--8--10--8--10--7--7--8--8--8--10-------------------]
D[--7--7--8--8--7--8--10-----10--7--7--8--8-----10-------------------]

{Lead Guitar}
e[-------------------------------------------------------------------]
B[--1--1-33333-11--33-55-66--55--1--1--3333--6--5555-----------------]
G[-------------------------------------------------------------------]
D[-------------------------------------------------------------------]
A[-------------------------------------------------------------------]
D[-------------------------------------------------------------------]

e[-------------------------------------------------------------------]
B[--1--1-33333-11--33-55-66--55--1--1--3333--6--5555-----------------]
G[-------------------------------------------------------------------]
D[-------------------------------------------------------------------]
A[-------------------------------------------------------------------]
D[-------------------------------------------------------------------]

{Rhythm Guitar}
e[-------------------------------------------------------------------]
B[-------------------------------------------------------------------]
G[------------------------10-----------------------------------------]
D[--7--7--8--8--7--8--10--10-10--7--7--8--8--7--8--10--/5--3--3------]
A[--7--7--8--8--7--8--10--8--10--7--7--8--8--7--8--10--/5--3--3------]
D[--7--7--8--8--7--8--10-----10--7--7--8--8--7--8--10--/5--3--3------]

e[-------------------------------------------------------------------]
B[-------------------------------------------------------------------]
G[------------------------10-----------------10----------------------]
D[--7--7--8--8--7--8--10--10-10--7--7--8--8--10-10-------------------]
A[--7--7--8--8--7--8--10--8--10--7--7--8--8--8--10-------------------]
D[--7--7--8--8--7--8--10-----10--7--7--8--8-----10-------------------]

{Rhythm Guitar}
e[-------------------------------------------------------------------]
B[-------------------------------------------------------------------]
G[-----10--10-----10--10------10--10------10--10---------------------]
D[-----10--10-----10--10------10--10------10--10---------------------]
A[--0----------8----------10----------10-----------------------------]
D[--0----------8----------10----------10-----------------------------] x2

{Lead Guitar}
e[-------------------------------------------------------------------]
B[-------------------------------------------------------------------]
G[---------------------------------------------10--------------------]
D[---------------------------------------------10--------------------]
A[---------------------------------------------8---------------------]
D[-------------------------------------------------------------------]

e[-------------------------------------------------------------------]
B[-------------------------------------------------------------------]
G[-----10--10-----10--10------10--10------10-------------------------]
D[-----10--10-----10--10------10--10------10--7-8-8-8-8-8-8-8-8------]
A[--0----------8----------10----------10------7-8-8-8-8-8-8-8-8------]
D[--0----------8----------10----------10------7-8-8-8-8-8-8-8-8------]

e[-------------------------------------------------------------------]
B[-------------------------------------------------------------------]
G[-------------------------------------------------------------------]
D[-10-10-10-10-10-10-10-8-8-8-8-8-8-8-10\----------------------------]
A[-10-10-10-10-10-10-10-8-8-8-8-8-8-8-10\----------------------------]
D[-10-10-10-10-10-10-10-8-8-8-8-8-8-8-10\----------------------------]


[Chorus 3]


e[-------------------------------------------------------]
B[-------------------------------------------------------]
G[-------------------------------------------------------]
D[--3--3--3--3--3--3--3--3---8--8--8--8--8--8--8--8------]
A[--3--3--3--3--3--3--3--3---8--8--8--8--8--8--8--8------]
D[--3--3--3--3--3--3--3--3---8--8--8--8--8--8--8--8------]

e[-------------------------------------------------------]
B[-------------------------------------------------------]
G[--7--7--7--7--7--7--7--7---5--5--5--5--5--5--3---------]
D[--7--7--7--7--7--7--7--7---5--5--5--5--5--5--3---------]
A[--5--5--5--5--5--5--5--5---3--3--3--3--3--3--1---------]
D[-------------------------------------------------------]

e[-------------------------------------------------------]
B[-------------------------------------------------------]
G[-------------------------------------------------------]
D[--3--3--3--3--3--3--3--3---8--8--8--8--8--8--8--8------]
A[--3--3--3--3--3--3--3--3---8--8--8--8--8--8--8--8------]
D[--3--3--3--3--3--3--3--3---8--8--8--8--8--8--8--8------]

e[-------------------------------------------------------]
B[-------------------------------------------------------]
G[--7--7--7--7--7--7--7--7---5--5--5--5--5--5--5---------]
D[--7--7--7--7--7--7--7--7---5--5--5--5--5--5--5---------]
A[--5--5--5--5--5--5--5--5---3--3--3--3--3--3--3---------]
D[-------------------------------------------------------]

e[-------------------------------------------------------]
B[-------------------------------------------------------]
G[--3--3--3--3--3--3--3----------------------------------]
D[--3--3--3--3--3--3--3---3--3--3--3--3--3--3------------]
A[--1--1--1--1--1--1--1---3--3--3--3--3--3--3------------]
D[------------------------3--3--3--3--3--3--3------------]

e[-------------------------------------------------------]
B[-------------------------------------------------------]
G[--5--5--5--5--5--5--5---7--7--7--7--3--3--3--3---------]
D[--5--5--5--5--5--5--5---7--7--7--7--3--3--3--3---------]
A[--3--3--5--3--3--3--3---5--5--5--5--1--1--1--1---------]
D[-------------------------------------------------------]

e[-------------------------------------------------------]
B[-------------------------------------------------------]
G[--3--3--3--3--3--3--3----------------------------------]
D[--3--3--3--3--3--3--3----------------------------------]
A[--1--1--1--1--1--1--1----------------------------------]
D[-------------------------------------------------------]


[Outro]

e[-------------------------------------------------------------------]
B[-------------------------------------------------------------------]
G[-------------------------------------------------------------------]
D[--8--8--8--8--8--8--8--10~--8--8--10--3\---------------------------]
A[--8--8--8--8--8--8--8--10~--8--8--10--3\---------------------------]
E[--8--8--8--8--8--8--8--10~--8--8--10--3\---------------------------]



comments
We did not receive enough feedback on this tab! Please rate:
print report bad tab
1 2 3 4 5
I want to post or [tab]
guest
You may want to rate the tab now too:
select rating
Please do not post tabs as comments. Select "correction" instead!