Oops, an error
Loading. Please wait.

Come Alive Diana Bass Tab

500 views 1 this week
no commentswrite comment
1 2 3 4 5
excellent!
x 1
add to favorites launch autoscroll
font size
0
reset
Autoscroll
+/-
esc
set tempo
stop
Contributor
Difficulty
advanced
WARNING: You are trying to view
                                    content from Ultimate-Guitar.com
                                    in an unauthorized application,
                                    which is prohibited.

                                    Please use an official Ultimate
                                    Guitar Tabs application for iPhone,
                                    iPad or Android to access legitimate
                                    chords, guitar, bass, and drum tabs
                                    from Ultimate-Guitar.com database.

                                    Type "ultimate guitar tabs" in Apple
                                    App Store's or Android Market's
                                    search to find the application.
Artist: Everything Everything

Album: Man Alive



All tabs by Pedro Zappa
-----------------------------------------------------------------------------
-----------------------------------------------------------------------------


9. Come Alive Diana


Verse

G||--------------------|
D||--------------------|
A||--------------444-44|
E||--------------------|
    i    i    i    i    
G||---4----------------|---2----------------|
D||--------------------|--------------------|
A||-2------------222-22|-0------------000-00|
E||--------------------|--------------------|
    i    i    i    i     i    i    i    i
G||--------------------|--------------------|
D||---4----------------|--------------------|
A||--------------000-00|---7----------444-44|
E||-2------------------|-0------------------|
    i    i    i    i     i    i    i    i
G||---4----------------|---2----------------|
D||--------------------|--------------------|
A||-2------------222-22|-0------------000-00|
E||--------------------|--------------------|
    i    i    i    i     i    i    i    i
G||--------------------|--------------------|
D||---4----------------|-------------9------|
A||--------------000-00|---7----5/-7----7---|
E||-2------------------|-0------------------|
    i    i    i    i     i    i    i    i
G||--------------------|--------------------|
D||--------------------|--------------------|
A||--------------------|--------------------|
E||--------------------|--------------------|
    i    i    i    i     i    i    i    i

Chorus 1

G||--------------------|--------------------|
D||-7----7-------------|------------------9-|
A||--------0--4-6--7-4-|---2--4-7----6--7---|
E||--------------------|--------------------|
    i    i    i    i     i    i    i    i
G||-----------------------|---11----------------|
D||---------------------9-|-------9------7--6-7-|
A||---11--9-11----12------|---------------------|
E||-----------------------|---------------------|
    i     i     i     i     i     i    i    i

G||--------------------|--------------------|
D||--------------------|------------------9-|
A||-9-7--0----4-6--7-4-|---4----7----6--7---|
E||--------------------|--------------------|
    i    i    i    i     i    i    i    i
G||--------------------|---4----4----2--1-2-|
D||-6----4-6----2------|--------------------|
A||------------------2-|------2-------------|
E||--------------------|--------------------|
    i    i    i    i     i    i    i    i


G||--------------------|--------------------|
D||-4-2----------------|------------------9-|
A||------0----4-6--7-4-|---2--4-7----6--7---|
E||--------------------|--------------------|
    i    i    i    i     i    i    i    i
G||-----------------------|---11----------------|
D||---------------------9-|-------9------7--6-7-|
A||---11--9-11----12------|---------------------|
E||-----------------------|---------------------|
    i     i     i     i     i     i    i    i

G||--------------------|--------------------|
D||--------------------|------------------9-|
A||-9-7--0----4-6--7-4-|---4----7----6--7---|
E||--------------------|--------------------|
    i    i    i    i     i    i    i    i
G||--------------------|--------------------|
D||-6----4-6----2------|--------------------|
A||------------------2-|---0----------------|
E||--------------------|--------4----2/-----|
    i    i    i    i     i    i    i    i

G||------13------------------|------------------------------|
D||---------14--11-13--14-11-|----11-----14.14-14-13--11----|
A||-0------------------------|---------------------------14-|
E||--------------------------|------------------------------|
    i    i      i      i       i     i         i      i
G||------13------------------|------------------------------|
D||---------14--11-13--14----|-----------14.14-14-13--11----|
A||-11--------------------14-|----14---------------------14-|
E||--------------------------|------------------------------|
    i    i      i      i       i     i         i      i


G||------13------------------|------------------------------|
D||---------14--11-13--14-11-|----11-----14.14-14-13--11----|
A||-12-----------------------|---------------------------14-|
E||--------------------------|------------------------------|
    i    i      i      i       i     i         i      i
G||------13------------------|------------------------------|
D||---------14--11-13--14----|----------/14-----------------|
A||-11--------------------14-|----14------------------------|
E||--------------------------|------------------------------|
    i    i      i      i       i     i         i      i

Verse

G||--------------------|---2----------------|
D||--------------------|--------------------|
A||-2------------222-22|-0------------000-00|
E||--------------------|--------------------|
    i    i    i    i     i    i    i    i
G||--------------------|--------------------|
D||---4----------------|--------------------|
A||--------------000-00|---7----------444-44|
E||-2------------------|-0------------------|
    i    i    i    i     i    i    i    i
G||---4----------------|---2----------------|
D||--------------------|--------------------|
A||-2------------222-22|-0------------000-00|
E||--------------------|--------------------|
    i    i    i    i     i    i    i    i
G||--------------------|--------------------|
D||---4----------------|--------------------|
A||--------------000-00|---7----7--7-7--7-4-|
E||-2------------------|-0------------------|
    i    i    i    i     i    i    i    i


G||---4----------------|---2----------------|
D||--------------------|--------------------|
A||-2------------222-22|-0------------000-00|
E||--------------------|--------------------|
    i    i    i    i     i    i    i    i
G||--------------------|--------------------|
D||---4----------------|--------------------|
A||--------------000-00|---7----------444-44|
E||-2------------------|-0------------------|
    i    i    i    i     i    i    i    i
G||---4----------------|--------------------|
D||--------------------|---2----------------|
A||-2------------222-22|-4----0-------000-00|
E||--------------------|--------------------|
    i    i    i    i     i    i    i    i
G||--------------------|--------------------|
D||---4----------------|-------------9------|
A||--------------000-00|---7----5/-7----7---|
E||-2------------------|-0------------------|
    i    i    i    i     i    i    i    i
G||--------------------|--------------------|
D||--------------------|--------------------|
A||--------------------|--------------------|
E||--------------------|--------------------|
    i    i    i    i     i    i    i    i

Chorus 2

G||--------------------|--------------------|
D||-7----7-------------|------------------9-|
A||--------0--4-6--7-4-|---2--4-7----6--7---|
E||--------------------|--------------------|
    i    i    i    i     i    i    i    i
G||-----------------------|---11----------------|
D||---------------------9-|-------9------7--6-7-|
A||---11--9-11----12------|---------------------|
E||-----------------------|---------------------|
    i     i     i     i     i     i    i    i

G||--------------------|--------------------|
D||--------------------|------------------9-|
A||-9-7--0----4-6--7-4-|---4----7----6--7---|
E||--------------------|--------------------|
    i    i    i    i     i    i    i    i
G||--------------------|---4----4----2--1-2-|
D||-6----4-6----2------|--------------------|
A||------------------2-|------2-------------|
E||--------------------|--------------------|
    i    i    i    i     i    i    i    i


G||--------------------|--------------------|
D||-4-2----------------|------------------9-|
A||------0----4-6--7-4-|---2--4-7----6--7---|
E||--------------------|--------------------|
    i    i    i    i     i    i    i    i
G||-----------------------|---11----------------|
D||---------------------9-|-------9------7--6-7-|
A||---11--9-11----12------|---------------------|
E||-----------------------|---------------------|
    i     i     i     i     i     i    i    i

G||--------------------|--------------------|
D||--------------------|------------------9-|
A||-9-7--0----4-6--7-4-|---4----7----6--7---|
E||--------------------|--------------------|
    i    i    i    i     i    i    i    i
G||--------------------|--------------------|
D||-6----4-6----2------|--------------------|
A||------------------2-|---0----------------|
E||--------------------|--------4----2/-----|
    i    i    i    i     i    i    i    i

Interlude

(wait)

G||--------------------|
D||------------------9-|
A||----------------7---|
E||--------------------|
    i    i    i    i    
G||--------------------|--------------------|
D||-7------6-----------|-----------7-9--7-6-|
A||----------------9---|---7----------------|
E||--------------------|--------------------|
    i    i    i    i     i    i    i    i
G||--------------------|--------------------|
D||--------------------|-6-7--6---------6---|
A||------9------7------|--------9----9----9-|
E||--------------------|--------------------|
    i    i    i    i     i    i    i    i
G||--------------------|--------------------|
D||--------------------|------------------9-|
A||-4------2-------0---|----------------7---|
E||--------------------|---4----------------|
    i    i    i    i     i    i    i    i
G||--------------------|--------------------|
D||-7------6-----------|-----------7-9--7-6-|
A||----------------9---|---7----------------|
E||--------------------|--------------------|
    i    i    i    i     i    i    i    i
G||--------------------|--------------------|
D||--------------------|-6-7--6---------6---|
A||------9------7------|--------9----9----9-|
E||--------------------|--------------------|
    i    i    i    i     i    i    i    i
G||--------------------|--------------------|
D||--------------------|--------------------|
A||-4------2-------0---|--------------------|
E||--------------------|---4-------2----0---|
    i    i    i    i     i    i    i    i

(wait)

Chorus 3

G||-------------11------|
D||---------7/9-----9---|
A||---------------------|
E||---------------------|
    i    i    i     i    
G||--------------------|--------------------|
D||-7----7-------------|------------------9-|
A||--------0--4-6--7-4-|---2--4-7----6--7---|
E||--------------------|--------------------|
    i    i    i    i     i    i    i    i
G||-----------------------|---11----------------|
D||---------------------9-|-------9------7--6-7-|
A||---11--9-11----12------|---------------------|
E||-----------------------|---------------------|
    i     i     i     i     i     i    i    i

G||--------------------|--------------------|
D||--------------------|------------------9-|
A||-9-7--0----4-6--7-4-|---4----7----6--7---|
E||--------------------|--------------------|
    i    i    i    i     i    i    i    i
G||--------------------|---4----4----2--1-2-|
D||-6----4-6----2------|--------------------|
A||------------------2-|------2-------------|
E||--------------------|--------------------|
    i    i    i    i     i    i    i    i


G||--------------------|--------------------|
D||-4-2----------------|------------------9-|
A||------0----4-6--7-4-|---2--4-7----6--7---|
E||--------------------|--------------------|
    i    i    i    i     i    i    i    i
G||-----------------------|---11----------------|
D||---------------------9-|-------9------7--6-7-|
A||---11--9-11----12------|---------------------|
E||-----------------------|---------------------|
    i     i     i     i     i     i    i    i

G||--------------------|--------------------|
D||--------------------|------------------9-|
A||-9-7--0----4-6--7-4-|---4----7----6--7---|
E||--------------------|--------------------|
    i    i    i    i     i    i    i    i
G||--------------------|--------------------|
D||-6----4-6----2------|--------------------|
A||------------------2-|---0----------------|
E||--------------------|--------4----2/-----|
    i    i    i    i     i    i    i    i

G||------13------------------|------------------------------|
D||---------14--11-13--14-11-|----11-----14.14-14-13--11----|
A||-0------------------------|---------------------------14-|
E||--------------------------|------------------------------|
    i    i      i      i       i     i         i      i
G||------13------------------|------------------------------|
D||---------14--11-13--14----|-----------14.14-14-13--11----|
A||-11--------------------14-|----14---------------------14-|
E||--------------------------|------------------------------|
    i    i      i      i       i     i         i      i


G||------13------------------|------------------------------|
D||---------14--11-13--14-11-|----11-----14.14-14-13--11----|
A||-12-----------------------|---------------------------14-|
E||--------------------------|------------------------------|
    i    i      i      i       i     i         i      i
G||------13------------------|------------------------------|
D||---------14--11-13--14----|----------/14--------13-14----|
A||-11--------------------14-|----14------------------------|
E||--------------------------|------------------------------|
    i    i      i      i       i     i         i      i


G||--------------------|--------------------|
D||-7------6-----------|-----------7-9--7-6-|
A||----------------9---|---7----9-----------|
E||--------------------|--------------------|
    i    i    i    i     i    i    i    i
G||--------------------|--------------------|
D||--------------------|-6-7--6---------6---|
A||------9------7----7-|--------9----9----9-|
E||--------------------|--------------------|
    i    i    i    i     i    i    i    i
G||--------------------|--------------------|
D||--------------------|----------------6-9-|
A||-4------2-------0---|-------------7------|
E||--------------------|---4----------------|
    i    i    i    i     i    i    i    i

G||--------------------|--------------------|
D||-7------6-----------|-----------7-9--7-6-|
A||----------------9---|---7----9-----------|
E||--------------------|--------------------|
    i    i    i    i     i    i    i    i
G||--------------------|--------------------|
D||--------------------|-6-7--6---------6---|
A||------9------7----7-|--------9----9----9-|
E||--------------------|--------------------|
    i    i    i    i     i    i    i    i
G||--------------------|--------------------|
D||--------------------|----------------6-9-|
A||-4------2-------0---|-------------7------|
E||--------------------|---4----------------|
    i    i    i    i     i    i    i    i

G||--------------------|--------------------|
D||-7------6-----------|-----------7-9--7-6-|
A||----------------9---|---7----9-----------|
E||--------------------|--------------------|
    i    i    i    i     i    i    i    i
G||--------------------|--------------------|
D||--------------------|-6-7--6---------6---|
A||------9------7----7-|--------9----9----9-|
E||--------------------|--------------------|
    i    i    i    i     i    i    i    i
G||--------------------|--------------------|
D||--------------------|--------------------|
A||-4------2-------0---|--------------------|
E||--------------------|---4-------2----0---|
    i    i    i    i     i    i    i    i

Tab by Pedro Zappa
-----------------------------------------------------------------------------
-----------------------------------------------------------------------------
comments
We did not receive enough feedback on this tab! Please rate:
print report bad tab
1 2 3 4 5
I want to post or [tab]
guest
You may want to rate the tab now too:
select rating
Please do not post tabs as comments. Select "correction" instead!