Oops, an error
Loading. Please wait.

Man Alive Bass Tab

733 views 1 this week
no commentswrite comment
1 2 3 4 5
excellent!
x 2
Autoscroll
+/-
esc
set tempo
stop
Contributor
Hey! There's an official Ultimate Guitar app which is ideal
for learning songs when you're away from computer. Get the app
WARNING: You are trying to view
                                    content from Ultimate-Guitar.com
                                    in an unauthorized application,
                                    which is prohibited.

                                    Please use an official Ultimate
                                    Guitar Tabs application for iPhone,
                                    iPad or Android to access legitimate
                                    chords, guitar, bass, and drum tabs
                                    from Ultimate-Guitar.com database.

                                    Type "ultimate guitar tabs" in Apple
                                    App Store's or Android Market's
                                    search to find the application.
Artist: Everything Everything

Album: Man Alive



Tab by Pedro Zappa
-----------------------------------------------------------------------------
-----------------------------------------------------------------------------


1. MY KZ, UR BF


Intro

G||---------------------|-----------------------|
D||----------------6-6--|-----------------------|
A||-----------------3-3-|-1-1----86-----6---6---|
E||-1-1---3-4---4-------|-----------------------|
    i    i    i    i      i    i      i    i
G||---------------------|---------------------|
D||----------------6-6--|---------------------|
A||-----------------3-3-|-1-1----86---6---568-|
E||-1-1---3-4---4-------|---------------------|
    i    i    i    i      i    i    i    i
G||---------------------|-----------------------|
D||----------------6-6--|-----------------------|
A||-----------------3-3-|-1-1----86-----6---6---|
E||---1--1-3--4--4------|-----------------------|
    i    i    i    i      i    i      i    i
G||---------------------|----------------------|
D||----------------6-6--|---------1------------|
A||-----------------3-3-|-1-1---13----1---3----|
E||-1-1---3--4---4------|----------------------|
    i    i    i    i      i    i    i    i
---

G||---------------------|---5----5------------|
D||---------------------|---------------------|
A||-3--3-35-6----6-653--|-------------3--1--3-|
E||---------------------|---------------------|
    i    i    i    i      i    i    i    i
 
Verse 1

G||--------------------|--------------------|
D||-------8--------6---|-------8--------6---|
A||-4-------8--8-------|-4-------8--8-------|
E||--------------------|--------------------|
    i    i    i    i     i    i    i    i
G||--------------------|--------------------|
D||-------8----6-------|-------8----6--6----|
A||-4-------8------3---|-4-------8------863-|
E||--------------------|--------------------|
    i    i    i    i     i    i    i    i

G||--------------------|--------------------|
D||-------8--------6---|-------8--------6---|
A||-4-------8--8-------|-4-------8--8-------|
E||--------------------|--------------------|
    i    i    i    i     i    i    i    i
G||------------------5-|--------------------|
D||-------8----6---6---|-------8----6--6----|
A||-4-------8-----8-8--|-4-------8------863-|
E||--------------------|--------------------|
    i    i    i    i     i    i    i    i

Pre-Chorus 1

G||--------------------|--------------------|
D||----------------3-3-|----------------3-5-|
A||-4--4--4-4--4--4-4-4|-5-5---5-5--5--5----|
E||--------------------|--------------------|
    i    i    i    i     i    i    i    i
G||----------------5-5-|------53------------|
D||-6-6---6-6--6--6-6-6|-5-5----65--5-------|
A||--------------------|--------------------|
E||--------------------|--------------------|
    i    i    i    i     i    i    i    i

Chorus 1

G||---------------------|-----------------------|
D||----------------6-6--|-----------------------|
A||-----------------3-3-|-1-1----86-----6---6---|
E||-1-1---3-4---4-------|-----------------------|
    i    i    i    i      i    i      i    i
G||---------------------|---------------------|
D||----------------6-6--|---------------------|
A||-----------------3-3-|-1-1----86---6---568-|
E||-1-1---3-4---4-------|---------------------|
    i    i    i    i      i    i    i    i
G||---------------------|-----------------------|
D||----------------6-6--|-----------------------|
A||-----------------3-3-|-1-1----86-----6---6---|
E||---1--1-3--4--4------|-----------------------|
    i    i    i    i      i    i      i    i
G||---------------------|----------------------|
D||----------------6-6--|---------1------------|
A||-----------------3-3-|-1-1---13----1---3----|
E||-1-1---3--4---4------|----------------------|
    i    i    i    i      i    i    i    i
---

G||--------------------|--------------------|
D||-----------------1--|--------------------|
A||-3------------------|----------------1--3|
E||--------------------|--------------------|
    i    i    i    i     i    i    i    i

Verse 2

G||--------------------|--------------------|
D||--------------------|--------------------|
A||-4-----1------------|-4-----1------------|
E||---------1--1--x4---|---------1--1--14---|
    i    i    i    i     i    i    i    i
G||--------------------|--------------------|
D||------------3-------|------------3--x31--|
A||-4-----1--------3---|-4-----1----------3-|
E||---------1----------|---------1----------|
    i    i    i    i     i    i    i    i
G||--------------------|--------------------|
D||--------------------|--------------------|
A||-4-----1------------|-4-----1-------x1-3-|
E||---------1--1--x4---|---------1--1-------|
    i    i    i    i     i    i    i    i
G||--------------------|--------------------|
D||--------------------|------------3--x31--|
A||-4------------------|-4-----1----------3-|
E||-------4-1--1--x4---|---------1----------|
    i    i    i    i     i    i    i    i

Pre-Chorus 2

G||--------------------|--------------------|
D||----------------3-3-|----------------3-3-|
A||-4--4--4-4--4--4-4-4|-5-5---5-5--5--5-5--|
E||--------------------|--------------------|
    i    i    i    i     i    i    i    i
G||----------------5-5-|---55-53------------|
D||-6-6---6-6--6--6-6-6|-5------65--5-------|
A||--------------------|--------------------|
E||--------------------|--------------------|
    i    i    i    i     i    i    i    i

Chorus 2

G||---------------------|-----------------------|
D||----------------6-6--|-----------------------|
A||-----------------3-3-|-1-1----86-----6---6---|
E||-1-1---3-4---4-------|-----------------------|
    i    i    i    i      i    i      i    i
G||---------------------|---------------------|
D||----------------6-6--|---------1---1---013-|
A||-----------------3-3-|-1-1---13------------|
E||-1-1---3-4---4-------|---------------------|
    i    i    i    i      i    i    i    i
G||---------------------|-----------------------|
D||----------------6-6--|-----------------------|
A||---3-------------3-3-|-1-1----86-----6---6---|
E||------1-3--4--4------|-----------------------|
    i    i    i    i      i    i      i    i
G||---------------------|----------------------|
D||----------------6----|---------1---3---5----|
A||-----------------32--|-1-1---13-------------|
E||-1-1---3--4---4------|----------------------|
    i    i    i    i      i    i    i    i

Interlude

G||--------------------|--------------------|
D||-----------------1--|--------------------|
A||-3------------------|--------------------|
E||--------------------|--------------------|
    i    i    i    i     i    i    i    i
G||--------------------|--------------------||
D||-----------------1--|--------------------||
A||-3------------------|----------------1--1||
E||--------------------|--------------------||
    i    i    i    i     i    i    i    i
                                              x2
G||--------------------|--------------------||
D||------------------1-|--------------------||
A||-3-----------1------|----------------1--1||
E||----------------3---|--------------------||
    i    i    i    i     i    i    i    i
G||--------------------|--------------------|
D||------------------1-|------3----5--------|
A||-3-----------1------|----------------1--1|
E||----------------3---|--------------------|
    i    i    i    i     i    i    i    i
G||--------------------|--------------------|
D||------------------1-|--------35----------|
A||-3-----------1------|--------------------|
E||----------------3---|--------------------|
    i    i    i    i     i    i    i    i

Chorus 3

G||---------------------|-----------------------|
D||----------------6-6--|-----------------------|
A||-----------------3-3-|-1-1----86-----6---6---|
E||-1-1---3-4---4-------|-----------------------|
    i    i    i    i      i    i      i    i
G||---------------------|---------------------|
D||----------------6-6--|---------1---1---013-|
A||-----------------3-3-|-1-1---13------------|
E||-1-1---3-4---4-------|---------------------|
    i    i    i    i      i    i    i    i
G||---------------------|-----------------------|
D||----------------6-6--|-----------------------|
A||---3-------------3-3-|-1-1----86-----6---6---|
E||------1-3--4--4------|-----------------------|
    i    i    i    i      i    i      i    i
G||---------------------|----------------------|
D||----------------6----|---------1------------|
A||-----------------32--|-1-1---13----1--------|
E||-1-1---3--4---4------|-----------------3----|
    i    i    i    i      i    i    i    i
---

G||---------------------|-----------------------|
D||----------------6-6--|-----------------------|
A||-----------------3-3-|-1-1----86-----6---6---|
E||-1-1---3-4---4-------|-----------------------|
    i    i    i    i      i    i      i    i
G||---------------------|---------------------|
D||----------------6-6--|---------1---1---013-|
A||-----------------3-3-|-1-1---13------------|
E||-1-1---3-4---4-------|---------------------|
    i    i    i    i      i    i    i    i
G||---------------------|-----------------------|
D||----------------6-6--|-----------------------|
A||---3-------------3-3-|-1-1----86-----6---6---|
E||------1-3--4--4------|-----------------------|
    i    i    i    i      i    i      i    i
G||---------------------|----------------------|
D||----------------6-6--|---------1---3---6----|
A||-----------------3-3-|-1-1---13-------------|
E||-1-1---3--4---4------|----------------------|
    i    i    i    i      i    i    i    i


Tab by Pedro Zappa
-----------------------------------------------------------------------------
-----------------------------------------------------------------------------


2. Qwerty Finger


Intro

G||--------------------|--------------------|
D||--------------------|--------------------|
A||--------------------|------------------7-|
E||--------------------|--------------------|
    i    i    i    i     i    i    i    i
G||--------------------|--------------------|
D||--------------------|--------------------|
A||---9--9-9--9-7----7-|---9--9-9--9-7----7-|
E||--------------------|--------------------|
    i    i    i    i     i    i    i    i
G||--------------------|--------------------|
D||--------------------|--------------------|
A||---9--9-9--9-7----7-|---9--9-7--9-9--7-9-|
E||--------------------|--------------------|
    i    i    i    i     i    i    i    i
G||--------------------|--------------------|
D||--------------------|--------------------|
A||---7--9-9--9-7----7-|---9--9-9--9-7----7-|
E||--------------------|--------------------|
    i    i    i    i     i    i    i    i
G||--------------------|--------------------|
D||--------------------|--------------------|
A||---9--9-9--9-7----7-|---9--9-7--7-7--7-7-|
E||--------------------|--------------------|
    i    i    i    i     i    i    i    i

Verse 1 

G||--------------------|--------------------|
D||--------------------|--------------------|
A||---7--9-9--9-7----7-|---9--9-9--9-7----7-|
E||--------------------|--------------------|
    i    i    i    i     i    i    i    i
G||--------------------|--------------------||  X2
D||--------------------|--------------------||
A||---9--9-9--9-7----7-|---9--9-9--9-7----7-||
E||--------------------|--------------------||
    i    i    i    i     i    i    i    i
G||--------------------|-----------9-9--9-9-|
D||--------------------|--------------------|
A||---9--9-9--9-7----7-|---9--9-7-----------|
E||--------------------|--------------------|
    i    i    i    i     i    i    i    i

G||--------------------|--------------------|
D||--------------------|--------------------|
A||---7--9-9--9-7----7-|---9--9-9--9-7----7-|
E||--------------------|--------------------|
    i    i    i    i     i    i    i    i
G||--------------------|--------------------|
D||--------------------|--------------------|
A||---9--9-9--9-7----7-|---9--9-7--9-9--7-9-|
E||--------------------|--------------------|
    i    i    i    i     i    i    i    i
G||--------------------|--------------------|
D||--------------------|--------------------|
A||---7--9-9--9-7----7-|---9--9-9--9-7----7-|
E||--------------------|--------------------|
    i    i    i    i     i    i    i    i
G||--------------------|--------------------||
D||--------------------|--------------------||
A||---9--9-9--9-7----7-|---9--0-------------||
E||--------------------|-----------2--------||
    i    i    i    i     i    i    i    i

Chorus 1

G||--------------------|--------------------|
D||-7-7--7-7----9------|--------------------|
A||--------------------|-5-5--5-5-------7---|
E||----------------8---|-------------8------|
    i    i    i    i     i    i    i    i
G||--------------------|--------------------|
D||--------------------|-----------6-5--6---|
A||-8-8--8-8--7--------|-8-7--8-------------|
E||-------------8--5---|--------------------|
    i    i    i    i     i    i    i    i      
G||--------------------|--------------------|
D||-7-7--7-7--7-9------|--------------------|
A||--------------------|-5-5--5-5-------7---|
E||----------------8---|-------------8------|
    i    i    i    i     i    i    i    i
G||--------------------|--------------------|
D||--------------------|-----------6-5--6---|
A||-8-8--8-8--7--------|-8-7--8-8-----------|
E||-------------8--5-5-|--------------------|
    i    i    i    i     i    i    i    i 
---

G||--------------------|--------------------|
D||-7-7----------------|-5-5----------------|
A||------7-7-----------|------8-8--7-5------|
E||-----------8-7--5---|----------------8---|
    i    i    i    i     i    i    i    i 
G||--------------------|--------------------|
D||--------------------|-----------6-5--6---|
A||-8-8--8-8--7--------|-8-7--8-8-----------|
E||-------------8--5---|--------------------|
    i    i    i    i     i    i    i    i 
G||--------------------|--------------------|
D||-7-7--7-7--7-9------|--------------------|
A||--------------------|-5-5--5-5-------7---|
E||----------------8---|-------------8------|
    i    i    i    i     i    i    i    i
G||--------------------|-----------9--------|
D||--------------------|------7-------------|
A||---8--7-7--5-5----7/|-8-8----8---------7-|
E||----------------8---|--------------------|
    i    i    i    i     i    i    i    i 

Interlude

G||--------------------|--------------------|
D||--------------------|--------------------|
A||---9--9-9--9-7----7-|---9--9-9--9-7----7-|
E||--------------------|--------------------|
    i    i    i    i     i    i    i    i
G||--------------------|--------------------|
D||--------------------|--------------------|
A||---9--9-9--9-7----7-|---9--9-7--9-9--7-9-|
E||--------------------|--------------------|
    i    i    i    i     i    i    i    i
G||--------------------|--------------------|
D||--------------------|--------------------|
A||---7--9-9--9-7----7-|---9--9-9--9-7----7-|
E||--------------------|--------------------|
    i    i    i    i     i    i    i    i
G||--------------------|-----------9-9--9---|
D||--------------------|--------------------|
A||---9--9-9--9-7----7-|---9--9-7-----------|
E||--------------------|------------------0-|
    i    i    i    i     i    i    i    i

Verse 2

G||--------------------|--------------------||  x3
D||--------------------|--------------------||
A||--------------------|--------------------||
E||---2--2-2--2-0----0-|---2--2-2--2-0----0-||
    i    i    i    i     i    i    i    i
G||--------------------|--------------------|
D||--------------------|--------------------|
A||--------------------|-----------7----7-7-|
E||---2--2-2--2-0----0-|---2--2-0----0------|
    i    i    i    i     i    i    i    i
---

G||--------------------|--------------------|
D||--------------------|--------------------|
A||---9--9-9--9-7----7-|---9--9-9--9-7----7-|
E||--------------------|--------------------|
    i    i    i    i     i    i    i    i
G||--------------------|--------------------|
D||--------------------|--------------------|
A||---9--9-9--9-7----7-|---9--9-7--9-9--7-9-|
E||--------------------|--------------------|
    i    i    i    i     i    i    i    i
G||--------------------|--------------------|
D||--------------------|--------------------|
A||---7--9-9--9-7----7-|---9--9-9--9-7----7-|
E||--------------------|--------------------|
    i    i    i    i     i    i    i    i
G||--------------------|--------------------||
D||--------------------|--------------------||
A||---9--9-9--9-7----7-|---9--0-------------||
E||--------------------|-----------2--------||
    i    i    i    i     i    i    i    i

Chorus 2

G||--------------------|--------------------|
D||-7-7--7-7----9------|--------------------|
A||--------------------|-5-5--5-5-------7---|
E||----------------8---|-------------8------|
    i    i    i    i     i    i    i    i
G||--------------------|--------------------|
D||--------------------|-----------6-5--6---|
A||-8-8--8-8--7--------|-8-7--8-------------|
E||-------------8--5---|--------------------|
    i    i    i    i     i    i    i    i      
G||--------------------|--------------------|
D||-7-7--7-7--7-9------|--------------------|
A||--------------------|-5-5--5-5-------7---|
E||----------------8---|-------------8------|
    i    i    i    i     i    i    i    i
G||--------------------|--------------------|
D||--------------------|-----------6-5--6---|
A||-8-8--8-8--7--------|-8-7--8-8-----------|
E||-------------8--5-5-|--------------------|
    i    i    i    i     i    i    i    i 
---

G||--------------------|--------------------|
D||-7-7----------------|-5-5----------------|
A||--------7-----------|------8-8--7-5------|
E||-----------8-7--5---|----------------8---|
    i    i    i    i     i    i    i    i 
G||--------------------|--------------------|
D||--------------------|-----------6-5--6---|
A||-8-8--8-8--7--------|-8-7--8-8-----------|
E||-------------8--5---|--------------------|
    i    i    i    i     i    i    i    i 
G||--------------------|--------------------|
D||-7-7--7-7--7-9------|--------------------|
A||--------------------|-5-5--5-5-------7---|
E||----------------8---|-------------8------|
    i    i    i    i     i    i    i    i
G||--------------------|-----------9--------|
D||--------------------|------7-------------|
A||-8-8--7-7--5-5----8-|---8----8-----------|
E||----------------8---|--------------------|
    i    i    i    i     i    i    i    i 

Bridge

(wait)

G||--------------------|--------------------|
D||--------------------|--------------------|
A||--------------------|-----------0-2--4-5-|
E||--------------------|--------------------|
    i    i    i    i     i    i    i    i
G||--------------------|--------------------|
D||--------------------|--------------------|
A||-----------5----5-4-|-----------4----4-7-|
E||--------------------|--------------------|
    i    i    i    i     i    i    i    i
G||--------------------|--------------------|
D||--------------------|--------------------|
A||-----------7----7-9-|-----------9-7--4-5-|
E||--------------------|--------------------|
    i    i    i    i     i    i    i    i
G||--------------------|--------------------|
D||--------------------|--------------------|
A||-----------5----5-4-|-----------4----4-7-|
E||--------------------|--------------------|
    i    i    i    i     i    i    i    i
G||------9-------------|--------------------|
D||--------------------|------7-------------|
A||-----------7----7-9-|---9----9--7-2--4-5-|
E||--------------------|--------------------|
    i    i    i    i     i    i    i    i
---

G||--------------------|--------------------|
D||--------------------|--------------------|
A||------5----5----5-4-|------4----4----4-0-|
E||--------------------|--------------------|
    i    i    i    i     i    i    i    i
G||--------------------|--------------------|
D||--------------------|--------------------|
A||------0----0----0-9-|------9----9-7--4-5-|
E||--------------------|--------------------|
    i    i    i    i     i    i    i    i
G||--------------------|--------------------|
D||--------------------|--------------------|
A||------5----5----5-4-|------4----4----4-0-|
E||--------------------|--------------------|
    i    i    i    i     i    i    i    i
G||--------------------|--------------------|
D||--------------------|--------------------|
A||------0----0----0-7-|---9--9-9--9-2--4-5-|
E||--------------------|--------------------|
    i    i    i    i     i    i    i    i
---

G||--------------------|--------------------|
D||------7-------------|--------------------|
A||---5----5--5-5--5-4-|---4--4-4--4-4--4-0-|
E||--------------------|--------------------|
    i    i    i    i     i    i    i    i
G||--------------------|--------------------||
D||--------------------|--------------------||
A||---0--0-0--0-0--0-7-|---9--9-9--9-2--4-5-||
E||--------------------|--------------------||
    i    i    i    i     i    i    i    i
---

G||--------------------|--------------------|
D||------7-------------|--------------------|
A||---5----5--5-5--5-4-|---4--4-4--4-4--4-0-|
E||--------------------|--------------------|
    i    i    i    i     i    i    i    i
G||--------------------|--------------------||  x3
D||--------------------|------7-------------||
A||---0--0-0--0-0--0-7-|---9----9--7-2--4-5-||
E||--------------------|--------------------||
    i    i    i    i     i    i    i    i
---

G||--------------------|--------------------|
D||--------------------|--------------------|
A||---5--5-5--5-5--5-4-|---4--4-4--4-4--4-0-|
E||--------------------|--------------------|
    i    i    i    i     i    i    i    i
G||--------------------|--------------------||
D||--------------------|--------------------||
A||---0--0-0--0-0--0---|-------------2--4-5-||
E||------------------2-|---2--2-2--2--------||
    i    i    i    i     i    i    i    i
G||--------------------|--------------------|
D||--------------------|--------------------|
A||---5--5-5--5-5--5-4-|---4--4-4--4-4--4-0-|
E||--------------------|--------------------|
    i    i    i    i     i    i    i    i
G||--------------------|--------------------||
D||--------------------|--------------------||
A||---0--0-0--0-0--0---|--------------------||
E||------------------2-|---2----2----2----2-||
    i    i    i    i     i    i    i    i

Outro

G||--------------------|--------------------|
D||--------------------|--------------------|
A||---9--9-9--9-7----7-|---9--9-9--9-7----7-|
E||--------------------|--------------------|
    i    i    i    i     i    i    i    i
G||--------------------|--------------------|
D||--------------------|--------------------|
A||---9--9-9--9-7----7-|---9--9-7--9-9--7-9-|
E||--------------------|--------------------|
    i    i    i    i     i    i    i    i
G||--------------------|--------------------|
D||--------------------|--------------------|
A||---7--9-9--9-7----7-|---9--9-9--9-7----7-|
E||--------------------|--------------------|
    i    i    i    i     i    i    i    i
G||--------------------|-----------9-9--8-9-|
D||--------------------|--------------------|
A||---9--9-9--9-7----7-|---9--9-7-----------|
E||--------------------|--------------------|
    i    i    i    i     i    i    i    i

(wait)

G||------2-1-----------||
D||--------------------||
A||--------------------||
E||-----------2--------||
    i    i    i    i   


Tab by Pedro Zappa
-----------------------------------------------------------------------------
-----------------------------------------------------------------------------


3. Schoolin'


Intro/Verse

G||---------------------|--------------------||  x3
D||-7--9--10------------|--------------------||
A||---------------------|--------------------||
E||---------------------|--------------------||
    i    i    i    i      i    i    i    i

G||----------------------|--------------------|
D||-7--9--10----------9--|--------------------|
A||--------------------10|-7-------77---------|
E||----------------------|--------------------|
    i    i    i    i       i    i    i    i
G||--------------------|--------------------||  x2
D||--------------------|--------------------||
A||-5------55----------|-8------8-----------||
E||--------------------|--------------------||
    i    i    i    i     i    i    i    i

Chorus 1

G||--------------------|--------------------|
D||--------------------|-5------------------|
A||-6------------------|--------------------|
E||--------------------|--------------------|
    i    i    i    i     i    i    i    i
G||--------------------|--------------------------------|
D||-8------------------|-10.10.10.12---10.10-10.12\-----|
A||--------------------|--------------------------------|
E||--------------------|--------------------------------|
    i    i    i    i     i           i       i      i
G||--------------------|--------------------|
D||--------------------|-5---------------7--|
A||-6------------------|--------------------|
E||--------------------|--------------------|
    i    i    i    i     i    i    i    i
G||----------------------12-|----------------------------------------|
D||-8---------------10.12---|-10.10.10.12---10.10-10.12---12.12.12.12|
A||-------------------------|----------------------------------------|
E||-------------------------|----------------------------------------|
    i    i    i     i         i           i       i       i
G||---------------------------|--------------------|
D||-12.13.12.10-5-------5--3--|--------------------|
A||---------------6-----------|--------------------|
E||---------------------------|-3------------------|
    i           i    i    i     i    i    i    i
G||--------------------|---------------------------|
D||--------------------|----------------12.12.12.12|
A||------------------0-|-3335---33-35--------------|
E||-6------------------|---------------------------|
    i    i    i    i     i    i    i    i
G||---------------------------|--------------------|
D||-12.13.12.10-5-------5--3--|--------------------|
A||---------------6-----------|--------------------|
E||---------------------------|-3---------------x5-|
    i           i    i    i     i    i    i    i
G||--------------------|--------------------------|
D||------------------5-|---------------10.12.10---|
A||----------------35--|-3335---33-35----------12\|
E||-6------------------|--------------------------|
    i    i    i    i     i    i    i      i

Verse 2

G||----------------------|--------------------|
D||-7--9--10----------9--|--------------------|
A||--------------------10|-7-------77---------|
E||----------------------|--------------------|
    i    i    i    i       i    i    i    i
G||--------------------|--------------------||  x2
D||--------------------|--------------------||
A||-5------55----------|-8------8-----------||
E||--------------------|--------------------||
    i    i    i    i     i    i    i    i
G||--------------------|--------------------|
D||--------------------|--------------------|
A||-0--2--3----------2-|--------------------|
E||-------------------3|-0------00----------|
    i    i    i    i     i    i    i    i
G||--------------------|--------------------|
D||--------------------|-3--5---7-----------|
A||-5------55--------3-|--------------------|
E||--------------------|--------------------|
    i    i    i    i     i    i    i    i
G||--------------------|--------------------|
D||--------------------|--------------------|
A||-0--2--3----------2-|--------------------|
E||-------------------3|-0------00----------|
    i    i    i    i     i    i    i    i
G||--------------------|--------------------||
D||--------------------|--------------------||
A||-5------55----------|--------------------||
E||--------------------|-1------1-----------||
    i    i    i    i     i    i    i    i

Chorus 2

G||--------------------|--------------------|
D||--------------------|-5---------------7--|
A||-6------------------|--------------------|
E||--------------------|--------------------|
    i    i    i    i     i    i    i    i
G||--------------------|--------------------------------|
D||-8------------------|-10.10.10.12---10.10-10.12\-----|
A||--------------------|--------------------------------|
E||--------------------|--------------------------------|
    i    i    i    i     i           i       i      i
G||--------------------|--------------------|
D||--------------------|-5---------------7--|
A||-6------------------|--------------------|
E||--------------------|--------------------|
    i    i    i    i     i    i    i    i
G||---------------------12-|----------------------------------------|
D||-8--------------10.12---|-10.10.10.12---10.10-10.12---12.12.12.12|
A||------------------------|----------------------------------------|
E||------------------------|----------------------------------------|
    i    i    i    i         i           i       i       i
G||---------------------------|--------------------|
D||-12.13.12.10-5-------5--3--|--------------------|
A||---------------6-----------|--------------------|
E||---------------------------|-3---------------5--|
    i           i    i    i     i    i    i    i
G||--------------------|---------------------------|
D||--------------------|----------------12.12.12.12|
A||--------------------|-3335---33-35--------------|
E||-6------------------|---------------------------|
    i    i    i    i     i    i    i    i
G||---------------------------|--------------------|
D||-12.13.12.10-5-------5--3--|--------------------|
A||---------------6-----------|--------------------|
E||---------------------------|-3---------------x5-|
    i           i    i    i     i    i    i    i
G||--------------------|--------------------|
D||------------------5-|--------------------|
A||----------------35--|-3335---33-35-------|
E||-6------------------|--------------------|
    i    i    i    i     i    i    i    i
G||--------------------|---------------------------|
D||--------------------|---------------------------|
A||--------------------|---------------------------|
E||--------------------|----------------15.15.15.15|
    i    i    i    i     i    i    i    i
G||--------------------|
D||--------------------|
A||--------------------|
E||-0------------------|
    i    i    i    i    

Outro

G||------------------------|--------------7-9--7|
D||-----------10.9.10------|-----------9--------|
A||-0--------------------7-|--------------------|
E||------------------------|--------------------|
    i    i    i        i     i    i    i    i
G||-------------4------|--------------------|
D||-9--5------45-----2-|--2---2----9-9--75--|
A||--------------------|------------------7-|
E||--------------------|--------------------|
    i    i    i    i     i    i    i    i
G||------------------------|--------------7-9--7|
D||-7---------10.9.10------|-----------9--------|
A||----------------------7-|--------------------|
E||------------------------|--------------------|
    i    i    i        i     i    i    i    i
G||-------------4------|--------------------|
D||-9--5------45-----2-|--2---2----9-9--75--|
A||--------------------|------------------7-|
E||--------------------|--------------------|
    i    i    i    i     i    i    i    i
---Vocals

G||------------------------|--------------7-9--7|
D||-7---------10.9.10------|-----------9--------|
A||----------------------7-|--------------------|
E||------------------------|--------------------|
    i    i    i        i     i    i    i    i
G||-------------4------|--------------------|
D||-9--5------45-----2-|--2---2----9-9--75--|
A||--------------------|------------------7-|
E||--------------------|--------------------|
    i    i    i    i     i    i    i    i
G||------------------------|--------------7-9--7|
D||-7---------10.9.10------|-----------9--------|
A||----------------------7-|--------------------|
E||------------------------|--------------------|
    i    i    i        i     i    i    i    i
G||-------------4------|--------------------|
D||-9--5------45-----2-|--2---2-------------|
A||--------------------|-----------2-2--0---|
E||--------------------|-----------------30-|
    i    i    i    i     i    i    i    i
---

G||------------------------|--------------7-9--7|
D||-----------10.9.10------|-----------9--------|
A||-0--------------------7-|--------------------|
E||------------------------|--------------------|
    i    i    i        i     i    i    i    i
G||-------------4------|--------------------|
D||-9--5------45-----2-|--2---2----9-9--75--|
A||--------------------|------------------7-|
E||--------------------|--------------------|
    i    i    i    i     i    i    i    i

G||------------------------|--------------7-9--7|
D||-7-------9-10.9.--------|-----------9--------|
A||----------------10--9-7\|------7-------------|
E||------------------------|-------0------------|
    i    i    i        i     i    i    i    i
G||-------------4------|--------------------|
D||-9--5------45-----2-|--2---2----9-9--75--|
A||--------------------|------------------7-|
E||--------------------|--------------------|
    i    i    i    i     i    i    i    i
---Vocals

G||------------------------|--------------7-9--7|
D||-7---------10.9.10------|-----------9--------|
A||----------------------7-|--------------------|
E||------------------------|--------------------|
    i    i    i        i     i    i    i    i
G||-------------4------|--------------------|
D||-9--5------45-----2-|--2---2----9-9--75--|
A||--------------------|------------------7-|
E||--------------------|--------------------|
    i    i    i    i     i    i    i    i

G||------------------------|--------------7-9--7|
D||-7-------9-10.9.--------|-----------9--------|
A||----------------10--9-7\|------7-------------|
E||------------------------|-------0------------|
    i    i    i        i     i    i    i    i
G||-------------4--7---|--------------------|
D||-9--5------45-----2-|--2---2-------------|
A||--------------------|-----------2-2--0---|
E||--------------------|-----------------30-|
    i    i    i    i     i    i    i    i


Tab by Pedro Zappa
-----------------------------------------------------------------------------
-----------------------------------------------------------------------------


4. Leave The Engine Room


Intro

(wait)

Verse

(wait)

Pre-Chorus 1

G||--------------------|--------------------|
D||-4------------------|-6------------------|
A||----------------6---|--------------------|
E||--------------------|--------------------|
    i    i    i    i     i    i    i    i
G||--------------------|--------------------|
D||-4------------------|-6------------------|
A||----------------6---|-----------6--------|
E||--------------------|--------------------|
    i    i    i    i     i    i    i    i
---

G||-----------3--------|--------------------|
D||--------------------|-4------------------|
A||-2------------------|--------------------|
E||--------------------|--------------------|
    i    i    i    i     i    i    i    i
G||--------------------|--------------------|
D||-----------3--------|--------------------|
A||--------------------|-4------------------|
E||--------------------|--------------------|
    i    i    i    i     i    i    i    i
G||-----------3--------|--------------------|
D||--------------------|-4------------------|
A||-2------------------|--------------------|
E||--------------------|--------------------|
    i    i    i    i     i    i    i    i
G||--------------------|--------------------|--------------------|
D||-----------3--------|--------------------|--------------------|
A||--------------------|-4----------6-------|-4------------------|
E||--------------------|--------------------|----------46---46---|
    i    i    i    i     i    i    i    i     i    i    i    i

Chorus 1

G||--------------------|--------------------|--------------------|
D||--------------------|--------------------|--------------------|
A||--------------------|--------------------|-6------------------|
E||-4------------------|-6------------------|--------------------|
    i    i    i    i     i    i    i    i     i    i    i    i
G||--------------------|--------------------|--------------------|
D||--------------------|--------------------|--------------------|
A||--------------------|--------------------|-9------------------|
E||-4------------------|-6------------------|----------------9---|
    i    i    i    i     i    i    i    i     i    i    i    i
G||--------------------|--------------------|--------------------|
D||--------------------|--------------------|--------------------|
A||--------------------|--------------------|-6--------------4---|
E||-4------------------|-6------------------|--------------------|
    i    i    i    i     i    i    i    i     i    i    i    i
G||--------------------|--------------------|--------------------|
D||--------------------|--------------------|----------------6---|
A||--------------------|--------------------|-9-----------8------|
E||-4------------------|-6------------------|--------------------|
    i    i    i    i     i    i    i    i     i    i    i    i

G||-----------6--------|-----------6--------|-----------6--------|
D||--------------------|--------------------|--------------------|
A||-4--------------4---|--------------------|--------------------|
E||--------------------|-7--------------7---|-5--------------5---|
    i    i    i    i     i    i    i    i     i    i    i    i    
G||-----------6--------|-----------6--------|--------------------|
D||--------------------|--------------------|--------------------|
A||-4--------------4---|--------------------|--------------------|
E||--------------------|-7--------------7---|-5---------5-4--2---|
    i    i    i    i     i    i    i    i     i    i    i    i    

(wait)

G||--------------------|
D||-----------4-3--6---|
A||--------------------|
E||--------------------|
    i    i    i    i    
G||-----------6--------|-----------6--------|-----------6--------|
D||--------------------|--------------------|--------------------|
A||-4--------------4---|--------------------|--------------------|
E||--------------------|-7--------------7---|-5--------------5---|
    i    i    i    i     i    i    i    i     i    i    i    i    
G||-----------6--------|--------------------|--------------------|
D||----------------8---|-6---------6----6---|-4---------4-3--6-3-|
A||--------------------|--------------------|--------------------|
E||-6------------------|--------------------|--------------------|
    i    i    i    i     i    i    i    i     i    i    i    i    
G||-----------8--------|-----------8--------|
D||-6--------------6---|--------------------|
A||--------------------|-9--------------9---|
E||--------------------|--------------------|
    i    i    i    i     i    i    i    i   
G||-----------8--------|--------------------|--------------------|
D||-6--------------6---|--------------------|-6---------8--------|
A||--------------------|-9---------9----9---|--------------------|
E||--------------------|--------------------|--------------------|
    i    i    i    i     i    i    i    i     i    i    i    i   

Pre-Chorus 2

G||-----------3--------|--------------------|
D||--------------------|-4------------------|
A||-2------------------|--------------------|
E||--------------------|--------------------|
    i    i    i    i     i    i    i    i
G||--------------------|--------------------|
D||-----------3--------|--------------------|
A||--------------------|-4------------------|
E||--------------------|--------------------|
    i    i    i    i     i    i    i    i
G||-----------3--------|--------------------|
D||--------------------|-4------------------|
A||-2------------------|--------------------|
E||--------------------|--------------------|
    i    i    i    i     i    i    i    i
G||--------------------|------------6-8\----|
D||-----------3--------|---------6----------|
A||--------------------|-4------------------|
E||--------------------|--------------------|
    i    i    i    i     i    i    i    i    
G||-----------3--------|--------------------|
D||--------------------|-4------------------|
A||-2------------------|--------------------|
E||--------------------|--------------------|
    i    i    i    i     i    i    i    i
G||--------------------|--------------------|--------------------|
D||-----------3--------|--------------------|--------------------|
A||--------------------|-4-----------6------|-4------------------|
E||--------------------|--------------------|----------46----2---|
    i    i    i    i     i    i    i    i     i    i    i    i 

Chorus 2

G||--------------------|--------------------|--------------------|
D||--------------------|--------------------|--------------------|
A||--------------------|--------------------|-6------------------|
E||-4------------------|-6------------------|--------------------|
    i    i    i    i     i    i    i    i     i    i    i    i
G||--------------------|--------------------|--------------------|
D||--------------------|--------------------|--------------------|
A||--------------------|--------------------|-9------------------|
E||-4------------------|-6------------------|--------------------|
    i    i    i    i     i    i    i    i     i    i    i    i
G||--------------------|--------------------|--------------------|
D||--------------------|--------------------|--------------------|
A||--------------------|--------------------|-6--------------4---|
E||-4------------------|-6------------------|--------------------|
    i    i    i    i     i    i    i    i     i    i    i    i
G||--------------------|--------------------|--------------------||
D||--------------------|--------------------|----------------6---||
A||--------------------|--------------------|-9-----------8------||
E||-4------------------|-6------------------|--------------------||
    i    i    i    i     i    i    i    i     i    i    i    i


Tab by Pedro Zappa
-----------------------------------------------------------------------------
-----------------------------------------------------------------------------


5. Final Form


(wait)

Pre-Chorus 1

G||--------------------|--------------------|
D||-5------------------|-4------------------|
A||--------------------|--------------------|
E||--------------------|--------------------|
    i    i    i    i     i    i    i    i
G||--------------------|--------------------|
D||--------------------|--------------------|
A||-5------------------|-4------------------|
E||--------------------|--------------------|
    i    i    i    i     i    i    i    i
G||--------------------|--------------------|
D||-5------------------|-4------------------|
A||--------------------|--------------------|
E||--------------------|--------------------|
    i    i    i    i     i    i    i    i
G||--------------------|--------------------|
D||--------------------|--------------------|
A||--------------------|--------------------|
E||--------------------|--------------------|
    i    i    i    i     i    i    i    i

Chorus 1

G||--------------------|--------------------|
D||--------------------|--------------------|
A||------3------2------|-0-------0----------|
E||--------------------|--------0----0---2--|
    i    i    i    i     i    i    i    i
G||--------------------|--------------------|
D||--------------------|--------------------|
A||--------------------|------3------2------|
E||-3------x2---2---3--|--------------------|
    i    i    i    i     i    i    i    i
G||--------------------|--------------------|
D||--------------------|--------------------|
A||-0-------0----------|--------------------|
E||--------0----0---2--|-3------x3---2---3--|
    i    i    i    i     i    i    i    i
G||--------------------|--------------------|
D||--------------------|--------------------|
A||------3------2----x-|-7-------7----------|
E||--------------------|--------7----0---2--|
    i    i    i    i     i    i    i    i
G||--------------------|--------------------|
D||--------------------|--------------------|
A||--------------------|------3------2------|
E||-3------x2---2---3--|--------------------|
    i    i    i    i     i    i    i    i
G||--------------------|--------------------|
D||--------------------|--------------------|
A||-0-------0----------|--------------------|
E||--------0----0---2--|-3------x2---2---2--|
    i    i    i    i     i    i    i    i
G||--------------------|--------------------|
D||--------------------|--------------------|
A||------3------2------|--------------------|
E||------------------x-|-5\---0------0---2--|
    i    i    i    i     i    i    i    i
G||--------------------|--------------------|
D||--------------------|--------------------|
A||--------------------|--------------------|
E||-3------x2---2---3--|-5------------------|
    i    i    i    i     i    i    i    i

Verse

(wait) "I can't move my legs and arms"

G||--------------------|--------------------|
D||--------------------|--------------------|
A||--------------------|-3------------------|
E||----------------0---|--------------------|
    i    i    i    i     i    i    i    i
G||--------------------|--------------------|--------------------|
D||--------------------|--------------------|--------------------|
A||----------------7---|-9------------------|--\7----------------|
E||--------------------|--------------------|--------------------|
    i    i    i    i     i    i    i    i     i    i    i    i

(wait) "and each of us have separate souls"

G||--------------------|--------------------|
D||--------------------|--------------------|
A||--------------------|-3------------------|
E||----------------0---|--------------------|
    i    i    i    i     i    i    i    i
G||--------------------|--------------------|--------------------|
D||--------------------|--------------------|--------------------|
A||----------------7---|-9------------------|--\7----------------|
E||--------------------|--------------------|--------------------|
    i    i    i    i     i    i    i    i     i    i    i    i

Pre-Chorus 2

G||--------------------|--------------------|
D||-5------------------|-4------------------|
A||--------------------|--------------------|
E||--------------------|--------------------|
    i    i    i    i     i    i    i    i
G||--------------------|--------------------|
D||--------------------|--------------------|
A||-5------------------|-4------------------|
E||--------------------|--------------------|
    i    i    i    i     i    i    i    i
G||--------------------|--------------------|
D||-5------------------|-4------------------|
A||--------------------|--------------------|
E||--------------------|--------------------|
    i    i    i    i     i    i    i    i
G||--------------------|--------------------|
D||--------------------|--------------------|
A||--------------------|--------------------|
E||--------------------|--------------------|
    i    i    i    i     i    i    i    i

Chorus 2

G||--------------------|--------------------|
D||--------------------|--------------------|
A||------3------2------|-0-------0----------|
E||--------------------|--------0----0---2--|
    i    i    i    i     i    i    i    i
G||--------------------|--------------------|
D||--------------------|--------------------|
A||--------------------|------3------2------|
E||-3------x2---2---3--|--------------------|
    i    i    i    i     i    i    i    i
G||--------------------|--------------------|
D||--------------------|--------------------|
A||-0-------0----------|--------------------|
E||--------0----0---2--|-3------x2---2---3--|
    i    i    i    i     i    i    i    i
G||--------------------|--------------------|
D||--------------------|--------------------|
A||------3------2----x-|-7-------7----------|
E||--------------------|--------7----0---2--|
    i    i    i    i     i    i    i    i
G||--------------------|--------------------|
D||--------------------|--------------------|
A||-------------0---2--|------3------2------|
E||-3------x2----------|--------------------|
    i    i    i    i     i    i    i    i
G||--------------------|--------------------|
D||--------------------|--------------------|
A||-0-------0----------|--------------------|
E||--------0----0---2--|-3------x2---2---2--|
    i    i    i    i     i    i    i    i
G||--------------------|--------------------|
D||--------------------|--------------------|
A||------3------2------|--------------------|
E||--------------------|-5------x5\--0--0-2-|
    i    i    i    i     i    i    i    i
G||--------------------|--------------------|
D||--------------------|--------------------|
A||--------------------|--------------------|
E||-3------x2---2---3--|-5------------------|
    i    i    i    i     i    i    i    i

(wait)

Outro

G||--------------------|--------------------|
D||-5555-4442-2--------|------0002-2244-4444|
A||------------222-2222|-3333---------------|
E||--------------------|--------------------|
    i    i    i    i     i    i    i    i
G||--------------------|--------------------||  x2
D||--------------------|-----2224--4477-7777||
A||-4444-2220-0022-2222|-4444---------------||
E||--------------------|--------------------||
    i    i    i    i     i    i    i    i
G||--------------------|--------------------|
D||-5555-5555-5555-5555|-4444-4444-4444-4444|
A||--------------------|--------------------|
E||--------------------|--------------------|
    i    i    i    i     i    i    i    i
G||--------------------|--------------------|
D||--------------------|--------------------|
A||-5555-5555-5555-5555|-4444-4444-4444-4444|
E||--------------------|--------------------|
    i    i    i    i     i    i    i    i
G||--------------------|--------------------|
D||-5555-5555-5555-5555|-4444-4444-4444-4444|
A||--------------------|--------------------|
E||--------------------|--------------------|
    i    i    i    i     i    i    i    i

Chorus 3

G||--------------------|--------------------|
D||--------------------|--------------------|
A||------3------2------|-0-------0----------|
E||------------------0-|--------0----0---2--|
    i    i    i    i     i    i    i    i
G||--------------------|--------------------|
D||--------------------|--------------------|
A||--------------------|------3------2------|
E||-3------x2---2---3--|--------------------|
    i    i    i    i     i    i    i    i
G||--------------------|--------------------|
D||--------------------|--------------------|
A||-0-------0----------|--------------------|
E||--------0----0---2--|-3------x2---2---3--|
    i    i    i    i     i    i    i    i
G||--------------------|--------------------|
D||--------------------|--------------------|
A||------3------2----2-|-7-------7----------|
E||--------------------|--------7----0---2--|
    i    i    i    i     i    i    i    i
G||--------------------|--------------------|
D||--------------------|--------------------|
A||-------------0---2--|------3------2------|
E||-3------x2----------|--------------------|
    i    i    i    i     i    i    i    i
G||--------------------|--------------------|
D||--------------------|--------------------|
A||-0-------0----------|--------------------|
E||--------0----0---2--|-3------x2---2---3--|
    i    i    i    i     i    i    i    i
G||--------------------|--------------------|
D||--------------------|--------------------|
A||------3------2------|--------------------|
E||------------------x-|-5\---0------0---2--|
    i    i    i    i     i    i    i    i
G||--------------------|--------------------|
D||--------------------|--------------------|
A||-------------5----7-|------3------2------|
E||-3------x2----------|--------------------|
    i    i    i    i     i    i    i    i


G||--------------------|--------------------|
D||--------------------|--------------------|
A||-0-------0----------|--------------------|
E||--------0----0---2--|-3------x2---2---3--|
    i    i    i    i     i    i    i    i
G||--------------------|--------------------|
D||--------------------|--------------------|
A||------3------2------|-0-------0----------|
E||--------------------|--------0----0---2--|
    i    i    i    i     i    i    i    i
G||--------------------|--------------------|
D||--------------------|--------------------|
A||--------------------|------3-------2---2-|
E||-3------x2---2---3--|--------------------|
    i    i    i    i     i    i    i    i
G||--------------------|--------------------|
D||--------------------|--------------------|
A||-7-------7----------|-------------0----2-|
E||--------7----0----2-|-3------x2----------|
    i    i    i    i     i    i    i    i
G||--------------------|--------------------|
D||--------------------|--------------------|
A||------3------2------|-0-------0----------|
E||--------------------|--------0----0---2--|
    i    i    i    i     i    i    i    i
G||--------------------|--------------------|
D||--------------------|--------------------|
A||--------------------|------3-------2-----|
E||-3------x2---2---3--|--------------------|
    i    i    i    i     i    i    i    i
G||--------------------|--------------------|
D||--------------------|--------------------|
A||--------------------|-----------------3--|
E||-5\---0------0---2--|-3------x2---2------|
    i    i    i    i     i    i    i    i


Tab by Pedro Zappa
-----------------------------------------------------------------------------
-----------------------------------------------------------------------------


6. Photoshop Handsome


Intro

G||--------------------|--------------------||  x2
D||--------------------|--------------------||
A||--------------------|--------------------||
E||/7----4----24--24---|-46--46----24--6--4-||
    i    i    i    i     i    i    i    i

Verse 1

G||--------------------|--------------------||  x3
D||--------------------|--------------------||
A||--------------------|--------------------||
E||/7----4----24--24---|-46--46----24--6--4-||
    i    i    i    i     i    i    i    i
G||--------------------|--------------------|
D||--------------------|--------------------|
A||--------------------|-12---14---7----9---|
E||/7----4----24--24---|--------------------|
    i    i    i    i     i    i    i    i

G||--------------------|--------------------||  x3
D||--------------------|--------------------||
A||--------------------|---------4-6----4-3-||
E||/7----4---24---24---|-46--46-------------||
    i    i    i    i     i    i    i    i

Chorus 1

G||--------------------|--------------------|
D||--------------------|--------------------|
A||-4----4----3333--3--|-7----7----7999-7999|
E||--------------------|--------------------|
    i    i    i    i     i    i    i    i
G||--------------------|--------------------|
D||--------------------|--------------------|
A||-----------6666---6-|-7---------6--------|
E||-6----6----------6--|------7---------6---|
    i    i    i    i     i    i    i    i
G||--------------------|--------------------|
D||-6------------------|--------------------|
A||---8--4----3333--33-|-0----0----0222--12-|
E||--------------------|--------------------|
    i    i    i    i     i    i    i    i
G||--------------------|--------------------|
D||--------------------|--------------------|
A||-1----1----6666---6-|-7---------6--------|
E||-----------------6--|------7---------6---|
    i    i    i    i     i    i    i    i
G||--------------------|--------------------|
D||--------------------|--------------------|
A||--------------------|--------------------|
E||-4\-----------------|--------------------|
    i    i    i    i     i    i    i    i

Verse 2   

(wait) "More dollar! Less scholar! Less time! 

G||--------------------|--------------------||  x4
D||--------------------|--------------------||
A||--------------------|--------------------||
E||------------------44|-4------------------||
    i    i    i    i     i    i    i    i

(Wait) "I know nothing about my history"

G||--------------------|
D||--------------------|
A||-12---14---7----9---|
E||--------------------|
    i    i    i    i   
G||--------------------|--------------------||  x2
D||--------------------|--------------------||
A||--------------------|---------4-6----4-3-||
E||/7----4---24---24---|-46--46-------------||
    i    i    i    i     i    i    i    i
G||--------------------|--------------------|
D||--------------------|--------------------|
A||--------------------|---------4-6--------|
E||/7----4---24---24---|-46--46-------------|
    i    i    i    i     i    i    i    i

Chorus 2

G||--------------------|--------------------|
D||--------------------|--------------------|
A||-4----4----3333--3--|-7----7----7999-7999|
E||--------------------|--------------------|
    i    i    i    i     i    i    i    i
G||--------------------|--------------------|
D||--------------------|--------------------|
A||-----------6666---6-|-7---------6--------|
E||-6----6----------6--|------7---------6---|
    i    i    i    i     i    i    i    i
G||--------------------|--------------------|
D||-6------------------|--------------------|
A||---8--4----3333--33-|-0----0----0222--12-|
E||--------------------|--------------------|
    i    i    i    i     i    i    i    i
G||--------------------|--------------------|
D||--------------------|--------------------|
A||-1----1----6666---6-|-7---------6--------|
E||-----------------6--|------7---------6---|
    i    i    i    i     i    i    i    i
G||--------------------|--------------------|
D||--------9--7----7---|--------------------|
A||-9----9-------------|--------------------|
E||--------------------|--------------------|
    i    i    i    i     i    i    i    i

(wait) "I will gain an extra life"

G||-----------------------|-------------------------------|
D||/9---------------------|-------------------------------|
A||------11---9.11-9.11---|-11.13---11.13---9.11-13--11---|
E||-----------------------|-------------------------------|
    i    i    i       i     i       i       i       i
G||------------------------|----------------------------------|
D||/9----------------------|----------------------------------|
A||------11---9.11--9.11---|-11.13---11.13---9.11-13--13.11.9-|
E||------------------------|----------------------------------|
    i    i    i       i      i       i       i        i

G||--------------------|--------------------| 
D||--------------------|--------------------|
A||--------------------|---------4-6----4-3-|
E||/7----4---24---24---|-46--46-------------|
    i    i    i    i     i    i    i    i
G||--------------------|--------------------|
D||--------------------|--------------------|
A||--------------------|--------------------|
E||/7----4---24---24---|-5----5----5--------|
    i    i    i    i     i    i    i    i

Chorus 3

G||--------------------|--------------------|
D||--------------------|--------------------|
A||-4----4----33-3--3-3|-7----7----7999-7999|
E||--------------------|--------------------|
    i    i    i    i     i    i    i    i
G||--------------------|--------------------|
D||--------------------|--------------------|
A||-----------66-6---6-|-7---------6--------|
E||-6----6----------6--|------7---------6---|
    i    i    i    i     i    i    i    i
G||--------------------|--------------------|
D||---6--3-------------|--------------------|
A||-4------4--33-3--23-|-0----0----02-2--12-|
E||--------------------|--------------------|
    i    i    i    i     i    i    i    i
G||--------------------|--------------------|
D||--------------------|--------------------|
A||-1----1----6666---6-|-7---------6--------|
E||-----------------6--|------7---------6---|
    i    i    i    i     i    i    i    i
---

G||--------------------|--------------------|
D||--------------------|--------------------|
A||-4----4----33-3--3-3|-7----7----7999-7999|
E||--------------------|--------------------|
    i    i    i    i     i    i    i    i
G||--------------------|--------------------|
D||--------------------|--------------------|
A||-----------66-6---6-|-7---------6--------|
E||-6----6----------6--|------7---------6---|
    i    i    i    i     i    i    i    i
G||--------------------|--------------------|
D||-6-3----------------|--------------------|
A||------4----33-3--23-|-0----0----02-2--12-|
E||--------------------|--------------------|
    i    i    i    i     i    i    i    i
G||--------------------|--------------------|
D||--------------------|--------------------|
A||-1----1----6666---6-|-7---------6--------|
E||-----------------6--|------7---------6---|
    i    i    i    i     i    i    i    i
G||--------------------|--------------------|
D||--------------------|--------------------|
A||-4------------------|--------------------|
E||--------------------|--------------------|
    i    i    i    i     i    i    i    i


Tab by Pedro Zappa
-----------------------------------------------------------------------------
-----------------------------------------------------------------------------


7. Two For Nero


(wait) "In every corner of your parent's home"


G||--------------------|-----------9----9---|
D||--------------------|--------------------|
A||-7-7--7-7--7-7--7-7-|-7-7--7-7----7----7-|
E||--------------------|--------------------|
    i    i    i    i     i    i    i    i
G||--------------------|------9-------------|
D||--------------------|--------------------|
A||-7-7--7-7--7-7--7-7-|-7-7----7--7-6--5-4-|
E||--------------------|--------------------|
    i    i    i    i     i    i    i    i
---

G||--------5-----------|--------------------|
D||--------------------|--------5-----------|
A||-3------------------|--------------------|
E||--------------------|-3------------------|
    i    i    i    i     i    i    i    i
G||--------7-----------|-------------7------|
D||--------------------|--------7-------7---|
A||-5------------------|--------------------|
E||--------------------|--------------------|
    i    i    i    i     i    i    i    i

G||--------5--------\4-|--------------------|
D||--------------------|--------5-----------|
A||-3------------------|--------------------|
E||--------------------|-3--------------5-7-|
    i    i    i    i     i    i    i    i
G||--------------------|--------------------|
D||--------------------|----------/7----7-5-|
A||-5------------------|-5------------------|
E||------------------5-|--------------------|
    i    i    i    i     i    i    i    i


G||--------5-----------|--------------------|
D||--------------------|--------5-----------|
A||-3------------------|--------------------|
E||--------------------|-3------------------|
    i    i    i    i     i    i    i    i
G||--------7-----------|--------------------|
D||--------------------|--------------------|
A||-5----------------05|--------0--5-7--9---|
E||--------------------|--------------------|
    i    i    i    i     i    i    i    i


G||------5------4------|--------------------|
D||--------------------|--------------------|
A||-3------------------|------------------3-|
E||------------------2-|-3------------------|
    i    i    i    i     i    i    i    i
G||--------------------|--------------------|
D||--------------------|--------------------|
A||-5----5------5----5-|-5----5-3--2--------|
E||--------------------|--------------------|
    i    i    i    i     i    i    i    i


G||------5------5------|--------------------|
D||--------------------|------5-------------|
A||-3---------3------2-|----------------0-2-|
E||--------------------|-3------------------|
    i    i    i    i     i    i    i    i
G||------7------7------|--------------------|
D||--------------------|-------------7------|
A||-5------0--5------0-|-5------5/-9----9---|
E||--------------------|--------------------|
    i    i    i    i     i    i    i    i


G||------5-------------|--------------------|
D||--------------------|------5-------------|
A||-3---------3-3----2-|--------------------|
E||--------------------|-3---------3-3--2-3-|
    i    i    i    i     i    i    i    i
G||--------------------|--------------------|
D||------------------7-|-------------7------|
A||-5-----------5------|-5---------9----9-7-|
E||--------5-----------|--------------------|
    i    i    i    i     i    i    i    i


G||------5-------------|--------------------|
D||--------------------|--------5-----------|
A||-3------0--3-3--2-2-|--------------------|
E||--------------------|-3--------------5-7-|
    i    i    i    i     i    i    i    i
G||------7-------------|-7-----------7------|
D||------------------7-|------5/7-------7\--|
A||-5------------------|--------------------|
E||--------------------|--------------------|
    i    i    i    i     i    i    i    i
 

G||------5-------------|--------------------|
D||--------------------|--------------------|
A||-3----------------2-|--------------------|
E||--------------------|-3--------------0---|
    i    i    i    i     i    i    i    i
G||------7------7------|--------------------|
D||--------------------|--------------------|
A||-5------0--5--------|-5----5----0----2---|
E||--------------------|--------------------|
    i    i    i    i     i    i    i    i


G||--------5-------5---|--------------------|
D||--------------------|--------5-----------|
A||-3----3-------------|------------------0-|
E||--------------------|-3----3---------2---|
    i    i    i    i     i    i    i    i
G||--------------------|--------------------|
D||--------------------|-------------7------|
A||(5----5----5-5----5-|-5----5)---79---9-7-|
E||--------------------|--------------------|
B||-3----3----3-3----3-|-3----3-------------|
    i    i    i    i     i    i    i    i


G||------5-------------|--------------------|
D||--------------------|--------------------|
A||-3------3----3----2-|--------------------|
E||--------------------|-3----3------3--2-3-|
    i    i    i    i     i    i    i    i
G||--------------------|--------------------|
D||--------------------|--------------------|
A||(5)---5--(45-5)---5-|(5)--(5)------------|
E||--------------------|-----------0-0--7-5-|
B||-3--------23-3------|-3----3-------------|
    i    i    i    i     i    i    i    i


G||--------------------|--------------------|
D||--------------------|--------------------|
A||-3----3---33-3----2-|--------------------|
E||--------------------|-3----3---23-3--0-0-|
    i    i    i    i     i    i    i    i
G||--------------------|--------------------|
D||--------------------|--------------------|
A||(5)---5---(5)5----5-|(5)----(5)----------|
E||--------------------|-----------0-5--7-5-|
B||-3---------3--------|-3------3-----------|
    i    i    i    i     i    i    i    i


G||------5------5------|--------------------|
D||--------------------|------5-------------|
A||-3----------------2-|--------------------|
E||--------------------|-3--------------2-5-|
    i    i    i    i     i    i    i    i
G||--------------------|--------------------|
D||--------------------|--------------------|
A||(5)---5---(5)5----5-|--------------------|  fade out
E||--------------------|--------------------|
B||-3---------3--------|--------------------|
    i    i    i    i     i    i    i    i


Tab by Pedro Zappa
-----------------------------------------------------------------------------
-----------------------------------------------------------------------------


8. Suffragette Suffragette


Verse 1

G||--------66-6444-2444||  x3
D||-0004-44------------||
A||--------------------||
E||--------------------||
    i    i    i    i   
G||--------66-6444-----|
D||-0004-44--------7764|
A||--------------------|
E||--------------------|
    i    i    i    i   
G||--------66-6444-2444||  x3
D||-0004-44------------||
A||--------------------||
E||--------------------||
    i    i    i    i   
G||---------6--4-------|
D||-0004-44------6-7764|
A||--------------------|
E||--------------------|
    i    i    i    i   
---

G||--------66-6444-2444|--------66-6444-----||  x3
D||-0004-44------------|-0004-44--------7764||
A||--------------------|--------------------||
E||--------------------|--------------------||
    i    i    i    i     i    i    i    i   
G||--------66-6444-2444|--------66-6444-----|
D||-0004-44------------|-0004-44--------7777|
A||--------------------|--------------------|
E||--------------------|--------------------|
    i    i    i    i     i    i    i    i   

Chorus 1

G||-----------------18.18-18.16-16.16-14.16.16.16|
D||---------16-16.16-----------------------------|
A||-17.17.17-------------------------------------|
E||----------------------------------------------|
    i          i          i           i  
G||--------------------------16.16.16-14.14.16.16||  x2
D||---------14-14.14.14.14-14--------------------||
A||-16.16.16-------------------------------------||
E||----------------------------------------------||
    i          i           i          i  

Riff

(wait)

G||--------------------|--------------------|
D||--------------------|-----------------976|
A||--------------------|--------------------|
E||-9--0--02---0-0-4040|-5---0-0-0-7--------|
    i    i    i    i     i    i    i    i
G||--------------------|--------------------|
D||--------------------|--------------------|
A||--------------------|----------------4777|
E||-9--0--02---0-0-4040|-5---0-0-0-7--------|
    i    i    i    i     i    i    i    i
G||--------------------|--------------------||
D||--------------------|--------------------||
A||--------------------|--------------------||
E||-9--0--02---0-0-4040|-5---0-0-0-7----9\--||
    i    i    i    i     i    i    i    i

Interlude

G||--------66-6444-2444|--------66-6444-----||
D||-0004-44------------|-0004-44------------||
A||--------------------|----------------0---||
E||--------------------|--------------------||
    i    i    i    i     i    i    i    i

Verse 2

G||--------66-6444-2444|--------66-6444-----||  x2
D||-0004-44------------|-0004-44--------7764||
A||--------------------|--------------------||
E||--------------------|--------------------||
    i    i    i    i     i    i    i    i   
G||--------66-6444-2444|--------66-6444-2444|
D||-0004-44------------|-0004-44------------|
A||--------------------|--------------------|
E||--------------------|--------------------|
    i    i    i    i     i    i    i    i   
G||--------66-6444-2444|--------66-644------|
D||-0004-44------------|-0004-44------6-7764|
A||--------------------|--------------------|
E||--------------------|--------------------|
    i    i    i    i     i    i    i    i  


G||--------66-6444-2444|--------66-6444-----||  x2
D||-0004-44------------|-0004-44--------7764||
A||--------------------|--------------------||
E||--------------------|--------------------||
    i    i    i    i     i    i    i    i   
G||--------66-6444-2444|--------66-6444-----|
D||-0004-44------------|-0004-44--------7764|
A||--------------------|--------------------|
E||--------------------|--------------------|
    i    i    i    i     i    i    i    i  
G||--------66-6444-2444|--------66-6444-----||
D||-0004-44------------|-0004-44--------7777||
A||--------------------|--------------------||
E||--------------------|--------------------||


Chorus 2

G||-----------------18.18-18.16-16.16-14.16.16.16|
D||---------16-16.16-----------------------------|
A||-17.17.17-------------------------------------|
E||----------------------------------------------|
    i          i          i           i  
G||--------------------------16.16.16-14.14.16.16||  x2
D||---------14-14.14.14.14-14--------------------||
A||-16.16.16-------------------------------------||
E||----------------------------------------------||
    i          i           i          i   

Riff

(wait)

G||--------------------|--------------------|
D||--------------------|-----------------976|
A||--------------------|--------------------|
E||--------2---0-0-4040|-5---0-0-0-7--------|
    i    i    i    i     i    i    i    i
G||--------------------|--------------------|
D||--------------------|--------------------|
A||--------------------|----------------4777|
E||-9--0--02---0-0-4040|-5---0-0-0-7--------|
    i    i    i    i     i    i    i    i
G||--------------------|--------------------|
D||--------------------|--------------------|
A||--------------------|--------------------|
E||-9--10--9-------4040|-5---0-0-0-7----9\--|
    i    i    i    i     i    i    i    i
G||--------------------|---------------------------|
D||--------------------|---------------------------|
A||----------------7777|-79--99999-11.11.11.11-9999|
E||-9--10--9-----------|---------------------------|
    i    i    i    i     i    i    i           i

Chorus 2

G||--------------------|--------------------|--------------------||  x2
D||-0000-0000-0000-0000|-0000-0000-0000-4400|--------------------||
A||--------------------|--------------------|-4444-4444-2222-2244||
E||--------------------|--------------------|--------------------||
    i    i    i    i     i    i    i    i     i    i    i    i
G||--------------------|--------------------|-----------------2--||
D||-0000-0000-0000-0000|-0000-0000-0000-4400|--------------2h4-4-||
A||--------------------|--------------------|-4444-4444-222------||
E||--------------------|--------------------|--------------------||
    i    i    i    i     i    i    i    i     i    i    i    i

(wait)

G||--------------6--9--|
D||-----------7--------|
A||--------------------|
E||--------------------|
    i    i    i    i 
G||--------66-6444-2444|--------66-6444-----||  x3
D||-0004-44------------|-0004-44--------7764||
A||--------------------|--------------------||
E||--------------------|--------------------||
    i    i    i    i     i    i    i    i   
G||--------66-6444-2444|--------66-6444-----|
D||-0004-44------------|-0004-44--------7777|
A||--------------------|--------------------|
E||--------------------|--------------------|
    i    i    i    i     i    i    i    i  

G||----------18.18-18--16--14.16---|----------------16--14.16--||  x4
D||-----16-------------------------|-----14--------------------||
A||-17-----------------------------|-16------------------------||
E||--------------------------------|---------------------------||
    i      i       i       i         i       i    i     i 


Tab by Pedro Zappa
-----------------------------------------------------------------------------
-----------------------------------------------------------------------------


9. Come Alive Diana


Verse

G||--------------------|
D||--------------------|
A||--------------444-44|
E||--------------------|
    i    i    i    i    
G||---4----------------|---2----------------|
D||--------------------|--------------------|
A||-2------------222-22|-0------------000-00|
E||--------------------|--------------------|
    i    i    i    i     i    i    i    i
G||--------------------|--------------------|
D||---4----------------|--------------------|
A||--------------000-00|---7----------444-44|
E||-2------------------|-0------------------|
    i    i    i    i     i    i    i    i
G||---4----------------|---2----------------|
D||--------------------|--------------------|
A||-2------------222-22|-0------------000-00|
E||--------------------|--------------------|
    i    i    i    i     i    i    i    i
G||--------------------|--------------------|
D||---4----------------|-------------9------|
A||--------------000-00|---7----5/-7----7---|
E||-2------------------|-0------------------|
    i    i    i    i     i    i    i    i
G||--------------------|--------------------|
D||--------------------|--------------------|
A||--------------------|--------------------|
E||--------------------|--------------------|
    i    i    i    i     i    i    i    i

Chorus 1

G||--------------------|--------------------|
D||-7----7-------------|------------------9-|
A||--------0--4-6--7-4-|---2--4-7----6--7---|
E||--------------------|--------------------|
    i    i    i    i     i    i    i    i
G||-----------------------|---11----------------|
D||---------------------9-|-------9------7--6-7-|
A||---11--9-11----12------|---------------------|
E||-----------------------|---------------------|
    i     i     i     i     i     i    i    i

G||--------------------|--------------------|
D||--------------------|------------------9-|
A||-9-7--0----4-6--7-4-|---4----7----6--7---|
E||--------------------|--------------------|
    i    i    i    i     i    i    i    i
G||--------------------|---4----4----2--1-2-|
D||-6----4-6----2------|--------------------|
A||------------------2-|------2-------------|
E||--------------------|--------------------|
    i    i    i    i     i    i    i    i


G||--------------------|--------------------|
D||-4-2----------------|------------------9-|
A||------0----4-6--7-4-|---2--4-7----6--7---|
E||--------------------|--------------------|
    i    i    i    i     i    i    i    i
G||-----------------------|---11----------------|
D||---------------------9-|-------9------7--6-7-|
A||---11--9-11----12------|---------------------|
E||-----------------------|---------------------|
    i     i     i     i     i     i    i    i

G||--------------------|--------------------|
D||--------------------|------------------9-|
A||-9-7--0----4-6--7-4-|---4----7----6--7---|
E||--------------------|--------------------|
    i    i    i    i     i    i    i    i
G||--------------------|--------------------|
D||-6----4-6----2------|--------------------|
A||------------------2-|---0----------------|
E||--------------------|--------4----2/-----|
    i    i    i    i     i    i    i    i

G||------13------------------|------------------------------|
D||---------14--11-13--14-11-|----11-----14.14-14-13--11----|
A||-0------------------------|---------------------------14-|
E||--------------------------|------------------------------|
    i    i      i      i       i     i         i      i
G||------13------------------|------------------------------|
D||---------14--11-13--14----|-----------14.14-14-13--11----|
A||-11--------------------14-|----14---------------------14-|
E||--------------------------|------------------------------|
    i    i      i      i       i     i         i      i


G||------13------------------|------------------------------|
D||---------14--11-13--14-11-|----11-----14.14-14-13--11----|
A||-12-----------------------|---------------------------14-|
E||--------------------------|------------------------------|
    i    i      i      i       i     i         i      i
G||------13------------------|------------------------------|
D||---------14--11-13--14----|----------/14-----------------|
A||-11--------------------14-|----14------------------------|
E||--------------------------|------------------------------|
    i    i      i      i       i     i         i      i

Verse

G||--------------------|---2----------------|
D||--------------------|--------------------|
A||-2------------222-22|-0------------000-00|
E||--------------------|--------------------|
    i    i    i    i     i    i    i    i
G||--------------------|--------------------|
D||---4----------------|--------------------|
A||--------------000-00|---7----------444-44|
E||-2------------------|-0------------------|
    i    i    i    i     i    i    i    i
G||---4----------------|---2----------------|
D||--------------------|--------------------|
A||-2------------222-22|-0------------000-00|
E||--------------------|--------------------|
    i    i    i    i     i    i    i    i
G||--------------------|--------------------|
D||---4----------------|--------------------|
A||--------------000-00|---7----7--7-7--7-4-|
E||-2------------------|-0------------------|
    i    i    i    i     i    i    i    i


G||---4----------------|---2----------------|
D||--------------------|--------------------|
A||-2------------222-22|-0------------000-00|
E||--------------------|--------------------|
    i    i    i    i     i    i    i    i
G||--------------------|--------------------|
D||---4----------------|--------------------|
A||--------------000-00|---7----------444-44|
E||-2------------------|-0------------------|
    i    i    i    i     i    i    i    i
G||---4----------------|--------------------|
D||--------------------|---2----------------|
A||-2------------222-22|-4----0-------000-00|
E||--------------------|--------------------|
    i    i    i    i     i    i    i    i
G||--------------------|--------------------|
D||---4----------------|-------------9------|
A||--------------000-00|---7----5/-7----7---|
E||-2------------------|-0------------------|
    i    i    i    i     i    i    i    i
G||--------------------|--------------------|
D||--------------------|--------------------|
A||--------------------|--------------------|
E||--------------------|--------------------|
    i    i    i    i     i    i    i    i

Chorus 2

G||--------------------|--------------------|
D||-7----7-------------|------------------9-|
A||--------0--4-6--7-4-|---2--4-7----6--7---|
E||--------------------|--------------------|
    i    i    i    i     i    i    i    i
G||-----------------------|---11----------------|
D||---------------------9-|-------9------7--6-7-|
A||---11--9-11----12------|---------------------|
E||-----------------------|---------------------|
    i     i     i     i     i     i    i    i

G||--------------------|--------------------|
D||--------------------|------------------9-|
A||-9-7--0----4-6--7-4-|---4----7----6--7---|
E||--------------------|--------------------|
    i    i    i    i     i    i    i    i
G||--------------------|---4----4----2--1-2-|
D||-6----4-6----2------|--------------------|
A||------------------2-|------2-------------|
E||--------------------|--------------------|
    i    i    i    i     i    i    i    i


G||--------------------|--------------------|
D||-4-2----------------|------------------9-|
A||------0----4-6--7-4-|---2--4-7----6--7---|
E||--------------------|--------------------|
    i    i    i    i     i    i    i    i
G||-----------------------|---11----------------|
D||---------------------9-|-------9------7--6-7-|
A||---11--9-11----12------|---------------------|
E||-----------------------|---------------------|
    i     i     i     i     i     i    i    i

G||--------------------|--------------------|
D||--------------------|------------------9-|
A||-9-7--0----4-6--7-4-|---4----7----6--7---|
E||--------------------|--------------------|
    i    i    i    i     i    i    i    i
G||--------------------|--------------------|
D||-6----4-6----2------|--------------------|
A||------------------2-|---0----------------|
E||--------------------|--------4----2/-----|
    i    i    i    i     i    i    i    i

Interlude

(wait)

G||--------------------|
D||------------------9-|
A||----------------7---|
E||--------------------|
    i    i    i    i    
G||--------------------|--------------------|
D||-7------6-----------|-----------7-9--7-6-|
A||----------------9---|---7----------------|
E||--------------------|--------------------|
    i    i    i    i     i    i    i    i
G||--------------------|--------------------|
D||--------------------|-6-7--6---------6---|
A||------9------7------|--------9----9----9-|
E||--------------------|--------------------|
    i    i    i    i     i    i    i    i
G||--------------------|--------------------|
D||--------------------|------------------9-|
A||-4------2-------0---|----------------7---|
E||--------------------|---4----------------|
    i    i    i    i     i    i    i    i
G||--------------------|--------------------|
D||-7------6-----------|-----------7-9--7-6-|
A||----------------9---|---7----------------|
E||--------------------|--------------------|
    i    i    i    i     i    i    i    i
G||--------------------|--------------------|
D||--------------------|-6-7--6---------6---|
A||------9------7------|--------9----9----9-|
E||--------------------|--------------------|
    i    i    i    i     i    i    i    i
G||--------------------|--------------------|
D||--------------------|--------------------|
A||-4------2-------0---|--------------------|
E||--------------------|---4-------2----0---|
    i    i    i    i     i    i    i    i

(wait)

Chorus 3

G||-------------11------|
D||---------7/9-----9---|
A||---------------------|
E||---------------------|
    i    i    i     i    
G||--------------------|--------------------|
D||-7----7-------------|------------------9-|
A||--------0--4-6--7-4-|---2--4-7----6--7---|
E||--------------------|--------------------|
    i    i    i    i     i    i    i    i
G||-----------------------|---11----------------|
D||---------------------9-|-------9------7--6-7-|
A||---11--9-11----12------|---------------------|
E||-----------------------|---------------------|
    i     i     i     i     i     i    i    i

G||--------------------|--------------------|
D||--------------------|------------------9-|
A||-9-7--0----4-6--7-4-|---4----7----6--7---|
E||--------------------|--------------------|
    i    i    i    i     i    i    i    i
G||--------------------|---4----4----2--1-2-|
D||-6----4-6----2------|--------------------|
A||------------------2-|------2-------------|
E||--------------------|--------------------|
    i    i    i    i     i    i    i    i


G||--------------------|--------------------|
D||-4-2----------------|------------------9-|
A||------0----4-6--7-4-|---2--4-7----6--7---|
E||--------------------|--------------------|
    i    i    i    i     i    i    i    i
G||-----------------------|---11----------------|
D||---------------------9-|-------9------7--6-7-|
A||---11--9-11----12------|---------------------|
E||-----------------------|---------------------|
    i     i     i     i     i     i    i    i

G||--------------------|--------------------|
D||--------------------|------------------9-|
A||-9-7--0----4-6--7-4-|---4----7----6--7---|
E||--------------------|--------------------|
    i    i    i    i     i    i    i    i
G||--------------------|--------------------|
D||-6----4-6----2------|--------------------|
A||------------------2-|---0----------------|
E||--------------------|--------4----2/-----|
    i    i    i    i     i    i    i    i

G||------13------------------|------------------------------|
D||---------14--11-13--14-11-|----11-----14.14-14-13--11----|
A||-0------------------------|---------------------------14-|
E||--------------------------|------------------------------|
    i    i      i      i       i     i         i      i
G||------13------------------|------------------------------|
D||---------14--11-13--14----|-----------14.14-14-13--11----|
A||-11--------------------14-|----14---------------------14-|
E||--------------------------|------------------------------|
    i    i      i      i       i     i         i      i


G||------13------------------|------------------------------|
D||---------14--11-13--14-11-|----11-----14.14-14-13--11----|
A||-12-----------------------|---------------------------14-|
E||--------------------------|------------------------------|
    i    i      i      i       i     i         i      i
G||------13------------------|------------------------------|
D||---------14--11-13--14----|----------/14--------13-14----|
A||-11--------------------14-|----14------------------------|
E||--------------------------|------------------------------|
    i    i      i      i       i     i         i      i


G||--------------------|--------------------|
D||-7------6-----------|-----------7-9--7-6-|
A||----------------9---|---7----9-----------|
E||--------------------|--------------------|
    i    i    i    i     i    i    i    i
G||--------------------|--------------------|
D||--------------------|-6-7--6---------6---|
A||------9------7----7-|--------9----9----9-|
E||--------------------|--------------------|
    i    i    i    i     i    i    i    i
G||--------------------|--------------------|
D||--------------------|----------------6-9-|
A||-4------2-------0---|-------------7------|
E||--------------------|---4----------------|
    i    i    i    i     i    i    i    i

G||--------------------|--------------------|
D||-7------6-----------|-----------7-9--7-6-|
A||----------------9---|---7----9-----------|
E||--------------------|--------------------|
    i    i    i    i     i    i    i    i
G||--------------------|--------------------|
D||--------------------|-6-7--6---------6---|
A||------9------7----7-|--------9----9----9-|
E||--------------------|--------------------|
    i    i    i    i     i    i    i    i
G||--------------------|--------------------|
D||--------------------|----------------6-9-|
A||-4------2-------0---|-------------7------|
E||--------------------|---4----------------|
    i    i    i    i     i    i    i    i

G||--------------------|--------------------|
D||-7------6-----------|-----------7-9--7-6-|
A||----------------9---|---7----9-----------|
E||--------------------|--------------------|
    i    i    i    i     i    i    i    i
G||--------------------|--------------------|
D||--------------------|-6-7--6---------6---|
A||------9------7----7-|--------9----9----9-|
E||--------------------|--------------------|
    i    i    i    i     i    i    i    i
G||--------------------|--------------------|
D||--------------------|--------------------|
A||-4------2-------0---|--------------------|
E||--------------------|---4-------2----0---|
    i    i    i    i     i    i    i    i

Tab by Pedro Zappa
-----------------------------------------------------------------------------
-----------------------------------------------------------------------------


10. NASA Is On Your Side


Verse

(wait)

G||-------------11-----|-------------11-----|
D||----9---------------|----7---------------|
A||-9------------------|-9------------------|
E||--------------------|--------------------|
    i    i    i    i     i    i    i    i
G||-------------11-----|-------------11-----|
D||----7---------------|----7---------------|
A||-9------------------|-9------------------|
E||--------------------|--------------------|
    i    i    i    i     i    i    i    i
G||-------------11-----|-------------11-----|
D||----9---------------|----12--------------|
A||-7------------------|-10-----------------|
E||--------------------|--------------------|
    i    i    i    i     i    i    i    i
G||--------------------|---------------------|
D||------7----12---11--|---------------------|
A||-9------------------|-12--12--12-0--------|
E||--------------------|---------------------|
    i    i    i    i     i     i    i    i

G||-------------11-----|-------------11-----|
D||----9---------------|----7---------------|
A||-9------------------|-9------------------|
E||--------------------|--------------------|
    i    i    i    i     i    i    i    i
G||-------------11-----|-------------11-----|
D||----7---------------|----7---------------|
A||-9------------------|-9------------------|
E||--------------------|--------------------|
    i    i    i    i     i    i    i    i
G||-------------11-----|--------------11-----|
D||----9---------------|-----12--------------|
A||-7------------------|-10------------------|
E||--------------------|---------------------|
    i    i    i    i     i     i    i    i
G||--------------------|---------------------|
D||------7----12---11--|------------12---11--|
A||-9------------------|-12--12--12----------|
E||--------------------|---------------------|
    i    i    i    i     i     i    i    i

Chorus 1

G||--------------------|------7-------------|
D||-8--10-x8--8--------|-0-7----------------|
A||--------------------|--------------------|
E||--------------------|--------------------|
    i    i    i    i     i    i    i    i
G||--------------------|------7------5------|
D||-8--10-x8--8--------|-0-7------------7-5-|
A||--------------------|--------------------|
E||--------------------|--------------------|
    i    i    i    i     i    i    i    i
G||--------------------|------7------5------|
D||-----------8--------|-0-7------------7---|
A||--------------------|--------------------|
E||--------------------|--------------------|
    i    i    i    i     i    i    i    i
G||--------------------|--------------------|
D||-5----5----8----7---|-5------------------|
A||---3----3-----------|-----5-----5/---10--|
E||--------------------|-------x3-----------|
    i    i    i    i     i    i    i    i

G||--------------------|------7------5------|
D||-8--10-x8--8--------|-0-7------------7---|
A||--------------------|--------------------|
E||--------------------|--------------------|
    i    i    i    i     i    i    i    i
G||--------------------|------7------5------|
D||-8--10-x8--8--------|-0-7------------7-5-|
A||--------------------|--------------------|
E||--------------------|--------------------|
    i    i    i    i     i    i    i    i
G||--------------------|------7------5------|
D||-7----8\--/8--------|-0-7------------7---|
A||--------------------|--------------------|
E||--------------------|--------------------|
    i    i    i    i     i    i    i    i
G||--------------------|--------------------------------|
D||-5----5----8----7---|-5------------------------------|
A||---3----3-----------|-----5-----5/--10.10-10.10.10.10|
E||--------------------|-------x3-----------------------|
    i    i    i    i     i    i    i         i

Verse 2

G||-------------11-----|-------------11-----|
D||----9---------------|----7---------------|
A||-9------------------|-9------------------|
E||--------------------|--------------------|
    i    i    i    i     i    i    i    i
G||-------------11-----|-------------11-----|
D||----7---------------|----7---------------|
A||-9------------------|-9------------------|
E||--------------------|--------------------|
    i    i    i    i     i    i    i    i
G||-------------11-----|--------------11-----|
D||----9---------------|-----12--------------|
A||-7------------------|-10------------------|
E||--------------------|---------------------|
    i    i    i    i     i     i    i    i
G||--------------------|---------------------|
D||------7----12---11--|---------------------|
A||-9------------------|-12--12--12-0--------|
E||--------------------|---------------------|
    i    i    i    i     i     i    i    i

G||-------------11-----|-------------11-----|
D||----9---------------|----7---------------|
A||-9------------------|-9------------------|
E||--------------------|--------------------|
    i    i    i    i     i    i    i    i
G||-------------11-----|-------------11-----|
D||----7---------------|----7---------------|
A||-9------------------|-9------------------|
E||--------------------|--------------------|
    i    i    i    i     i    i    i    i
G||-------------11-----|--------------11-----|
D||----9---------------|-----12--------------|
A||-7------------------|-10------------------|
E||--------------------|---------------------|
    i    i    i    i     i     i    i    i
G||--------------------|---------------------|
D||------7----12---11--|--------7------------|
A||-9------------------|-0---0---0--5----4---|
E||--------------------|---------------------|
    i    i    i    i     i     i    i    i


G||--------------------|--------------------|
D||-------------4------|-------------4------|
A||----2---------------|----0---------------|
E||-2------------------|-2------------------|
    i    i    i    i     i    i    i    i
G||--------------------|--------------------|
D||-------------4------|-------------4------|
A||----0---------------|----0---------------|
E||-2------------------|-2------------------|
    i    i    i    i     i    i    i    i
G||--------------------|--------------------|
D||-------------4\-----|-------------4------|
A||----2---------------|----5-----------5---|
E||-0------------------|-3----------------0-|
    i    i    i    i     i    i    i    i
G||--------------------|--------------------|
D||--------------------|----7---------------|
A||------0----5----4---|-0------7--5----4---|
E||-2------------------|--------------------|
    i    i    i    i     i    i    i    i

G||--------------------|--------------------|
D||-------------4------|-------------4------|
A||----2---------------|----0---------------|
E||-2------------------|-2------------------|
    i    i    i    i     i    i    i    i
G||--------------------|--------------------|
D||-------------4------|-------------4------|
A||----0---------------|----0---------------|
E||-2------------------|-2------------------|
    i    i    i    i     i    i    i    i
G||--------------------|--------------------|
D||-------------4\-----|-------------4------|
A||----2---------------|----5-----------5---|
E||-0------------------|-3----------------0-|
    i    i    i    i     i    i    i    i
G||--------------------|--------------------|
D||--------------------|----7------12---11--|
A||------0----5----4---|-0------0-----------|
E||-2------------------|--------------------|
    i    i    i    i     i    i    i    i

Chorus 2

G||--------------------|------7-------------|
D||-8--10-x8--8--------|-0-7----------------|
A||--------------------|--------------------|
E||--------------------|--------------------|
    i    i    i    i     i    i    i    i
G||--------------------|------7------5------|
D||-8--10-x8--8--------|-0-7------------7-5-|
A||--------------------|--------------------|
E||--------------------|--------------------|
    i    i    i    i     i    i    i    i
G||--------------------|------7------5------|
D||-----------8--------|-0-7------------7---|
A||--------------------|--------------------|
E||--------------------|--------------------|
    i    i    i    i     i    i    i    i
G||--------------------|--------------------|
D||-5----5----8----7---|-5------------------|
A||---3----3-----------|-----5-----5/---10--|
E||--------------------|-------x3-----------|
    i    i    i    i     i    i    i    i

G||--------------------|------7------5----5-|
D||-8--10-x8--8--10-x8-|-0-7------------7---|
A||--------------------|--------------------|
E||--------------------|--------------------|
    i    i    i    i     i    i    i    i
G||--------------------|------7------5------|
D||-8--10-x8--8\7--5---|-0-7------------7-5-|
A||--------------------|--------------------|
E||--------------------|--------------------|
    i    i    i    i     i    i    i    i
G||--------------------|------7------5------|
D||-7----8\--/8--------|-0-7------------7---|
A||--------------------|--------------------|
E||--------------------|--------------------|
    i    i    i    i     i    i    i    i
G||--------------------|--------------------|
D||-5----5----8----7---|-5-5--5-5--5-5--5-5-|
A||---3----3-----------|--------------------|
E||--------------------|--------------------|
    i    i    i    i     i    i    i    i
G||--------------------|--------------------|
D||-5----5----8--------|--------------------|
A||---3----3-----------|--------------------|
E||---------------x1---|-3-3--3-3--3-3--3-3-|
    i    i    i    i     i    i    i    i
G||--------------------|---------------------|
D||-5----5-------------|---------------------|
A||---3----3--3----5---|-6-6--6-6--8-8--10-8\|
E||--------------------|---------------------|
    i    i    i    i     i    i    i    i


G||--------------------|--------------------|
D||--------------------|--------------------|
A||--------------------|-6-6--6-6--8-8--8-8-|
E||-4-4--4-4--4----6-8-|--------------------|
    i    i    i    i     i    i    i    i
G||--------------------|--------------------|
D||--------------------|-----------6-6--6-6-|
A||--------------------|-6-6--6-6-----------|
E||-4-4--4-4--4----6-8-|--------------------|
    i    i    i    i     i    i    i    i


G||--------------------|------7------5----5-|
D||-8--10-x8--8--10-x8-|-0-7------------7---|
A||--------------------|--------------------|
E||--------------------|--------------------|
    i    i    i    i     i    i    i    i
G||--------------------|------7------5------|
D||-8--10-x8--8\7--5---|-0-7------------7-5-|
A||--------------------|--------------------|
E||--------------------|--------------------|
    i    i    i    i     i    i    i    i
G||--------------------|------7------5------|
D||-7----8\------------|-0-7------------7---|
A||-----------1--------|--------------------|
E||--------------------|--------------------|
    i    i    i    i     i    i    i    i
G||--------------------|--------------------|
D||-5----5----8----7---|-5---------5--------|
A||---3----3-----------|-----5--------555---|
E||--------------------|-------x3---------3-|
    i    i    i    i     i    i    i    i

G||--------------------|--------------------|
D||-5----5----8--------|-----------5--------|
A||---3----3-----------|-----5--------555---|
E||----------------1-2-|-3-----x3---------3-|
    i    i    i    i     i    i    i    i
G||--------------------|---------------------|
D||-5----5-------------|----------------10-10|
A||---3----3--3----5---|-6-6--6-6--8-8-------|
E||--------------------|---------------------|
    i    i    i    i     i    i    i    i
G||--------------------|--------------------|
D||-9------------------|--------------------|
A||--------------------|--------------------|
E||--------------------|--------------------|
    i    i    i    i     i    i    i    i


Tab by Pedro Zappa
-----------------------------------------------------------------------------
-----------------------------------------------------------------------------


11. Tin (The Manhole)


No Bass


Tab by Pedro Zappa
-----------------------------------------------------------------------------
-----------------------------------------------------------------------------



12. Weights


Verse 1

(wait)
 
   4/4
G||--------------------|
D||--------------------|
A||--------------------|
E||-7\-----------------|
    i    i    i    i 

(wait)

G||--------------------|--------------------|--------------------|
D||--------------------|--------------------|--------------------|
A||----5--5-5----5--5-5|---5-----5--5-5---5-|----5--5------------|
E||--------------------|--------------------|---------7----7--7--|
    i    i    i    i     i    i    i    i     i    i    i    i
G||--------------------|--------------------|--------------------||
D||--------------------|--------------------|--------------------||
A||----5--5-5----5--5-5|---5-----5--5-5---5-|----5--5--5---------||
E||--------------------|--------------------|-----------7--7--7--||
    i    i    i    i     i    i    i    i     i    i    i    i
G||--------------------|--------------------|--------------------||  x2
D||--------------------|--------------------|--------------------||
A||----5--5-5----5--5-5|---5-----5--5-5---5-|----5--5------------||
E||--------------------|--------------------|---------7----7--7--||
    i    i    i    i     i    i    i    i     i    i    i    i

(wait)

G||--------------------|--------------------|--------------------||  x2
D||--------------------|--------------------|--------------------||
A||----5--5-5----5--5-5|---5-----5--5-5---5-|----5--5------------||
E||--------------------|--------------------|---------7----7--7--||
    i    i    i    i     i    i    i    i     i    i    i    i
G||--------------------|--------------------|--------------------|
D||--------------------|--------------------|--------------------|
A||----5--5-5----5--x55|---5-----5--5-5---5-|----5--5------------|
E||--------------------|--------------------|---------7----7--7--|
    i    i    i    i     i    i    i    i     i    i    i    i
G||--------------------|--------------------|--------------------|
D||--------------------|--------------------|--------------------|
A||----5--5-5----5--5-5|---5-----5--5-5---5-|----5--5------------|
E||--------------------|--------------------|-----------7p5--4\2-|
    i    i    i    i     i    i    i    i     i    i    i    i

Chorus 1

G||--------------------|--------------------|--------------------|
D||--------------------|--------------------|--------------------|
A||--------------------|--------------------|--------------------|
E||-3-3--3-3--3-3--3-3-|-2-2--2-2--5-5--5-5-|-5-5--5-5--7-5--7---|
    i    i    i    i     i    i    i    i     i    i    i    i
G||--------------------|--------------------|--------------------|
D||--------------------|--------------------|--------------------|
A||--------------------|--------------------|--------------------|
E||-8-8--8-8--8-8--8-8-|-7-7--7-7--5-5--5-5-|-5-0--5-7--8-8--8-8-|
    i    i    i    i     i    i    i    i     i    i    i    i
G||--------------------|--------------------|--------------------|
D||--------------------|------7-9-----------|--------------------|
A||--------9-----------|--------------------|--------------------|
E||-8-5--8----7--------|-----------8-8--8-8-|-8-8--8-8--7-7--7-7-|
    i    i    i    i     i    i    i    i     i    i    i    i
G||--------------------|--------------------|
D||-----------7-7------|--------------------|
A||--------7-------7---|--------------------|
E||-5-5--5-----------5-|--------------------|
    i    i    i    i     i    i    i    i     

Verse 2

(wait)

G||--------------------|
D||--------------------|
A||--------------------|
E||-7\-----------------|
    i    i    i    i 

(wait) 

G||--------------------|--------------------|--------------------|
D||--------------------|--------------------|--------------------|
A||----5--5-5----5--5-5|---5-----5--5-5---5-|----5--5------------|
E||--------------------|--------------------|---------7----7--7--|
    i    i    i    i     i    i    i    i     i    i    i    i
G||--------------------|--------------------|--------------------|
D||--------------------|--------------------|--------------------|
A||----5--5-5----5--5-5|---5-----5--5-5---5-|----5--5--5---------|
E||--------------------|--------------------|-----------7--7--7--|
    i    i    i    i     i    i    i    i     i    i    i    i
G||--------------------|--------------------|--------------------|
D||--------------------|--------------------|----------/9p7--7---|
A||----5--5-5----5--5-5|---5-----5--5-5---5-|----5--5----------9-|
E||--------------------|--------------------|--------------------|
    i    i    i    i     i    i    i    i     i    i    i    i

Chorus 2

G||--------------------|--------------------|--------------------|
D||--------------------|--------------------|--------------------|
A||--------------------|--------------------|--------------------|
E||-3-3--3-3--3-3--3-3-|-2-0--2-3--5-5--5-5-|-5-5--5-5--7-5--7-7-|
    i    i    i    i     i    i    i    i     i    i    i    i
G||--------------------|--------------------|--------------------|
D||--------------------|--------------------|--------------------|
A||--------------------|--------------------|--------------------|
E||-8-8--8-8--8-8--8-8-|-7-7--7-7--5-5--5-5-|-5-0--5-7--8-8--8-8-|
    i    i    i    i     i    i    i    i     i    i    i    i
G||----------------12-11-|--------------------|--------------------|
D||----------------------|-12---7-9-----------|--------------------|
A||--------9-------------|--------------------|--------------------|
E||-8-5--8----7----------|-----------8-8--8-8-|-8-8--8-8--7-7--7-7-|
    i    i    i    i       i    i    i    i     i    i    i    i
G||--------------------|--------------------|
D||-----------7-7------|--------------------|
A||--------7-------7---|--------------------|
E||-5-5--5-----------5-|--------------------|
    i    i    i    i     i    i    i    i    

Outro

(wait) "I know how it ends…"

   4/4
G||--------------------|--------------------|--------------------|
D||--------------------|--------------------|--------------------|
A||--------------------|--------------------|--------------------|
E||--------------------|--------------------|--------------------|
    i    i    i    i     i    i    i    i     i    i    i    i
   7/8
G||----------------------|
D||----------------------|
A||----------------------|
E||----------------------|
    i ˆ  i ˆ  i ˆ  i ^ ^  
   4/4                  5/4
G||--------------------|-------------------------|
D||-10---------------11|----------------12\------|
A||--------------------|-------------------------|
E||--------------------|---------------------2---|
    i    i    i    i     i    i    i    i    i    

---
   4/4                         
G||--------------------|--------------------|
D||--------------------|--------------------|
A||--------------------|---4-------5--------|
E||-3------5-------7---|----------------2---|
    i    i    i    i     i    i    i    i 
   5/4
G||-------------------------|
D||-------------------------|
A||----------------5--------|
E||-3------5----7-------2---|
    i    i    i    i    i  
   4/4   
G||--------------------|--------------------|--------------------|
D||--------------------|--------------------|--------------------|
A||--------------------|--------------------|--------------------|
E||-3------5-------7---|---8----------------|-9--------------2---|
    i    i    i    i     i    i    i    i     i    i    i    i

---
   4/4                         
G||--------------------|--------------------|
D||--------------------|--------------------|
A||--------------------|---4-------5--------|
E||-3------5-------7---|----------------2---|
    i    i    i    i     i    i    i    i 
   5/4
G||-------------------------|
D||-------------------------|
A||----------------5--------|
E||-3------5----7-------2---|
    i    i    i    i    i  
   4/4                  4/3       
G||--------------------|---------------|
D||--------------------|---------------|
A||--------------------|---5-----------|
E||-3------5-------7---|-----------2---|
    i    i    i    i     i    i    i     
   4/4                                                
G||--------------------|--------------------|
D||--------------------|--------------------|
A||--------------------|---4-------5----7-9-|
E||-3------5----3--7---|-5------5-----------|
    i    i    i    i     i    i    i    i  

---
   4/4
G||--------------------|--------------------|--------------------|
D||--------------------|--------------------|--------------------|
A||-10-----------------|--------------------|-----------5--------|
E||--------5-------7---|--/10------2----3---|---5----7-------0-2-|
    i    i    i    i     i    i    i    i     i    i    i    i
   7/8
G||----------------------|
D||----------------------|
A||--------7-------5-----|
E||-3--------------------|
    i ˆ  i ˆ  i ˆ  i ^ ^  
   4/4                  5/4
G||--------------------|-------------------------|
D||--------------------|-------------------------|
A||-3----------------4-|----------------5--------|
E||--------------------|---------------------2---|
    i    i    i    i     i    i    i    i    i   


-2-
   4/4                         
G||--------------------|--------------------|
D||--------------------|--------------------|
A||-10-----------------|---4-------5----7-9-|
E||--------5-------7---|--------------------|
    i    i    i    i     i    i    i    i 
   5/4
G||-------------------------|
D||-------------------------|
A||-10-------------5----9---|
E||--------5----7-----------|
    i    i    i    i    i  
   4/4   
G||--------------------|--------------------|--------------------|
D||--------------------|--------------------|--------------------|
A||-10-----7-------5---|--------------------|--------------------|
E||--------------------|---8----------------|-9--------------2---|
    i    i    i    i     i    i    i    i     i    i    i    i
---
   4/4                         
G||--------------------|--------------------|
D||--------------------|--------------------|
A||--------------------|---4-------5--------|
E||-3------5-------7---|----------------2---|
    i    i    i    i     i    i    i    i 
   5/4
G||-------------------------|
D||-------------------------|
A||----------------5--------|
E||-3------5----7-------2---|
    i    i    i    i    i  
   4/4                  4/3       
G||--------------------|---------------|
D||--------------------|---------------|
A||--------------------|---5-----------|
E||-3------5-------7---|-----------2---|
    i    i    i    i     i    i    i     
   4/4                                                
G||--------------------|--------------------|
D||--------------------|--------------------|
A||--------------------|---4-------5----7-9-|
E||-3------5----3--7---|-5------5-----------|
    i    i    i    i     i    i    i    i  
---
   4/4
G||--------------------|--------------------|--------------------|
D||--------------------|--------------------|--------------------|
A||-10-----------------|--------------------|-----------5--------|
E||--------5-------7---|--/10------2----3---|---5----7-------0-2-|
    i    i    i    i     i    i    i    i     i    i    i    i
   7/8
G||----------------------|
D||----------------------|
A||----------------2-----|
E||-3------5-------------|
    i ˆ  i ˆ  i ˆ  i ^ ^  
   4/4                  5/4
G||--------------------|-------------------------|
D||--------------------|-------------------------|
A||-3----------------4-|-------------------------|
E||--------------------|-------------------------|
    i    i    i    i     i    i    i    i    i   


Tab by Pedro Zappa
-----------------------------------------------------------------------------
-----------------------------------------------------------------------------


13. Hiawatha Doomed


Verse 1

(wait)

G||------------------------|--------------------|
D||-----------3-------12.12|-12-----------------|
A||-------------5----------|--------------------|
E||------------------------|--------------------|
    i    i    i    i         i    i    i    i 

(wait)

G||---------------------|--------------------||
D||-----------7-------10|-10-----------------||
A||-------------5-------|--------------------||
E||---------------------|--------------------||
    i    i    i    i      i    i    i    i

(wait)

G||--------------------|--------------------|
D||-7h8--8-8--8-8--8-7-|-7-----------7------|
A||--------------------|---5--5-5--5----5-5-|
E||--------------------|--------------------|
    i    i    i    i     i    i    i    i
G||--------------------|--------------------||
D||-7h8--8-8--8-8--8-7-|-7----------------3-||
A||--------------------|---5--5-5--5-3--5---||
E||--------------------|--------------------||
    i    i    i    i     i    i    i    i
G||--------------------|--------------------|| x2
D||-7h8--8-8--8-8--8-7-|-7-----------7------||
A||--------------------|---5--5-5--5----5-5-||
E||--------------------|--------------------||
    i    i    i    i     i    i    i    i
G||--------------------|--------------------||
D||-7h8--8-8--8-8--8-7-|-7----------------3-||
A||--------------------|---5--5-5--5-3--5---||
E||--------------------|--------------------||
    i    i    i    i     i    i    i    i
G||--------------------|-------------5------|
D||-7h8--8-8--8-7------|------3-5--7----7---|
A||----------------8-5-|-3-5----------------|
E||--------------------|--------------------|
    i    i    i    i     i    i    i    i

G||--------------------|--------------------|
D||--------------------|--------------------|
A||--------------------|--------5----5----5-|
E||--------------------|--------------------|
    i    i    i    i     i    i    i    i
G||--------------------|--------------------|
D||-7h8--8-8--8-8--8-7-|-7-----------7------|
A||--------------------|---5--5-5--5----5-5-|
E||--------------------|--------------------|
    i    i    i    i     i    i    i    i
G||--------------------|--------------------|
D||-7h8--8-8--8-8--8-7-|-7----------------3-|
A||--------------------|---5--5-5--5-3--5---|
E||--------------------|--------------------|
    i    i    i    i     i    i    i    i
G||--------------------|-------------5------|
D||-7h8--8-8--8-7------|------3-5--7----7---|
A||----------------8-5-|-3-5----------------|
E||--------------------|--------------------|
    i    i    i    i     i    i    i    i

(wait) 

Chorus 1

G||--------------------|
D||-----------16\------|
A||--------------------|
E||----------------0/--|
    i    i    i    i
G||--------------------|--------------------|
D||--------------------|--------------------|
A||--------4-----------|--------9----6------|
E||-5-----------5----5-|-7----------------7-|
    i    i    i    i     i    i    i    i
G||--------------------|--------------------|
D||--------------------|--------------------|
A||--------7----6----4-|--------------------|
E||-9------------------|-2/---6------2--2-2-|
    i    i    i    i     i    i    i    i
G||--------------------|--------------------|
D||--------------------|--------------------|
A||--------4-----------|--------6----9------|
E||-5-----------5----5-|-7----------------x-|
    i    i    i    i     i    i    i    i
G||--------------------|--------------------|
D||--------------------|------------------8-|
A||--------7----6------|-------------9------|
E||-9----------------x-|-2/---6-------------|
    i    i    i    i     i    i    i    i

G||--------------------|--------------------|
D||---7----7----7----7-|---9----9----9----9\|
A||--------------------|--------------------|
E||--------------------|--------------------|
    i    i    i    i     i    i    i    i
G||--------------------|--------------------|
D||---2----2----2----2-|-4-4--4-2--2-4--4---|
A||--------------------|--------------------|
E||--------------------|--------------------|
    i    i    i    i     i    i    i    i

(wait)

Verse 2

G||--------------------|-------------7------|
D||-7h8--8-8--8-8--8-7-|-7------------------|
A||--------------------|---5--5-5--5----5-5-|
E||--------------------|--------------------|
    i    i    i    i     i    i    i    i
G||--------------------|--------------------|
D||-7h8--8-8--8-8--8-7-|-7------------------|
A||--------------------|---5--5-5--5-8--7-5-|
E||--------------------|--------------------|
    i    i    i    i     i    i    i    i
G||--------------------|--------------------||
D||-7h8--8-8--8-8--8-7-|-7----------------3-||
A||--------------------|---5--5-5--5-3--5---||
E||--------------------|--------------------||
    i    i    i    i     i    i    i    i
G||--------------------|-------------5------|
D||-7h8--8-8--8-7------|------3-5--7----7---|
A||----------------8-5-|-3-5----------------|
E||--------------------|--------------------|
    i    i    i    i     i    i    i    i

G||--------------------|--------------------|
D||------------------3-|--------3---------3-|
A||----------------35--|---5--5------5--5---|
E||--------------------|--------------------|
    i    i    i    i     i    i    i    i
G||--------------------|--------------------|
D||-7h8--8-8--8-7----7-|--------7-----------|
A||----------------8---|---5--5------5--5-5-|
E||--------------------|--------------------|
    i    i    i    i     i    i    i    i
G||--------------------|--------------------|
D||-7h8--8-8--8-7----10|---7----10---7------|
A||----------------8---|------8---------8-7-|
E||--------------------|--------------------|
    i    i    i    i     i    i    i    i
G||--------------------|-------------5------|
D||---8--8-8--8-7------|------3-5--7----7---|
A||-5--------------8-5-|-3-5----------------|
E||--------------------|--------------------|
    i    i    i    i     i    i    i    i

(wait) 

Chorus 2

G||--------------------|
D||-----------16\------|
A||--------------------|
E||----------------0/--|
    i    i    i    i
G||--------------------|--------------------|
D||--------------------|--------------------|
A||--------4-----------|--------9----6------|
E||-5-----------5----5-|-7----------------7-|
    i    i    i    i     i    i    i    i
G||--------------------|--------------------|
D||--------------------|--------------------|
A||--------7----6----4-|--------------------|
E||-9------------------|-2/---6------2--2-2-|
    i    i    i    i     i    i    i    i
G||--------------------|--------------------|
D||--------------------|--------------------|
A||--------4-----------|--------9----6------|
E||-5-----------5----5-|-7----------------x-|
    i    i    i    i     i    i    i    i
G||--------------------|--------------------|
D||--------------------|------------------8-|
A||--------7----6------|-------------9------|
E||-9----------------x-|-2/---6-------------|
    i    i    i    i     i    i    i    i

G||--------------------|--------------------|
D||---7----7----7----7-|---9----9----9----9\|
A||--------------------|--------------------|
E||--------------------|--------------------|
    i    i    i    i     i    i    i    i
G||--------------------|--------------------|
D||---2----2----2----2-|-4-4--4-2--2-4--4---|
A||--------------------|--------------------|
E||--------------------|--------------------|
    i    i    i    i     i    i    i    i

G||--------------------|--------------------|
D||-7-7--7-7--7-7--7-7-|-9-9--9-9--9-9--9-9-|
A||--------------------|--------------------|
E||--------------------|--------------------|
    i    i    i    i     i    i    i    i
G||--------------------|--------------------|
D||--------------------|--------------------|
A||-7-7--7-7--7-6--4---|--------------------|
E||------------------0-|-2-2--2-0--0-2--2---|
    i    i    i    i     i    i    i    i

G||--------------------|--------------------|
D||-7-7--7-7--7-7--7-7-|-9-9--9-9--9-9--9-9-|
A||--------------------|--------------------|
E||--------------------|--------------------|
    i    i    i    i     i    i    i    i
G||--------------------|--------------------|
D||--------------------|--------------------|
A||-7-7--7-7--7-6--4---|-9-9--9-7--7-9--9-11|
E||------------------0-|--------------------|
    i    i    i    i     i    i    i    i

Outro

(wait)

G||--------------------|--------------------|
D||--------------------|--------------------|
A||-0h1--1-1---------5-|-5-5--5-5--5-3--0-3-|
E||-----------1-1--1---|--------------------|
    i    i    i    i     i    i    i    i
G||--------------------|--------------------||
D||--------------------|--------------------||
A||-0h1--1-1---------5-|-5-5--5-5--5-0--3-5-||
E||-----------1-1--1---|--------------------||
    i    i    i    i     i    i    i    i
G||--------------------|--------------------||  x2
D||--------------------|--------------------||
A||-0h1--1-1---------5-|-5-5--5-5--5-3--0-3-||
E||-----------1-1--1---|--------------------||
    i    i    i    i     i    i    i    i


Tab by Pedro Zappa
-----------------------------------------------------------------------------
-----------------------------------------------------------------------------
comments
We did not receive enough feedback on this tab! Please rate:
print report bad tab
1 2 3 4 5
I want to post or [tab]
guest
You may want to rate the tab now too:
select rating
Please do not post tabs as comments. Select "correction" instead!