Oops, an error
Loading. Please wait.

First Blood Tab

3,022 views 3 this week
no commentswrite comment
1 2 3 4 5
excellent!
x 2
Autoscroll
+/-
esc
set tempo
stop
Contributor
WARNING: You are trying to view
                                    content from Ultimate-Guitar.com
                                    in an unauthorized application,
                                    which is prohibited.

                                    Please use an official Ultimate
                                    Guitar Tabs application for iPhone,
                                    iPad or Android to access legitimate
                                    chords, guitar, bass, and drum tabs
                                    from Ultimate-Guitar.com database.

                                    Type "ultimate guitar tabs" in Apple
                                    App Store's or Android Market's
                                    search to find the application.
-------------------------------------------------------------------------------
                             First Blood - Evile
-------------------------------------------------------------------------------

Tabbed by: Mustaine
Email: kreator11@gmail.com


Tuning: E Flat


D#|------------------------------------------------------------------------------|
A#|------------------------------------------------------------------------------|
F#|------------------------------------------------------------------------------|
C#|-2--2---2--2---2--2---2--2---9--9---------------------------------------------|
G#|-2--2---2--2---2--2---2--2---7--7---------------------------------------------|
D#|-0--0---0--0---0--0---0--0----------------------------------------------------|
                                                                              

D#|------------------------------------------------------------------------------|
A#|------------------------------------------------------------------------------|
F#|------------------------------------------------------------------------------|
C#|------------------------------------------------------------------------------|
G#|------5-----4\3-----3/4-----5/8-8-----7\5-------5-----4\3-----3/4-------------|
D#|-0-0--3--0--2\1--0--1/2--0--3/6-6--0--5\3--0-0--3--0--2\1--0--1/2--0-0-0-0-0--|
                                                                              

D#|------------------------------------------------------------------------------|
A#|------------------------------------------------------------------------------|
F#|------------------------------------------------------------------------------|
C#|------------------------------------------------------------------------------|
G#|------------------------------------------------------------------------------|
D#|-0-0--------------------------------------------------------------------------|
                             repeat above 2 bars 4x                           

D#|------------------------------------------------------------------------------|
A#|------------------------------------------------------------------------------|
F#|------------------------------------------------------------------------------|
C#|------------------------------------------------------------------------------|
G#|---4-5-------3-4-------4-5-------5-6------------------------------------------|
D#|---2-3--0----1-2--0----2-3--0----3-4--0---------------------------------------|
                                                                              

D#|------------------------------------------------------------------------------|
A#|------------------------------------------------------------------------------|
F#|------------------------------------------------------------------------------|
C#|-6-----------------------------------------------------------6----------------|
G#|-4-----------------------------------------------------------4----------------|
D#|----3-3-3-3-2-2-2-2-0-0-0-0-0-0-0-0-0-0-0-0-0-0-0-0-0-0-0-0-----3-3-3-3-2-2-2-|
                                                                              

D#|------------------------------------------------------------------------------|
A#|------------------------------------------------------------------------------|
F#|------------------------------------------------------------------------------|
C#|------------7-----------------------------------------------------------------|
G#|------------5-----------------------------------------------------------------|
D#|-2-0-0-0-0-----4-4-4-4-3-3-3-3-2-2-2-2----------------------------------------|
                                repeat above 2 bars 6x                        

D#|------------------------------------------------------------------------------|
A#|------------------------------------------------------------------------------|
F#|------------------------------------------------------------------------------|
C#|-2--2---8--8----------6--6----------------------------------------------------|
G#|-2--2---6--6---7--7---4--4----------------------------------------------------|
D#|-0--0----------5--5-----------------------------------------------------------|
                                                                              

D#|------------------------------------------------------------------------------|
A#|------------------------------------------------------------------------------|
F#|------------------------------------------------------------------------------|
C#|------------------------------------------------------------------------------|
G#|--------------------------------------------------5---4-----------------------|
D#|-3-3-3-3-3-3-3-3-3-3-3-3-3-3-3-3-3-3-3-3-3-3-3-3----3-------------------------|
  FIRST BLOOD!!!                                                              

D#|------------------------------------------------------------------------------|
A#|------------------------------------------------------------------------------|
F#|------------------------------------------------------------------------------|
C#|------------------------------------------------------------------------------|
G#|--------------------------------------------------4---3-----------------------|
D#|-2-2-2-2-2-2-2-2-2-2-2-2-2-2-2-2-2-2-2-2-2-2-2-2----2-------------------------|
                         repeat above 2 bars 2x                               

D#|------------------------------------------------------------------------------|
A#|------------------------------------------------------------------------------|
F#|------------------------------------------------------------------------------|
C#|------------------------------------------------------------------------------|
G#|-------------------------------------------------5---4------------------------|
D#|-3-3-3-3-3-3-3-3-3-3-3-3-3-3-3-3-3-3-3-3--3-3-3----3--------------------------|
                                                                              

D#|------------------------------------------------------------------------------|
A#|------------------------------------------------------------------------------|
F#|------------------------------------------------------------------------------|
C#|------------------------------------------------------------------------------|
G#|-------------------------------------------------4---3------------------------|
D#|-2-2-2-2-2-2-2-2-2-2-2-2-2-2-2-2-2-2-2-2--2-2-2----2--------------------------|
                                                                              

D#|------------------------------------------------------------------------------|
A#|------------------------------------------------------------------------------|
F#|------------------------------------------------------------------------------|
C#|------------------------------------------------------------------------------|
G#|-------------------------------------------------5---4------------------------|
D#|-3-3-3-3-3-3-3-3-3-3-3-3-3-3-3-3-3-3-3-3--3-3-3----3--------------------------|
                                                                              

D#|------------------------------------------------------------------------------|
A#|------------------------------------------------------------------------------|
F#|------------------------------------------------------------------------------|
C#|------------------------------------------------------------------------------|
G#|-----------------4---3-------------------3---2--------------------------------|
D#|-2-2-2-2--2-2-2----2-----1-1-1-1--1-1-1----1----------------------------------|
                                                                              

D#|------------------------------------------------------------------------------|
A#|------------------------------------------------------------------------------|
F#|-------------------------4-4---4----------------------------------------------|
C#|-------------------------2-2---2----------------------------------------------|
G#|---------2---1----------------------------2---1----------4-----------7--------|
D#|-0-0-0-0---0----0-0-0-0------0----0-0-0-0---0----0-0--2/3---0-0--5/6----------|
                        repeat above bar 2x                                   

D#|------------------------------------------------------------------------------|
A#|------------------------------------------------------------------------------|
F#|------------------------------------------------------------------------------|
C#|------------------------------------------------------------------------------|
G#|---------2---1--------------------------2---1-----------4-----------7---------|
D#|-0-0-0-0---0----0-0-0-0-0-0-0-0-0-0-0-0---0----0-0--2/3----0-0--5/6-----------|
                        repeat above bar 4x                                   

D#|------------------------------------------------------------------------------|
A#|------------------------------------------------------------------------------|
F#|------------------------------------------------------------------------------|
C#|-------5---4-------10----2--------10---2--------10---2--------10--------------|
G#|-----4---6------3---8----2---------8---2---------8---2---------8--------------|
D#|-0-0----------0----------0---0-0-------0---0-0-------0---0-0------------------|
                                                                              

D#|------------------------------------------------------------------------------|
A#|------------------------------------------------------------------------------|
F#|------------------------------------------------------------------------------|
C#|-------------------------------------------------------------------4----------|
G#|-----1-----------------1--------3--------1-----------------1----3--4----------|
D#|-0-1---1--0-0-0-0--0-1---1--0-3---3--0-1---1--0-0-0-0--0-1---0--3-------------|
                      repeat above bar 5x                                     

D#|------------------------------------------------------------------------------|
A#|------------------------------------------------------------------------------|
F#|------------------------------------------------------------------------------|
C#|-----------------------------------------------------4------------------------|
G#|--------------------------------------------------3--4------------------------|
D#|-2-2-2-2-2-2-2-2-2-2-2-2-2-2-2-2-2-2-2-2-2-2-2-2--3---------------------------|
   solo rhythm                    repeat above bar 4x                         

D#|------------------------------------------------------------------------------|
A#|------------------------------------------------------------------------------|
F#|------------------------------------------------------------------------------|
C#|-----------------------------------------------------6------------------------|
G#|--------------------------------------------------5--6------------------------|
D#|-4-4-4-4-4-4-4-4-4-4-4-4-4-4-4-4-4-4-4-4-4-4-4-4--5---------------------------|
                                                                              

D#|------------------------------------------------------------------------------|
A#|------------------------------------------------------------------------------|
F#|------------------------------------------------------------------------------|
C#|-8------------------------------------------9---------------------------------|
G#|-6--6-6-6-6-6-6-6-6-6-6-6-6-6-6-6-6-6-6--7--7---------------------------------|
D#|-----------------------------------------5------------------------------------|
                                                                              

D#|------------------------------------------------------------------------------|
A#|------------------------------------------------------------------------------|
F#|------------------------------------------------------------------------------|
C#|-8------------------------------------------7---------------------------------|
G#|-6--6-6-6-6-6-6-6-6-6-6-6-6-6-6-6-6-6-6--9--5---------------------------------|
D#|-----------------------------------------7------------------------------------|
                           repeat above 2 bars 2x                             

D#|------------------------------------------------------------------------------|
A#|------------------------------------------------------------------------------|
F#|------------------------------------------------------------------------------|
C#|------------------------------------------------------------------------------|
G#|------5-----4\3-----3/4-----5/8-8-----7\5-------5-----4\3-----3/4-------------|
D#|-0-0--3--0--2\1--0--1/2--0--3/6-6--0--5\3--0-0--3--0--2\1--0--1/2--0-0-0-0-0--|
                                                                              

D#|------------------------------------------------------------------------------|
A#|------------------------------------------------------------------------------|
F#|------------------------------------------------------------------------------|
C#|------------------------------------------------------------------------------|
G#|------------------------------------------------------------------------------|
D#|-0-0--------------------------------------------------------------------------|
                           repeat above 2 bars 4x                             

D#|------------------------------------------------------------------------------|
A#|------------------------------------------------------------------------------|
F#|------------------------------------------------------------------------------|
C#|------------------------------------------------------------------------------|
G#|---4-5-------3-4-------4-5-------5-6------------------------------------------|
D#|---2-3--0----1-2--0----2-3--0----3-4--0---------------------------------------|
                                                                              

D#|------------------------------------------------------------------------------|
A#|------------------------------------------------------------------------------|
F#|------------------------------------------------------------------------------|
C#|-6-----------------------------------------------------------6----------------|
G#|-4-----------------------------------------------------------4----------------|
D#|----3-3-3-3-2-2-2-2-0-0-0-0-0-0-0-0-0-0-0-0-0-0-0-0-0-0-0-0-----3-3-3-3-2-2-2-|
                                                                              

D#|------------------------------------------------------------------------------|
A#|------------------------------------------------------------------------------|
F#|------------------------------------------------------------------------------|
C#|------------7-----------------------------------------------------------------|
G#|------------5-----------------------------------------------------------------|
D#|-2-0-0-0-0-----4-4-4-4-3-3-3-3-2-2-2-2----------------------------------------|
                                repeat above 2 bars 4x                        

D#|------------------------------------------------------------------------------|
A#|------------------------------------------------------------------------------|
F#|------------------------------------------------------------------------------|
C#|-2--2---8--8----------6--6----------------------------------------------------|
G#|-2--2---6--6---7--7---4--4----------------------------------------------------|
D#|-0--0----------5--5-----------------------------------------------------------|
                                                                              

D#|------------------------------------------------------------------------------|
A#|------------------------------------------------------------------------------|
F#|------------------------------------------------------------------------------|
C#|------------------------------------------------------------------------------|
G#|--------------------------------------------------5---4-----------------------|
D#|-3-3-3-3-3-3-3-3-3-3-3-3-3-3-3-3-3-3-3-3-3-3-3-3----3-------------------------|
                                                                              

D#|------------------------------------------------------------------------------|
A#|------------------------------------------------------------------------------|
F#|------------------------------------------------------------------------------|
C#|------------------------------------------------------------------------------|
G#|--------------------------------------------------4---3-----------------------|
D#|-2-2-2-2-2-2-2-2-2-2-2-2-2-2-2-2-2-2-2-2-2-2-2-2----2-------------------------|
                      repeat above 2 bars 2x                                  

D#|------------------------------------------------------------------------------|
A#|------------------------------------------------------------------------------|
F#|------------------------------------------------------------------------------|
C#|------------------------------------------------------------------------------|
G#|-------------------------------------------------5---4------------------------|
D#|-3-3-3-3-3-3-3-3-3-3-3-3-3-3-3-3-3-3-3-3--3-3-3----3--------------------------|
                                                                              

D#|------------------------------------------------------------------------------|
A#|------------------------------------------------------------------------------|
F#|------------------------------------------------------------------------------|
C#|------------------------------------------------------------------------------|
G#|-------------------------------------------------4---3------------------------|
D#|-2-2-2-2-2-2-2-2-2-2-2-2-2-2-2-2-2-2-2-2--2-2-2----2--------------------------|
                                                                              

D#|------------------------------------------------------------------------------|
A#|------------------------------------------------------------------------------|
F#|------------------------------------------------------------------------------|
C#|------------------------------------------------------------------------------|
G#|-------------------------------------------------5---4------------------------|
D#|-3-3-3-3-3-3-3-3-3-3-3-3-3-3-3-3-3-3-3-3--3-3-3----3--------------------------|
                                                                              

D#|------------------------------------------------------------------------------|
A#|------------------------------------------------------------------------------|
F#|------------------------------------------------------------------------------|
C#|------------------------------------------------------------------------------|
G#|-----------------4---3-------------------3---2--------------------------------|
D#|-2-2-2-2--2-2-2----2-----1-1-1-1--1-1-1----1----------------------------------|
                                                                              

D#|------------------------------------------------------------------------------|
A#|------------------------------------------------------------------------------|
F#|------------------------------------------------------------------------------|
C#|--------------------------------------------2---------------------------------|
G#|------5-----4\3-----3/4-----5/8-8-----7\5---2---------------------------------|
D#|-0-0--3--0--2\1--0--1/2--0--3/6-6--0--5\3---0---------------------------------|
                                                                              

comments
We did not receive enough feedback on this tab! Please rate:
print report bad tab
1 2 3 4 5
I want to post or [tab]
guest
You may want to rate the tab now too:
select rating
Please do not post tabs as comments. Select "correction" instead!