Oops, an error
Loading. Please wait.

Be Comfortable Creature Tab

5,592 views 33 this week
1 commentread comment
1 2 3 4 5
excellent!
x 7
Autoscroll
+/-
esc
set tempo
stop
Contributor
Difficulty
intermediate
WARNING: You are trying to view
                                    content from Ultimate-Guitar.com
                                    in an unauthorized application,
                                    which is prohibited.

                                    Please use an official Ultimate
                                    Guitar Tabs application for iPhone,
                                    iPad or Android to access legitimate
                                    chords, guitar, bass, and drum tabs
                                    from Ultimate-Guitar.com database.

                                    Type "ultimate guitar tabs" in Apple
                                    App Store's or Android Market's
                                    search to find the application.
-------------------------------------------------------------------------------
                             BE COMFORTABLE, CREATURE - Explosions In The Sky
-------------------------------------------------------------------------------
Tabbed by: smeadows7
Email: smeadows@rc.edu

Tuning: Standard


-------------------------------------Guitar 1----------------------------------------

*Guitar 1  (Finger-picked)
(0:00-2:20)
e|7--7--7---7--7--7---5--5--5---5--5--5---5--5--5---5--5--5---5--5--5---5--5--5-------|
B|-7--7--7---7--7--7---5--5--5---5--5--5---5--5--5---5--5--5---5--5--5---5--5--5------|
G|--7--7--7---7--7--7---6--6--6---6--6--6---7--7--7---7--7--7---6--6--6---6--6--6-----|
D|--------------------------------------------------7---------------------------------|
A|----------9--------------------7---------5----------------------------7-------------|
E|7--------------------5--------------------------------------5-----------------------|

e|7--7--7---7--7--7---5--5--5---5--5--5---5--5--5---5--5--5---5--5--5---5--5--5-------|
B|-7--7--7---7--7--7---5--5--5---5--5--5---5--5--5---5--5--5---5--5--5---5--5--5------|
G|--7--7--7---7--7--7---6--6--6---6--6--6---7--7--7---7--7--7---6--6--6---6--6--6-----|
D|--------------------------------------------------7---------------------------------|
A|----------9--------------------7---------5----------------------------7-------------|
E|7--------------------5--------------------------------------5-----------------------|

e|-3--3--3---3--3--3---5--5--5---5--5--5-------|
B|--3--3--3---3--3--3---5--5--5---5--5--5------|
G|---4--4--4---4--4--4---6--6--6---6--6--6-----|  Repeat whole finger-picked section.
D|---------------------------------------------|
A|-----------5-------------------7-------------|
E|-3-------------------5-----------------------|

(3:34-3:57)
e|--------------------------------------|
B|--------------------------------------|
G|--------------------------------------|  Repeat
D|--7777/12~--12121212\5~--5555/9~------|
A|--7777/12~--12121212\5~--5555/9~------|
E|--5555/10~--10101010\3~--3333/7~------|

(4:52-5:15)
e|--------------------------------------|
B|--------------------------------------|
G|--------------------------------------|  Repeat
D|--7777/12~--12121212\5~--5555/9~------|
A|--7777/12~--12121212\5~--5555/9~------|
E|--5555/10~--10101010\3~--3333/7~------|

(5:42-5:55)
e|---------------|
B|---------------|
G|-----4---------|
D|-----5-(x8)----|
A|---------------|
E|---3-----------|

(5:56-6:54)
e|------------------------|
B|------------------------|
G|-----4----5----4----2---|  Repeat
D|-----5----5----5----5---|
A|------------------------|
E|---3----3----3----3-----|

(6:55-Fade Out)
e|---------------------------|
B|---------------------------|
G|-----4----5----4----2------|  Repeat
D|-----5----5----5----5------|
A|---------------------------|
E|---3----0----3----5--------|


-------------------------------------Bass Lines---------------------------------------

(2:21-2:26)
G|-------------------|
D|-------------------|
A|-------------------|
E|---10~-------10~---|

(2:27-3:31)
G|-------------------------------|
D|-------------------------------|  Repeat
A|-----12-9---7-4---9-5--4-0-----|
E|--10------5-----7-----2--------|

(3:32-3:57)
G|---------------------------------------|
D|---------------------------------------|  Repeat
A|---------------------------------------|
E|--5-55-5/10-1010-10\3-33-3/7-77-7\-----|

(3:58-4:49)
G|-------------------------------|
D|-------------------------------|  Repeat
A|-----12-9---7-4---9-5--4-0-----|
E|--10------5-----7-----2--------|

(4:50-5:15)
G|---------------------------------------|
D|---------------------------------------|  Repeat
A|---------------------------------------|
E|--5-55-5/10-1010-10\3-33-3/7-77-7\-----|

(5:16-5:41)
G|-------------------------------|
D|-------------------------------|  Repeat and end on G
A|-----12-9---7-4---9-5--4-0-----|
E|--10------5-----7-----2--------|



------------------------------------Guitar 2-----------------------------------------

(0:14-0:32)
e|------10--12--10-12--12\10----10--12--10-12--12\10------------|
B|--10-----------------------10-----------------------10--------|
G|---------------------------------------------------------9----|
D|--------------------------------------------------------------|
A|--------------------------------------------------------------|
E|--------------------------------------------------------------|

(1:10-1:23)
e|---------------------------------------------------------------------|
B|------------------------------------------------------------14-------|
G|----11--14-11----11---11--14-11------11--14-11----11---14------------|
D|--12--12-------12---12--12---------12--12-------12---14---14---------|
A|---------------------------------------------------------------------|
E|---------------------------------------------------------------------|

(1:24-1:37)
e|-------------------------------------------------------------------|
B|-----------------------------------------------------------14------|
G|----11--14-11----11---11--14-11------11--14-11----11----14---------|
D|--12--12-------12---12--12---------12--12-------12----14-----------|
A|-------------------------------------------------------------------|
E|-------------------------------------------------------------------|

(1:38-1:44)
e|--------------------------------------|
B|--------------------------------------|
G|--------------------------------------|
D|-----------12p11-1111-----------------|
A|--12\9-99--------------12\7-77-77-----|
E|--------------------------------------|

(2:53-3:06)
e|---------------------------------------|
B|---------------------------------------|
G|---6-(x6)-11-(x6)-6-(x6)--11-(x6)------|
D|--7------9-------7-------9-------------|
A|---------------------------------------|
E|---------------------------------------|

(3:07-3:32)
e|------------------------------------------|
B|------------------------------------------|
G|---6-(x6)-11-(x6)---14-(x6)--11-(x6)------|  Repeat Twice
D|--7------9--------12--------9-------------|
A|------------------------------------------|
E|------------------------------------------|

(3:32-3:57)
e|---------------------------------------------|
B|---10-(x6)--12-(x6)--14-(x6)---12-(x6)-------|
G|--9-------11-------12--------11--------------|
D|---------------------------------------------|  Repeat Twice
A|---------------------------------------------|
E|---------------------------------------------|

(3:58-4:11)
e|-----------------------------------------|
B|---12-(x3)--10-(x6)-8-(x6)--7-(x9)-------|
G|--11------11-------9-------7-------------|
D|-----------------------------------------|
A|-----------------------------------------|
E|-----------------------------------------|

(4:11-4:23)
e|---------------------------------------|
B|---------------------------------------|
G|---6-(x6)-11-(x6)-6-(x6)--11-(x6)------|
D|--7------9-------7-------9-------------|
A|---------------------------------------|
E|---------------------------------------|

(4:24-4:49)
e|------------------------------------------|
B|------------------------------------------|
G|---6-(x6)-11-(x6)---14-(x6)--11-(x6)------|  Repeat Twice
D|--7------9--------12--------9-------------|
A|------------------------------------------|
E|------------------------------------------|

(4:50-5:15)
e|---------------------------------------------|
B|---10-(x6)--12-(x6)--14-(x6)---12-(x6)-------|
G|--9-------11-------12--------11--------------|
D|---------------------------------------------|  Repeat Twice
A|---------------------------------------------|
E|---------------------------------------------|

(5:16-5:41)
e|----17---15--15p14--14h15--12\10--10p9------------------|
B|--15---15-------------------------------10--12\---------|
G|-----------------------------------------------9/11-----|  Repeat Twice
D|--------------------------------------------------------|
A|--------------------------------------------------------|
E|--------------------------------------------------------|

(6:12-Fade Out)
e|------------------------|
B|------------------------|
G|--7---Tremolo Picked----|
D|--5---------------------|
A|------------------------|
E|------------------------|


------------------------------------Guitar 3-----------------------------------------

(0:28-0:35)
e|--------------------------------|
B|-----14h15---(x6)--17---(x6)----|
G|--14------18--------18----------|
D|--------------------------------|
A|--------------------------------|
E|--------------------------------|

(0:35-1:10)
e|--22-21---21-17--17--17-14--14h15--14-12--------------|
B|--19------17---------15------------14------15-14------|
G|------------------------------------------------------|
D|------------------------------------------------------|
A|------------------------------------------------------|
E|------------------------------------------------------|

e|--22-21---21-17--17--17-14--14h15--14-12---------------------------------|
B|--19------17---------15------------14------15-14-15---(x6)-17---(x6)-----|
G|---------------------------------------------------18-------18-----------|
D|-------------------------------------------------------------------------|
A|-------------------------------------------------------------------------|
E|-------------------------------------------------------------------------|

(1:23-1:44)
e|--22-21---21-17--17--17-14--14h15--14-12---------------------------------|
B|--19------17---------15------------14------15-14-15---(x6)-17---(x6)-----|
G|---------------------------------------------------18-------18-----------|
D|-------------------------------------------------------------------------|
A|-------------------------------------------------------------------------|
E|-------------------------------------------------------------------------|

(E-Bow/Volume Pedal for the remainder of the song)
(2:40-2:52)
e|--------------------------------------------------|
B|--------------------------------------------------|
G|--11h12p11\9h11p9\7h9p7\6h7p6\4~-\2~----/11~------|
D|-------------------------------------4~-----------|
A|--------------------------------------------------|
E|--------------------------------------------------|

(2:53-3:18)
e|-----------------------------------------------------|
B|-----------------------------------------------------|
G|--11h12p11\9h11p9\7h9p7\6h7p6\4~-\2~-/14~-\11~-------|  Repeat Twice
D|-----------------------------------------------------|
A|-----------------------------------------------------|
E|-----------------------------------------------------|

(3:19-3:30)
e|-------------------------------------------------|
B|-------------------------------------------------|
G|--11h12p11\9h11p9\7h9p7\6h7p6\4~-\2~-/19~-\------|
D|-------------------------------------------------|
A|-------------------------------------------------|
E|-------------------------------------------------|

(3:32-3:57)
e|---------------------------------------------------------------------|
B|---------------------------------------------------------------------|
G|--11h12p11\9h11p9/-(x6)-/14~-\12\11--11h12p11\9h11p9/-(x6)-/14~------|
D|---------------------------------------------------------------------|
A|---------------------------------------------------------------------|
E|---------------------------------------------------------------------|

(3:58-4:10)
e|--------------------------------------------------|
B|--------------------------------------------------|
G|--11h12p11\9h11p9\7h9p7\6h7p6\4~-\2~----/11~------|
D|-------------------------------------4~-----------|
A|--------------------------------------------------|
E|--------------------------------------------------|

(4:11-4:36)
e|-----------------------------------------------------|
B|-----------------------------------------------------|
G|--11h12p11\9h11p9\7h9p7\6h7p6\4~-\2~-/14~-\11~-------|  Repeat Twice
D|-----------------------------------------------------|
A|-----------------------------------------------------|
E|-----------------------------------------------------|

(4:37-4:49)
e|-------------------------------------------------|
B|-------------------------------------------------|
G|--11h12p11\9h11p9\7h9p7\6h7p6\4~-\2~-/19~-\------|
D|-------------------------------------------------|
A|-------------------------------------------------|
E|-------------------------------------------------|

(4:50-5:15)
e|---------------------------------------------------------------------|
B|---------------------------------------------------------------------|
G|--11h12p11\9h11p9/-(x6)-/14~-\12\11--11h12p11\9h11p9/-(x6)-/14~------|
D|---------------------------------------------------------------------|
A|---------------------------------------------------------------------|
E|---------------------------------------------------------------------|

(5:16-5:28)
e|--------------------------------------------------|
B|--------------------------------------------------|
G|--11h12p11\9h11p9\7h9p7\6h7p6\4~-\2~----/11~------|
D|-------------------------------------4~-----------|
A|--------------------------------------------------|
E|--------------------------------------------------|

(5:29-5:45)
e|-------------------------------------------------|
B|-------------------------------------------------|
G|--11h12p11\9h11p9\7h9p7\6h7p6\4~-\2~-/19~--------|
D|-------------------------------------------------|
A|-------------------------------------------------|
E|-------------------------------------------------|

(6:41-7:04)
e|--------------------------------------|
B|--------------------------------------|
G|--7~-\4~-/7~--7~-\4~-/7~--7~\4-x------|  Repeat Twice
D|--------------------------------------|
A|--------------------------------------|
E|--------------------------------------|

(7:10-7:24)
e|--------------------------------------------------------------------|
B|--------------------------------------------------------------------|
G|--7~-\4~-/7~--7~-\4~-/7~--7~/14\12\7~/14\12\7~/14\12\7~/14\12\------|
D|--------------------------------------------------------------------|
A|--------------------------------------------------------------------|
E|--------------------------------------------------------------------|

(7:25-7:39)
e|-----------------------------------|
B|-----------------------------------|
G|--7~-\4~-/7~--7~-\4~-/7~--/19~-----|
D|-----------------------------------|
A|-----------------------------------|
E|-----------------------------------|

(7:40-7:53)
e|--------------------------------------------------------------------|
B|--------------------------------------------------------------------|
G|--7~-\4~-/7~--7~-\4~-/7~--7~/14\12\7~/14\12\7~/14\12\7~/14\12\------|
D|--------------------------------------------------------------------|
A|--------------------------------------------------------------------|
E|--------------------------------------------------------------------|

(7:53-8:08)
e|-----------------------------------|
B|-----------------------------------|
G|--7~-\4~-/7~--7~-\4~-/7~--/19~-----|
D|-----------------------------------|
A|-----------------------------------|
E|-----------------------------------|

(8:09-8:23)
e|--------------------------------------------------------------------|
B|--------------------------------------------------------------------|
G|--7~-\4~-/7~--7~-\4~-/7~--7~/14\12\7~/14\12\7~/14\12\7~/14\12\------| End on D
D|--------------------------------------------------------------------| fade out
A|--------------------------------------------------------------------|
E|--------------------------------------------------------------------|

Well I think that's about it as far as major guitar parts go. There are a few parts in 
there where they add some ambience and little sounds that are pretty hard to tab and may 
not even be guitars haha.
Anyway, let me know what you think or if you have any corrections.
Thank you and enjoy.

************************************

| /   slide up
| \   slide down
| h   hammer-on
| p   pull-off
| ~   vibrato
| +   harmonic
| x   Mute note
| b   Bend
| pb  Pre-bend
| br  Bend release
| pbr Pre-bend release
| brb Bend release bend

************************************
comments
print report bad tab
1 comment total.
0 reply
jeflamo wrote on December 3 2012, 01:42 pm

You are a godsend. If you tabbed "Last Known Surroundings" you would be an absolute hero!

I want to post or [tab]
guest
You may want to rate the tab now too:
select rating
Please do not post tabs as comments. Select "correction" instead!