Oops, an error
Loading. Please wait.

Only Moment We Were Alone Tab

ver3
ver3

Whole song

Interactive

More versions @911Tabs.com
3,914 views 36 this week
1 commentread comment
1 2 3 4 5
excellent!
x 5
Autoscroll
+/-
esc
set tempo
stop
Contributor
Hey! There's an official Ultimate Guitar app which is ideal
for learning songs when you're away from computer. Get the app
WARNING: You are trying to view
                                    content from Ultimate-Guitar.com
                                    in an unauthorized application,
                                    which is prohibited.

                                    Please use an official Ultimate
                                    Guitar Tabs application for iPhone,
                                    iPad or Android to access legitimate
                                    chords, guitar, bass, and drum tabs
                                    from Ultimate-Guitar.com database.

                                    Type "ultimate guitar tabs" in Apple
                                    App Store's or Android Market's
                                    search to find the application.
Hi folks! I think it's 99% complete/accurate, I've seen a lot of live video of 
this song and I've tried to match all the positions as far as I can.

Here is my video of the entire song: http://www.youtube.com/watch?v=152TJZm_s3w

Have fun!
matteo

matteodv80@libero.it


Michael James Part:


Intro:

e|-------------------------------------------------------------------------|
B|-------------------------------------------------------------------------|
G|-------------------------------------------------------------------------|
D|-------------------------------------------------------------------------|
A|-3-3-3-3-3-3-(repeat)----------------------------------------------------|
E|-------------------------------------------------------------------------|

Riff A

e|-------------------------------------------------------------------------|
B|-------------------------------------------------------------------------|
G|-------------------------------------------------------------------------|
D|-------------------------------------------------------------------------|
A|---3-3-3-3-3-3-3-3-3-3-3---3-3-3-3-3-3-3-3-3-3-3-------------------------|
E|-5-----------------------5-----------------------------------------------|

e|-------------------------------------------------------------------------|
B|-------------------------------------------------------------------------|
G|-------------------------------------------------------------------------|
D|-------------------------------------------------------------------------|
A|---3-3-3-3-3-3-3-3-3-3-3---3-3-3-3-3-3-3-3-3-3-3-------------------------|
E|-1-----------------------1-----------------------------------------------|

e|-------------------------------------------------------------------------|
B|-------------------------------------------------------------------------|
G|-------------------------------------------------------------------------|
D|-------------------------------------------------------------------------|
A|---3-3-3-3-3-3-3-3-3-3-3---3-3-3-3-3-3-3-3-3-3-3-------------------------|
E|-3-----------------------3-----------------------------------------------|

e|-------------------------------------------------------------------------|
B|-------------------------------------------------------------------------|
G|-------------------------------------------------------------------------|
D|-------------------------------------------------------------------------|
A|---3-3-3-3-3-3-3-3-3-3-3---3-3-3-3-3-3-3-3-3-3-3-------------------------|
E|-1-----------------------1-----------------------------------------------|

End Riff A

e|-------------------------------------------------------------------------|
B|-------------------------------------------------------------------------|
G|-------------------------------------------------------------------------|
D|-2-----------------------0-----------------------2-----------------------|
A|-3-3-3-3-3-3-3-3-3-3-3-3-3-3-3-3-3-3-3-3-3-3-3-3-3-3-3-3-3-3-3-3-3-3-3-3-|
E|-------------------------------------------------------------------------|

e|-------------------------------------------------------------------------|
B|-------------------------------------------------------------------------|
G|-0-----------------------------------------------------------------------|
D|-2-----------------------------------------------------------------------|
A|-3-3-3-3-3-3-3-3-3-3-3-3-(with-slight-variations-each-time)--------------|
E|-------------------------------------------------------------------------|

Riff B

e|-------------------------------------------------------------------------|
B|-------------------------------------------------------------------------|
G|-------------------------------------------------------------------------|
D|-------------------------------------------------------------------------|
A|-8----7---3---2----------------------------------------------------------|
E|-10---8---1---3----------------------------------------------------------|

Riff C

e|--------------------------3----------------------------------------------|
B|-----5-3------5-3------6-5-5---------------5-3------8-8-----3-1------3-3-|
G|----0---5----0---5----5--------4----------0---5----9-------0---2----4--4-|
D|---5--------5------3-3-------------------5--------0-------0--------0-----|
A|-0--------3----------------------then--0---------------------------------|
E|-----------------------------3------------------8-------1--------3-------|

e|------5---8---1---3------------------------------------------------------|
B|------5---8---1---3------------------------------------------------------|
G|------5---9---2---4------------------------------------------------------|
D|------7---10--3---5------------------------------------------------------|
A|-then-7---10--3---5------------------------------------------------------|
E|------5---8---1---3------------------------------------------------------|

Riff D

e|-------------------------------------------------------------------------|
B|--13-13-----8-----1-1-1--5-3---------------------------------------------|
G|--------12---9-7------------4--------------------------------------------|
D|-------------------------------------------------------------------------|
A|-0-----------------------------------------------------------------------|
E|-----------8-----1------3------------------------------------------------|

Riff E

e|-------------------------------------------------------------------------|
B|-------------------------------------------------------------------------|
G|-----0-0-----0-0------0-0-----0-0-----0-0-----0-0-----0-0----------------|
D|-----2-2-----2-2------0-0-----3-3-----3-3-----3-3-----3-3----------------|
A|---3-------3--------7-------3-------3-------3-------3--------------------|
E|-5-------5-------10-------1-------1-------1-------1----------------------|

e|-------------------------------------------------------------------------|
B|------13--13--13---------------------------------------------------------|
G|--------16--16--16-(repeat)-14-------------------------------------------|
D|-------------------------------------------------------------------------|
A|-then--------------------------------------------------------------------|
E|-------------------------------------------------------------------------|

Riff F

e|-------------------------------------------------------------------------|
B|-------------------------------------------------------------------------|
G|-------------------------------------------------------------------------|
D|-------------------------------------------------------------------------|
A|-3-3---2-2---3-----------------------------------------------------------|
E|-1-1---3-3---5-----------------------------------------------------------|

Riff G

e|-------------------------------------------------------------------------|
B|-------------------------------------------------------------------------|
G|-10---9---0---4----------------------------------------------------------|
D|-x----x---2---0----------------------------------------------------------|
A|-8----7---3---2----------------------------------------------------------|
E|-10---8---1---3----------------------------------------------------------|


Mark Smith Part:


Riff A

e|----20----20----20----20----20----20----20----20----15-------------------|
B|-17----17----15----15----17----17----15----15----13----13-(x2)-----------|
G|-------------------------------------------------------------------------|
D|-------------------------------------------------------------------------|
A|-------------------------------------------------------------------------|
E|-------------------------------------------------------------------------|


e|-------------------------------------12------15------12-------15-15------|
B|-13-13-13-13-13-13-13-13-13-13-13-13---13-13---13-13----13-13-------13-13|
G|-------------------------------------------------------------------------|
D|-------------------------------------------------------------------------|
A|-------------------------------------------------------------------------|
E|-------------------------------------------------------------------------|


e|10----------------12-----------------------------------------------------|
B|---13-13-13-13-13----13-13-13-13-13-13-13-13-13-13-13-13-13-13-13-13-13-13
G|-------------------------------------------------------------------------|
D|-------------------------------------------------------------------------|
A|-------------------------------------------------------------------------|
E|-------------------------------------------------------------------------|

End Riff A

e|-------------------------------------------------------------------------|
B|-------------------------------------------------------------------------|
G|-12-12-12-12-12-12-12-12-12-12-12-12/9---10---9--------------------------|
D|-------------------------------------------------------------------------|
A|-------------------------------------------------------------------------|
E|-------------------------------------------------------------------------|

Riff B

e|----13-15-13-15----13-15----15-12----(---------------12)-----------------|
B|-13-------------13-------13-------13-(second-time-13-13)-----------------|
G|-------------------------------------------------------------------------|
D|-------------------------------------------------------------------------|
A|-------------------------------------------------------------------------|
E|-------------------------------------------------------------------------|

Pre Riff C

e|-------------------------------------------------------------------------|
B|-------8-----8--------8-----8--------------------------------------------|
G|-12-12-12-12-12-12-12-12-12-12---(repeat)--------------------------------|
D|-------------------------------------------------------------------------|
A|-------------------------------------------------------------------------|
E|-------------------------------------------------------------------------|

Riff C

e|-------------------------------------------------------------------------|
B|-(8)-----------------------------------------------------10-10-10-10-----|
G|-12-12-12-12-12-12-12-12-9-9-9-9-12-12-12-12-12-12-12-12(12)-------------|
D|-------------------------------------------------------------------------|
A|-------------------------------------------------------------------------|
E|-------------------------------------------------------------------------|

e|-------------------------------------------------------------------------|
B|-(8)---------------------------------------------------------------------|
G|-12-12-12-12-12-12-12-12-9-9-9-9-10-10-10-10-10-10-9-9-9-9-9-9---then----|
D|-------------------------------------------------------------------------|
A|-------------------------------------------------------------------------|
E|-------------------------------------------------------------------------|


e|-------------------------------------------------------------------------|
B|(13)---------------------------------------------------------15-15-17-17-|
G|-17-17-17-17-17-17-17-17-14-14-14-14-17-17-17-17-17-17-17-17-------------|
D|-------------------------------------------------------------------------|
A|-------------------------------------------------------------------------|
E|-------------------------------------------------------------------------|

or

e|-------------------------------------------------------15-15-------------|
B|(13)---------------------------------------------------------15-15-17-17-|
G|-17-17-17-17-17-17-17-17-14-14-14-14-17-17-17-17-17-17-------------------|
D|-------------------------------------------------------------------------|
A|-------------------------------------------------------------------------|
E|-------------------------------------------------------------------------|

Riff D

e|----------------13-15-15-15----------------13----------------------------|
B|-13-15-17-13-17-------------13-15-17-13-17----17-17-17-------------------|
G|-------------------------------------------------------------------------|
D|-------------------------------------------------------------------------|
A|-------------------------------------------------------------------------|
E|-------------------------------------------------------------------------|

Riff E

e|----------13----------13-------13-15-------13-15----12-13-13----12-13-15-|
B|-13-15-17----13-15-17----15-17-------15-17-------13----------13----------|
G|-------------------------------------------------------------------------|
D|-------------------------------------------------------------------------|
A|-------------------------------------------------------------------------|
E|-------------------------------------------------------------------------|


e|----13-15-17----13-15-20-------------------------------------------------|
B|-13----------13------------then------------------------------------------|
G|-------------------------------------------------------------------------|
D|-------------------------------------------------------------------------|
A|-------------------------------------------------------------------------|
E|-------------------------------------------------------------------------|


e|-15-13-15-13-15-13-12----12----------------------------------------------|
B|----------------------15----15-13-15---(repeat-and-then-13)--------------|
G|-------------------------------------------------------------------------|
D|-------------------------------------------------------------------------|
A|-------------------------------------------------------------------------|
E|-------------------------------------------------------------------------|

Riff F

e|----------13----------13-------13-15-------13-15-------------------------|
B|-13-15-17----13-15-17----15-17-------15-17-------13---repeat-and-then----|
G|-------------------------------------------------------------------------|
D|-------------------------------------------------------------------------|
A|-------------------------------------------------------------------------|
E|-------------------------------------------------------------------------|

e|----------13----------13-------13-15-------13-15----12-13-13----12-13-15-|
B|-13-15-17----13-15-17----15-17-------15-17-------13----------13----------|
G|-------------------------------------------------------------------------|
D|-------------------------------------------------------------------------|
A|-------------------------------------------------------------------------|
E|-------------------------------------------------------------------------|


e|----13-15-17----13-15-20-------------------------------------------------|
B|-13----------13----------------------------------------------------------|
G|-------------------------------------------------------------------------|
D|-------------------------------------------------------------------------|
A|-------------------------------------------------------------------------|
E|-------------------------------------------------------------------------|

Riff G

e|-13-------15-------12------12------15------12----------------------------|
B|-15-(x12)-13-(x12)-13-(x6)-15-(x6)-13-(x6)-13-(x6)---and-finally---------|
G|-------------------------------------------------------------------------|
D|-------------------------------------------------------------------------|
A|-------------------------------------------------------------------------|
E|-------------------------------------------------------------------------|

e|----------13----------13-------13-15-------13-15----12-13-13----12-13-15-|
B|-13-15-17----13-15-17----15-17-------15-17-------13----------13----------|
G|-------------------------------------------------------------------------|
D|-------------------------------------------------------------------------|
A|-------------------------------------------------------------------------|
E|-------------------------------------------------------------------------|


e|----13-15-17----13-15-20-------------------------------------------------|
B|-13----------13----------------------------------------------------------|
G|-------------------------------------------------------------------------|
D|-------------------------------------------------------------------------|
A|-------------------------------------------------------------------------|
E|-------------------------------------------------------------------------|


Munaf Rayani Part:


Riff A (tacet first time)

e|-------------------------------------------------------------------------|
B|-------------------------------------------------8---repeat-and-then-8---|
G|-------------------------------------------------------------------------|
D|-7-8-9---5---2---3-5-7---7-8-9---10-12-14-15---7---7-------------------5-|
A|-------------------------------------------------------------------------|
E|-------------------------------------------------------------------------|

Riff B

e|-------------------------------------------------------------------------|
B|-8----------------8------------------------------------------------------|
G|---10-9-------------10-9-----5-------------------------------------------|
D|--------7-9-5-3----------7-5---------------------------------------------|
A|-------------------------------------------------------------------------|
E|-------------------------------------------------------------------------|

Pre Riff C

e|-------------------------------------------------------------------------|
B|-------------------------------------------------------------------------|
G|-------------------------------------------------------------------------|
D|-14-12-10---12-10---14-12-10---(repeat)----------------------------------|
A|-------------------------------------------------------------------------|
E|-------------------------------------------------------------------------|

Riff C

e|-------------------------------------------------------------------------|
B|-------------------------------------------------------------------------|
G|-------------------------------------------------------------------------|
D|-14-12-10---12---14-12-10---9---14-12-10---12---14-12-10---9---14-12-10--|
A|-------------------------------------------------------------------------|
E|-------------------------------------------------------------------------|

e|-------------------------------------------------------------------------|
B|-------------------------------------------------------------------------|
G|-------------------------------------------------------------------------|
D|-7-5-3-2---10-12-14-15---14---7-5-3-2---10-12---(9-10-first-time-only)---|
A|-------------------------------------------------------------------------|
E|-------------------------------------------------------------------------|

e|-------------------------------------------------------------------------|
B|-------------------------------------------------------------------------|
G|-9-9-9-9-9-9-9-9-7-7-5-5-9-9-9-9-9-9-9-9-10-10-12-12---------------------|
D|-------------------------------------------------------------------------|
A|-------------------------------------------------------------------------|
E|-------------------------------------------------------------------------|

e|-------------------------------------------------------------------------|
B|-------------------------------------------------------------------------|
G|-9-9-9-9-9-9-9-9-7-7-5-5-4-4-4-4-4-4-5-5-5-5-5-5---repeat-and-then-------|
D|-------------------------------------------------------------------------|
A|-------------------------------------------------------------------------|
E|-------------------------------------------------------------------------|

e|-------------------------------------------------------------------------|
B|-------------------------------------------------------------------------|
G|-12-12-12-12-12-12-12-12-10-10-9-9-14-14-14-14-14-14-14-14-12-12-12-12---|
D|-------------------------------------------------------------------------|
A|-------------------------------------------------------------------------|
E|-------------------------------------------------------------------------|

e|-------------------------------------------------------------------------|
B|-------------------------------------------------------------------------|
G|-12-12-12-12-12-12-12-12-10-10-9-9-5-5-5-5-5-5-7-7-7-7-7-7---(x2)--------|
D|-------------------------------------------------------------------------|
A|-------------------------------------------------------------------------|
E|-------------------------------------------------------------------------|

Riff D

e|-------------------------------------------------------------------------|
B|-----------------5---6-------------------6---5-------------------5---6---8
G|-5-5-5-5-5-5-5-5---------5-5-5-5-5-5-5-5---------5-5-5-5-5-5-5-5---------|
D|-------------------------------------------------------------------------|
A|-------------------------------------------------------------------------|
E|-------------------------------------------------------------------------|

e|-------------------------------------------------------------------------|
B|-10--10---------10------10--10-----10---10--10---------------------------|
G|---12----12--------12-----12--12----------12----12---10---9--------------|
D|-------10-----10------------------------------10-------------------------|
A|-------------------------------------------------------------------------|
E|-------------------------------------------------------------------------|

e|-8-8-------------8-8--------------8-8------------------------------------|
B|--8-8-------8-----8-8--------------8-8----8------------------------------|
G|-----9---9-9-9-------9---9-9-10-------9------7---5-----------------------|
D|-------------------------------------------------------------------------|
A|-------------------------------------------------------------------------|
E|-------------------------------------------------------------------------|

Riff E

e|-----------------------------------------------------------------5-5-5-5-|
B|-----------------------------------------------------8-8-8-8-------------|
G|-9-9-9-9-9-9-9-9-7-7-5-5-9-9-9-9-9-9-9-9-7-7-5-5-5-5---------5-5---------|
D|-------------------------------------------------------------------------|
A|-------------------------------------------------------------------------|
E|-------------------------------------------------------------------------|

e|-------------------------------------------------------------------------|
B|-----6-6-6-6-----5-5-5-5-------------------------------------------------|
G|-5-5---------5-5-----------repeat-and-then-------------------------------|
D|-------------------------------------------------------------------------|
A|-------------------------------------------------------------------------|
E|-------------------------------------------------------------------------|

e|-------------------------------------------------------------------------|
B|-13--13--13--13--13--13---12--12--12--12--12--12--6-6-6-6-6-6-5-5-5-5-5-5|
G|---14--14--14--14--14--14---12--12--12--12--12--12-----------------------|
D|-------------------------------------------------------------------------|
A|-------------------------------------------------------------------------|
E|-------------------------------------------------------------------------|

e|-------------------------------------------------------------------------|
B|-6-6-6-6-6-6-5-5-5-5-5-5-(repeat-and-then-1)-----------------------------|
G|-------------------------------------------------------------------------|
D|-------------------------------------------------------------------------|
A|-------------------------------------------------------------------------|
E|-------------------------------------------------------------------------|

Riff F

e|-------------------------------------------------------------------------|
B|-------------------------------------------------------------------------|
G|-------------------------------------------------------------------------|
D|-10-10-10-10-9----------------------10-10-10-10-10-9---9-----------------|
A|-0---------------10-10-10-10-10-7---0------------------10-10-10-10-10-7--|
E|-----------------0-------------------------------------0-----------------|

e|-------------------------------------------------------------------------|
B|-------------------------------------------------------------------------|
G|-------------------------------------------------------------------------|
D|-------------------------------------------------------------------------|
A|-8---8-8-8-8-7---5---5-5-5-5/8-7------8---8-8-8-8-7---5---5-5-5-5/3/7----|
E|-------------------------------------------------------------------------|

e|-------------------------------------------------------------------------|
B|-------------------------------------------------------------------------|
G|-------------------------------------------------------------------------|
D|-------------------------------------------------------------------------|
A|-8---8-8-8-8-7---5---5-5-5-5/2/7-----------------------------------------|
E|-------------------------------------------------------------------------|

Riff G

e|-------------------------------------------------------------------------|
B|-------------------------------------------------------------------------|
G|-10-----12------9------10-----5------7------9------4---------------------|
D|-x-(x7)-x--(x5)-x-(x7)-x-(x5)-x-(x5)-x-(x6)-x-(x6)-x-(x7)----------------|
A|-8------10------7------8------3------5------7------2---------------------|
E|-------------------------------------------------------------------------|

e|-------------------------------------------------------------------------|
B|-------------------------------------------------------------------------|
G|-10------12------14------16------17--------------------------------------|
D|-x-(x24)-x--(x6)-x--(x6)-x--(x6)-x---------------------------------------|
A|-8-------10------12------14------15--------------------------------------|
E|-------------------------------------------------------------------------|

e|-------------------------------------------------------------------------|
B|-------------------------------------------------17------18--------------|
G|-19------17------12------19------17------12------x--(x6)-x--(x6)---------|
D|-x--(x8)-x--(x2)-x--(x2)-x--(x8)-x--(x2)-x--(x2)-14------15--------------|
A|-17------15------14------17------15------14------------------------------|
E|-------------------------------------------------------------------------|


e|-------------------------------------------------------------------------|
B|-17------18----------------------------------------------20------18------|
G|-x--(x6)-x--(x6)-repeat-and-then-19------17------12------x--(x8)-x--(x4)-|
D|-14------15----------------------x--(x8)-x--(x2)-x--(x2)-17------15------|
A|---------------------------------17------15------14----------------------|
E|-------------------------------------------------------------------------|

e|-------------------------------------------------------------------------|
B|-------------------------------------------------------------------------|
G|-17------19------21------22----------------------------------------------|
D|-x--(x6)-x--(x6)-x--(x6)-x--(x6)-----------------------------------------|
A|-15------17------19------20----------------------------------------------|
E|-------------------------------------------------------------------------|
comments
print report bad tab
1 comment total.
0 reply
Sumeson wrote on February 26 2013, 11:41 pm

thank you very much for these tabs. this song is truly beautiful. thank you =)

I want to post or [tab]
guest
You may want to rate the tab now too:
select rating
Please do not post tabs as comments. Select "correction" instead!