Oops, an error
Loading. Please wait.

With Tired Eyes Tired Minds Tired Souls We Slept Tab

ver1
ver1

Whole song

Interactive

More versions @911Tabs.com
5,421 views 21 this week
1 commentread comment
1 2 3 4 5
excellent!
x 5
Autoscroll
+/-
esc
set tempo
stop
Hey! There's an official Ultimate Guitar app which is ideal
for learning songs when you're away from computer. Get the app
WARNING: You are trying to view
                                    content from Ultimate-Guitar.com
                                    in an unauthorized application,
                                    which is prohibited.

                                    Please use an official Ultimate
                                    Guitar Tabs application for iPhone,
                                    iPad or Android to access legitimate
                                    chords, guitar, bass, and drum tabs
                                    from Ultimate-Guitar.com database.

                                    Type "ultimate guitar tabs" in Apple
                                    App Store's or Android Market's
                                    search to find the application.
Explosions in The Sky 
With tired eyes, tired minds, tired souls, we slept. 
Tabbed by: Steve Heller + Rockface
Standard Tuning:  E A D G B E


Gtr I [D 1]  (0:21 to 2:26)

|---------------------------|--8----8----8------(8)-----|
|---------------------------|---------------------------|
|--10-----10-----9-----9----|--(9)----------------------|
|-----12-----12----10----10-|--(10)---------------------|   (3x)
|---------------------------|---------------------------|
|---------------------------|---------------------------|

|---------------------------|---------------------------|
|---------------------------|--10-----------------------|
|--10-----10-----9-----9----|--------9-----10-----9-----|
|-----12-----12----10----10-|----10----10-----10----10--|
|---------------------------|---------------------------|
|---------------------------|---------------------------|

Note as a whole: [D 1] is played

Gtr I [D 2]  (2:38 to 3:49)

|---------------------------|---------------------------|
|-----13-13----15-----------|--------13-13-13-----------|
|--14-------14----15-15-15--|-----15----------14-14-14--|
|---------------------------|--15-----------------------|   (3x)
|---------------------------|---------------------------|
|---------------------------|---------------------------|

|---------------------------|---------------------------|
|-----13-13----15-----------|---------------------------|
|--14-------14----15-15-15--|-----15/17-17-17-14-14-14--|
|---------------------------|--15-----------------------|
|---------------------------|---------------------------|
|---------------------------|---------------------------|

|---------------------------|---------------------------|
|-----13-13----15-----------|--------13-13-13-----------|
|--14-------14----15-15-15--|-----15----------14-14-14--|
|---------------------------|--15-----------------------|
|---------------------------|---------------------------|
|---------------------------|---------------------------|

|---------------------------|---------------------------|
|-----13-13----15-----------|--13-13-13-15-15-----------|
|--14-------14----15-15-15--|-----------------14-14-14--|
|---------------------------|---------------------------|
|---------------------------|---------------------------|
|---------------------------|---------------------------|

|---------------------------|---------------------------|
|-----13-13----15-----------|--------13-13-13-----------|
|--14-------14----15-15-15--|-----15----------14-14-14--|
|---------------------------|--15-----------------------|
|---------------------------|---------------------------|
|---------------------------|---------------------------|

|---------------------------|---------------------------|
|-----13-13----15-----------|--13-13-13-13-13-----------|
|--14-------14----15-15-15--|-----------------14-14-14--|
|---------------------------|---------------------------|
|---------------------------|---------------------------|
|---------------------------|---------------------------|

|---------------------------|---------------------------|
|-----13-13----15-----------|--------13-13-13-----------|
|--14-------14----15-15-15--|-----15----------14-14-14--|
|---------------------------|--15-----------------------|
|---------------------------|---------------------------|
|---------------------------|---------------------------|

|---------------------------|---------------------------|
|-----13-13----15-----------|--13-13-13-15-15-----------|
|--14-------14----15-15-15--|-----------------14-14-14--|
|---------------------------|---------------------------|
|---------------------------|---------------------------|
|---------------------------|---------------------------|

|---------------------------|---------------------------|
|-----13-13----15-----------|--------13-13-13-----------|
|--14-------14----15-15-15--|-----15----------14-14-14--|
|---------------------------|--15-----------------------|
|---------------------------|---------------------------|
|---------------------------|---------------------------|

|---------------------------|---------------------------|
|-----13-13----15-----------|--13-13-13-13-13-----------|
|--14-------14----15-15-15--|-----------------14-14-14--|
|---------------------------|---------------------------|
|---------------------------|---------------------------|
|---------------------------|---------------------------|

Gtr 1 D4 (3:50 to 4:26)
					 B  B  B  B  
|---------------------------|---------------------------|
|---------------------------|---------------------------|
|---------------------------|---------------------------|
|--12-12-12-12-12-12-12-12--|--12-12-12-12-12-12-12-12--|   (12x)
|---------------------------|---------------------------|
|--10-10-10-10-10-10-10-10--|--10-10-10-10-10-10-10-10--|

Note: play around with the Bend, it is severe… have fun!


Gtr 1 D5 (4:27 to 5:01)

|---------------------------|---------------------------|
|---------------------------|---------------------------|
|---------------------------|---------------------------|		
|--7------------7-----------|--7-----------7------------|   (3x) 
|-----8-----8-----8------8--|-----8-----8-----8------8--|
|--------10----------10-----|---------10----------10----|

Note: slide into the A note on the 5 fret from last diagram

|---------------------------|---------------------------|
|---------------------------|---------------------------|
|---------------------------|---------------------------|
|--------------2----0--(0)--|---------0----2----0--(0)--|
|------4-(4)----------------|-----2---------------------|
|-10/5-------5----5---------|--3--------3-----3---------|


|---------------------------|---------------------------|
|---------------------------|---------------------------|
|---------------------------|---------------------------|
|--7------------7-----------|--7-----------7------------|   (2x)
|-----8-----8-----8------8--|-----8-----8-----8------8--|
|--------10----------10-----|---------10----------10----|

|---------------------------|---------------------------|
|---------------------------|---------------------------|
|---------------------------|---------------------------|
|--------------2----0--(0)--|---------0----2----0--(0)--|
|-----4-(4)-----------------|-----2---------------------|
|--/5-------5----5----------|--3--------3-----3---------|

Gtr I [D 5] (5:02 to 6:50) 

|---------------------------|---------------------------|
|---------------------------|---------------------------|
|-------5-------------5-----|-------5-------------5-----|
|--7-------7----7--------7--|--7-------7----7--------7--| 
|-----8------------8--------|-----8------------8--------|
|---------------------------|---------------------------|

|-------------------------------------------------------|
|-------------------------------------------------------|
|-------------------------------------------------------|
|--7--7--7--7--7--7--7--7-////--5--5--5--5--5--5--5--5--| 
|-------------------------------------------------------|
|-------------------------------------------------------|

|---------------------------|---------------------------|
|---------------------------|---------------------------|
|-------5-------------5-----|-------5-------------5-----|
|--7-------7----7--------7--|--7-------7----7--------7/-| 
|-----8------------8--------|-----8------------8--------|
|---------------------------|---------------------------|

|-------------------------------------------------------|
|-------------------------------------------------------|
|-------------------------------------------------------|
|-/12-12-12-12-12-12-12-12--\--10-10-10-10--\--9-9-9-9--|
|-------------------------------------------------------|
|-------------------------------------------------------|

|---------------------------|
|---------------------------|
|--10--12-12-10-9--12-12-9--|
|---------------------------|   (7x)
|---------------------------|
|---------------------------|

|---------------------------|
|---------------------------|
|--12--9-10--12-9--12-12-9--|
|---------------------------|
|---------------------------|
|---------------------------|

|---------------------------|---------------------------|
|---------------------------|---------------------------|
|-------5-------------5-----|-------5-------------5-----|
|--7-------7----7--------7--|--7-------7----7--------7--| 
|-----8------------8--------|-----8------------8--------|
|---------------------------|---------------------------|

|-------------------------------------------------------|
|-------------------------------------------------------|
|-------------------------------------------------------|
|--5--5--5--5--7--7--7--7--10--10--10--10--9--9--9--9---|
|-------------------------------------------------------|
|-------------------------------------------------------|

|---------------------------|---------------------------|
|---------------------------|---------------------------|
|-------5-------------5-----|-------5-------------5-----|
|--7-------7----7--------7--|--7-------7----7--------7/-| 
|-----8------------8--------|-----8------------8--------|
|---------------------------|---------------------------|

|-------------------------------------------------------|
|-------------------------------------------------------|
|-------------------------------------------------------|
|-/12-12-12-12-12-12-12-12--\--10-10-10-10--\--9-9-9-9--|
|-------------------------------------------------------|
|-------------------------------------------------------|

|---------------------------|
|---------------------------|
|--10--12-12-10-9--12-12-9--|
|---------------------------|   (7x)
|---------------------------|
|---------------------------|

|---------------------------|
|---------------------------|
|--12--9-10--12-9--12-12-9--|
|---------------------------|
|---------------------------|
|---------------------------|

|---------------------------|---------------------------|
|---------------------------|---------------------------|
|-------5-------------5-----|-------5-------------5-----|
|--7-------7----7--------7--|--7-------7----7--------7/-| 
|-----8------------8--------|-----8------------8--------|
|---------------------------|---------------------------|

|-------------------------------------------------------|
|-------------------------------------------------------|
|-------------------------------------------------------|
|--5--5--5--5--7--7--7--7--10--10--10--10--9--9--9--9---|
|-------------------------------------------------------|
|-------------------------------------------------------|

|---------------------------|---------------------------|
|---------------------------|---------------------------|
|-------5-------------5-----|-------5-------------5-----|
|--7-------7----7--------7--|--7-------7----7--------7/-| 
|-----8------------8--------|-----8------------8--------|
|---------------------------|---------------------------|

|-------------------------------------------------------|
|-------------------------------------------------------|
|-------------------------------------------------------|
|--/12-12-12-12-12-12-12-12—12/14-14-14--15--15--15-----|
|-------------------------------------------------------|
|-------------------------------------------------------|

Gtr I  [D 6] (6:51 to 8:00) Enter Distortion

|---------------------------|---------------------------|
|---------------------------|---------------------------|
|--------10----------9------|----------12---------9-----|\
|---------------------------|---------------------------| \
|--12-12----12----10---10---|--(10)-12----12---10---10--|  \
|---------------------------|---------------------------|   \
                                                             \ (3x)
|---------------------------|---------------------------|    /
|---------------------------|---------------------------|   /
|---------------------------|---------------------------|  /
|---------------------------|---------------------------| / 
|--/12-—12--10--7—-(7)--7---|--7--7—-7--3--3------------|/
|---------------------------|---------------------------|




   T T T  T T T T T T    T T  T T  T  T T T 
|--12-12-12-12-12--10-9-10--|--12-12-12-12-12--10-9-10--|    
|---------------------------|---------------------------|   
|---------------------------|---------------------------|\  
|---------------------------|---------------------------| \  
|---------------------------|---------------------------|  \
|---------------------------|---------------------------|   \ (3x)
   T  T  T  T  T   T  T T          		 T	    /
|--12-12-12-12-12--10-9-10--|--(10)---(10)----9----(9)--|  /  
|---------------------------|---------------------------| /  
|---------------------------|---------------------------|/  
|---------------------------|---------------------------|  
|---------------------------|---------------------------|
|---------------------------|---------------------------|

Gtr I  [D 7] (8:20 to 9:29)

|---------------------------|---------------------------|
|---------------------------|---------------------------|
|--10---(10)---(10)---(10)--|--12---(12)---(12)---(12)--|\
|--12---(12)---(12)---(12)--|--12---(12)---(12)---(12)--| \
|---------------------------|---------------------------|  \
|---------------------------|---------------------------|   \
                                                             \(2x)
|---------------------------|---------------------------|    /
|---------------------------|--13---(13)---(13)---(13)--|   /
|--14---(14)---(14)---(14)--|---------------------------|  /
|--12---(12)---(12)---(12)--|--12---(12)---(12)---(12)--| /
|---------------------------|---------------------------|/
|---------------------------|---------------------------|


|--10---(10)---(10)---(10)--|--12---(12)---(12)---(12)--|
|---------------------------|---------------------------|
|---------------------------|---------------------------|\
|--12---(12)---(12)---(12)--|--12---(12)---(12)---(12)--| \
|---------------------------|---------------------------|  \
|---------------------------|---------------------------|   \
                                                             \(2x)
|--13---(13)---(13)---(13)--|--15---(15)---(15)---(15)--|    /
|---------------------------|---------------------------|   /
|---------------------------|---------------------------|  /
|--12---(12)---(12)---(12)--|--12---(12)---(12)---(12)--| /
|---------------------------|---------------------------|/
|---------------------------|---------------------------|

|---------------------------|---------------------------|
|---------------------------|---------------------------|
|--10---(10)---(10)---(10)--|--12---(12)---(12)---(12)--|
|--12---(12)---(12)---(12)--|--12---(12)---(12)---(12)--| 
|---------------------------|---------------------------|  
|---------------------------|---------------------------|   
                                                 
|---------------------------|---------------------------|    
|---------------------------|--13---(13)---(13)---(13)--|   
|--14---(14)---(14)---(14)--|---------------------------|  
|--12---(12)---(12)---(12)--|--12---(12)---(12)---(12)--| 
|---------------------------|---------------------------|
|---------------------------|---------------------------|

|---------------------------|
|---------------------------|
|--10---(10)---(10)---(10)--|
|--12---(12)---(12)---(12)--| 
|---------------------------|  
|---------------------------|

Gtr 1  [D 8] (9:30 to 11:27)

		(7x)			(1x)

|-------------------14--17--|-------------------17--14--|
|--17--17--15--17-----------|--17--17--15--17-----------|
|---------------------------|---------------------------|
|---------------------------|---------------------------|
|---------------------------|---------------------------|
|---------------------------|---------------------------|

|---------------------------|---------------------------|
|--17--17--15---------------|--17--17--15---------------|
|--------------16--18--14---|---------------16--18—-----|
|---------------------------|-----------------------17--|
|---------------------------|---------------------------|
|---------------------------|---------------------------|

|---------------------------|---------------------------|
|--17--17--15---------------|--17--17--15---------------|
|---------------18--16------|---------------16--14—-----|
|-----------------------17--|-----------------------16--|
|---------------------------|---------------------------|
|---------------------------|---------------------------|

|-------------------14--17--|-------------------17--14--|
|--17--17--15--17-----------|--17--17--15--17-----------|
|---------------------------|---------------------------|   (2x)
|---------------------------|---------------------------|
|---------------------------|---------------------------|
|---------------------------|---------------------------|

|---------------------------|---------------------------|
|--17--17--15---------------|--17--17--15---------------|
|--------------16--18--14---|---------------16--18—-----|
|---------------------------|-----------------------17--|
|---------------------------|---------------------------|
|---------------------------|---------------------------|

|---------------------------|---------------------------|
|--17--17--15---------------|--17--17--15---------------|
|---------------18--16------|---------------16--14—-----|
|-----------------------17--|-----------------------16--|
|---------------------------|---------------------------|
|---------------------------|---------------------------|

|-------------------14--17--|-------------------17--14--|
|--17--17--15--17-----------|--17--17--15--17-----------|
|---------------------------|---------------------------|   (2x)
|---------------------------|---------------------------|
|---------------------------|---------------------------|
|---------------------------|---------------------------|

|---------------------------|---------------------------|
|--17--17--15---------------|--17--17--15---------------|
|--------------16--18--14---|---------------16--18—-----|
|---------------------------|-----------------------17--|
|---------------------------|---------------------------|
|---------------------------|---------------------------|

|---------------------------|---------------------------|
|--17--17--15---------------|--17--17--15---------------|
|---------------18--16------|---------------16--14—-----|
|-----------------------17--|-----------------------16--|
|---------------------------|---------------------------|
|---------------------------|---------------------------|


|-------------------14--17--|-------------------17--14--|
|--17--17--15--17-----------|--17--17--15--17-----------|
|---------------------------|---------------------------|   (2x)
|---------------------------|---------------------------|
|---------------------------|---------------------------|
|---------------------------|---------------------------|

|-------------------14--17--|-------------------14--17--|
|--17--17--15--17-----------|--17--17--15--17-----------|
|---------------------------|---------------------------|   
|---------------------------|---------------------------|
|---------------------------|---------------------------|
|---------------------------|---------------------------|

|-------------------14--17--|-------------------17--14--|
|--17--17--15--17-----------|--17--17--15--17-----------|
|---------------------------|---------------------------|   
|---------------------------|---------------------------|
|---------------------------|---------------------------|
|---------------------------|---------------------------|

|-------------------17--14--|-------------------17--14--|
|--17--17--15--17-----------|--17--17--15--17-----------|
|---------------------------|---------------------------|    
|---------------------------|---------------------------|   (2x)
|---------------------------|---------------------------|
|---------------------------|---------------------------|



Questions, comments, suggestions?
Email: sheller_sh@yahoo.com

comments
print report bad tab
1 comment total.
0 reply
s-fury wrote on June 28 2009, 05:34 am

--5--8--12--20-------
-----------------------
-0--0--0------------- 6:40
----------------------- multiple times on each 0-e part and
----------------------- real fast on the 20
-----------------------

I want to post or [tab]
guest
You may want to rate the tab now too:
select rating
Please do not post tabs as comments. Select "correction" instead!