Oops, an error
Loading. Please wait.

Your Hand In Mine Tab

ver4
ver4
More versions @911Tabs.com
23,517 views 3 this week
2 commentsread comments
1 2 3 4 5
worth learning
x 2
Autoscroll
+/-
esc
set tempo
stop
Contributor
Hey! There's an official Ultimate Guitar app which is ideal
for learning songs when you're away from computer. Get the app
WARNING: You are trying to view
                                    content from Ultimate-Guitar.com
                                    in an unauthorized application,
                                    which is prohibited.

                                    Please use an official Ultimate
                                    Guitar Tabs application for iPhone,
                                    iPad or Android to access legitimate
                                    chords, guitar, bass, and drum tabs
                                    from Ultimate-Guitar.com database.

                                    Type "ultimate guitar tabs" in Apple
                                    App Store's or Android Market's
                                    search to find the application.
Tabbed by: City Machine
Email: vegeta373@hotmail.com

Artist: Explosions in the Sky
Song: Your Hand in Mine
Album: The Earth is Not a Cold, Dead Place

Tuning: Standard (Low to High) E A D G B E

I'll do the guitars one at a time
Note: Repeat each section till the time ends listed on top

Guitar 1

(0:07 - 1:12)
e|------9-----------------------------------|
B|----------------9--------7----------------|
G|---------9---------9--------9-----9--8/9--|
D|------------------------------------------|
A|----------------------9--------0----------|
E|--9----------0----------------------------|

(1:14 - 1:50
|------------------------------------------|----|
|------------------------------------------|----|
|------------------------------------------|----|
|------------------------------------------|----|
|-----7--------6--------11-----0--/12---9--|----|
|--9-----9--7-----7--0------0--------------|--9-| the C# is played at 1:51

(1:55 - 2:20
e|------9-----------------------------------|------|
B|----------------9--------7----------------|------|
G|---------9---------9--------9-----9--8/9--|-9-8--|
D|------------------------------------------|------|
A|----------------------9--------0----------|------|
E|--9----------0----------------------------|------| last part played at end

(2:20 - 2:26)
|---------------------------------------|
|-----5--------5--------5--------5------|
|--------8--------8--------8--------8---|
|---------------------------------------|
|---------------------------------------|
|--7--------7--------7--------7---------|

(2:26 - 5:03)
|---------0------------0-------------0-------------0-------|
|-------9---9--------7---7---------7---7---------7----7----|
|-----9-------9----9-------9-----8-------8-----8--------8--|
|----------------------------------------------------------|
|----------------------------------------------------------|
|--9-------------0------------7-------------7--------------|

|-------0-----------------------0--------------0--------0--|
|---------4---0--------0-------------0---0---------0-------|
|-----6-----6--------4---4---------8---8---------8---8-----|
|------------------6-------6-------------------------------|
|--0-------------------------------------------------------|
|----------------0------------7-------------7--------------|

(5:04 - 6:19)
|--------------------------------------------------------|
|--------------------------------------------------------|
|----9-9-9---9---9-9-9---9-9-9---9-9-9---9---9-9-9-9-9---|
|--------------------------------------6---6-------------|
|----------7-----------9---------------------------------|
|--9-----------7---------------0-------------------------|

|--------------------------------------------------------|
|--------------------------------------------------------|
|----9-9-9---9---9-9-9---9-9-9---9-9-9---9---9-9-9-9-9---|
|--------------------------------------------------------|
|----------7-----------9---------------7---7-------------|
|--9-----------7---------------0-------------------------|

(6:20 - 6:31)
|--0---0-0-0-0-0---0-0-0-0---0-0-0-0---0-0-0--|
|--0---0-0-0-0-0---0-0-0-0---0-0-0-0---0-0-0--|
|--6---6-6-6-6-6---6-6-6-1---1-1-1-1---1-1-1--|
|--7---7-7-7-7-7---7-7-7-2---2-2-2-2---2-2-2--|
|--7---7-7-7-7-7---7-7-7-2---2-2-2-2---2-2-2--|
|--5---5-5-5-5-5---5-5-5-0---0-0-0-0---0-0-0--|

|--0---0-0-0-0-0---0-0-0-0---0-0-0-0--|
|--0---0-0-0-0-0---0-0-0-0---0-0-0-0--|
|--6---6-6-6-6-6---6-6-6-1---1-1-1-1--|
|--7---7-7-7-7-7---7-7-7-2---2-2-2-2--|
|--7---7-7-7-7-7---7-7-7-2---2-2-2-2--|
|--5---5-5-5-5-5---5-5-5-0---0-0-0-0--|

(6:31 - 7:19)

|--------------------------------------------------------|
|--------------------------------------------------------|
|----9-9-9---9---9-9-9---9-9-9---9-9-9---9---9-9-9-9-9---|
|--------------------------------------6---6-------------|
|----------7-----------9---------------------------------|
|--9-----------7---------------0-------------------------|

|--------------------------------------------------------|
|--------------------------------------------------------|
|----9-9-9---9---9-9-9---9-9-9---9-9-9---9---9-9-9-9-9---|
|--------------------------------------------------------|
|----------7-----------9---------------7---7-------------|
|--9-----------7---------------0-------------------------|

(7:20 - 7:43)
|--0---0-0-0-0-0---0-0-0-0---0-0-0-0---0-0-0--|
|--0---0-0-0-0-0---0-0-0-0---0-0-0-0---0-0-0--|
|--6---6-6-6-6-6---6-6-6-1---1-1-1-1---1-1-1--|
|--7---7-7-7-7-7---7-7-7-2---2-2-2-2---2-2-2--|
|--7---7-7-7-7-7---7-7-7-2---2-2-2-2---2-2-2--|
|--5---5-5-5-5-5---5-5-5-0---0-0-0-0---0-0-0--|

|--0---|
|--0---|
|--6---|
|--7---|
|--7---|
|--5---|

Guitar 2

(0:20 - 1:12)
|----------------------------------------------------|
|--12--10--9--10--7-/-10----9--7\5---5/7--9----------|
|----------------------------------------------------|
|----------------------------------------------------|
|----------------------------------------------------|
|----------------------------------------------------|

|-------------------------------------------|
|--14--12--10--9-/-12-----9--7--------------|
|-------------------------------6-/-9--9----|
|-------------------------------------------|
|-------------------------------------------|
|-------------------------------------------|

(1:13 -
|--0--0-0--0-0--0-0--0-0--0-0--0--0----0--0--0-------|
|--5--5-7--7-9--9-7--7-5--5-7--7--12--10--9/-10------|
|----------------------------------------------------|
|----------------------------------------------------|
|----------------------------------------------------|
|----------------------------------------------------|
                                 1:51
|----------------------------|---------|
|--(9)------------9-10-(9)---|--(10-9)-|    delay the notes in parentheses
|----------------------------|---------|
|----------------------------|---------|
|----------------------------|---------|
|----------------------------|---------|

(1:55 - 2:13)
|----------------------------------------------------|
|--12--10--9--10--7-/-10----9--7\5---5/7--9----------|
|----------------------------------------------------|
|----------------------------------------------------|
|----------------------------------------------------|
|----------------------------------------------------|

|-----------------------------------------|
|--14--12--10--9-/-12-----9--7------------|
|-------------------------------6-/-9-----|
|-----------------------------------------|
|-----------------------------------------|
|-----------------------------------------|

(2:13 - 2:26)
|-----------------------------------------------|
|-----------------------------------------------|
|--9----8----4----------------------------------|
|-----------------7----9----7-------------------|
|--------------------------------7----9---------|
|------------------------------------------7----|

(3:04 - 3:40)
|-------------------------------------------|
|-------------------------------------------|
|-------------------------------------------|
|-----------9----------9--------------------|
|-11--11--11-11--11--11--9--9--9--9--7--6---|
|-------------------------------------------|

|----------------------------------------|
|----------------------------------------|
|----------------------------------------|
|---------6---------6--------------------|
|--7--7--7--7--7--7---7--7--7--7--6------|
|----------------------------------------|

(3:41 - 3:52) Note: I also hear this riff after 3:52
|-------------------------------------------|
|-------------------------------------------|
|-------------------------------------------|
|-----------9----------9--------------------|
|-11--11--11-11--11--11--9--9--9--9--7--6---|
|-------------------------------------------|

|------------------------|
|------------------------|
|------------------------|
|-----------6------------|
|-7----------------7--6--|
|------------------------|

(3:53 - 4:38)
|---------------------------------------------------|
|---------------------------------------------------|
|---------------------------------------------------|
|--6---6---6---6---7---9---6---6---6---6---7---9----|
|----7---7---7---7---7---7---7---7---7---7---7---7--|
|---------------------------------------------------|

(4:39 - 5:03)
|----------------------------------------------------------------|
|----------------------------------------------------------------|
|----------------------------------------------------------------|
|----------------------------------------------------------------|
|--99999999-1414141414141414-1313131313131313-1313131313131313---|
|----------------------------------------------------------------|

kind of hard to hear
|--16t----19t--14t--12t--14-16t----14t--12t--9-12t--\---7t-----|
|--------------------------------------------------------------|
|--------------------------------------------------------------|
|--------------------------------------------------------------|
|--------------------------------------------------------------|
|--------------------------------------------------------------|
                    5:03
|-4----7--4------|--------|
|-------------7--|--7--5--|
|----------------|--------|
|----------------|--------|
|----------------|--------|
|----------------|--------|

(5:29 - 6:03)
|-----------------------------------------------------|
|-----------------------------------------------------|
|--9-----8-----4-----6-4------------------------------|
|--------------------------6----7----6----6--7--9/----|
|-----------------------------------------------------|
|-----------------------------------------------------|

|-----------------------------------------|
|-------------9-----10-9-------10-9-------|
|-9-----11----------------9----------9----|
|-----------------------------------------|
|-----------------------------------------|
|-----------------------------------------|

|-------------------------------------------|
|---------------------9----10--9--10--9-----|
|------9--8--11--9-----------------------9--|
|--11---------------------------------------|
|-------------------------------------------|
|-------------------------------------------|

(6:06 - 6:18)
|-------------------------------------------------------|
|--121212-10-9---121212-10-9---121212-10-9---9--10--12--|
|-------------------------------------------------------|
|-------------------------------------------------------|
|-------------------------------------------------------|
|-------------------------------------------------------|
*I find the (161616 14 13) x3 (13 14 16) on the G sounds more "thicker" but use
whichever you feel like

(6:18 - 6:30)
|-------------------------------------------------------|
|-------------------------------------------------------|
|--6----9--11--13-/--16-16-16-16-16-16-16-14-14-13-13---|
|-------------------------------------------------------|
|-------------------------------------------------------|
|-------------------------------------------------------|

|--------------------------------------|
|--------------------------------------|
|--6----9--8-\--4--4-4-4-4-4-4-4-4-4---|
|--------------------------------------|
|--------------------------------------|
|--------------------------------------|

(6:31 - 7:05
|-----------------------------------------------------|
|-----------------------------------------------------|
|--9-----8-----4-----6-4------------------------------|
|--------------------------6----7----6----6--7--9/----|
|-----------------------------------------------------|
|-----------------------------------------------------|

|-----------------------------------------|
|-------------9-----10-9-------10-9-------|
|-9-----11----------------9----------9----|
|-----------------------------------------|
|-----------------------------------------|
|-----------------------------------------|

|-------------------------------------------|
|---------------------9----10--9--10--9-----|
|------9--8--11--9-----------------------9--|
|--11---------------------------------------|
|-------------------------------------------|
|-------------------------------------------|

(7:08 - 7:19)
|-------------------------------------------------------|
|--121212-10-9---121212-10-9---121212-10-9---9--10--12--|
|-------------------------------------------------------|
|-------------------------------------------------------|
|-------------------------------------------------------|
|-------------------------------------------------------|

(7:19 - 7:43)
|-------------------------------------------------------|
|-------------------------------------------------------|
|--6----9--11--13-/--16-16-16-16-16-16-16-14-14-13-13---|
|-------------------------------------------------------|
|-------------------------------------------------------|
|-------------------------------------------------------|
                 First Time                Second Time
|--------------|------------------------|--------------------|
|--------------|------------------------|--------------------|
|--6----9--8-\-|-4--4-4-4-4-4-4-4-4-4---|--1-----2------4----|
|--------------|------------------------|--------------------|
|--------------|------------------------|--------------------|
|--------------|------------------------|--------------------|

Guitar 3
0:00 - 0:07) with Delay
|--11----12----14----------|
|--------------------12----|
|--------------------------|
|--------------------------|
|--------------------------|
|--------------------------|

(0:40 - 0:48) with Delay
|--11----12----14----14----|
|--------------------------|
|--------------------------|
|--------------------------|
|--------------------------|

(0:55 - 1:01)
|----------------------------------|
|--7------7------12-----12--10-----|
|----------------------------------|
|----------------------------------|
|----------------------------------|
|----------------------------------|

(1:08 - 1:13)
|--------------------------|
|--9---10-12----9---10-----|
|----------------------9---|
|--------------------------|
|--------------------------|
|--------------------------|

(1:18 - 1:25)
|----------------------------------------16--12-----14--12--|
|---12---10---9-/-10-----12-12-12-12-12---------------------|
|-----------------------------------------------------------|
|-----------------------------------------------------------|
|-----------------------------------------------------------|
|-----------------------------------------------------------|

|--12-12-12-12---12--12--12-----|
|-------------------------------|
|-------------------------------|
|-------------------------------|
|-------------------------------|

(1:26 - 1:49)
|-----------------------------------|
|--14----------12---------7---------|
|-----------------------------------|
|-----------------------------------|
|-----------------------------------|
|-----------------------------------|

|------------------16-12---14-12---12-12-12-12--12--12--12|
|--12-12-12-12-12-----------------------------------------|
|---------------------------------------------------------|
|---------------------------------------------------------|
|---------------------------------------------------------|
|---------------------------------------------------------|

Note: The 14 and the 12 come in during the 5 chord during guitar 2's riff and the
7 is during the 12

(2:02 - 2:07)
|--------------------------|
|--9---10-12----9---10-----|
|----------------------9---|
|--------------------------|
|--------------------------|
|--------------------------|

(2:13 - 2:19)
|--11-----12----14----14---|
|--------------------------|
|--------------------------|
|--------------------------|
|--------------------------|
|--------------------------|

(2:20 - 2:26)
|--11-----12-----14----14-14-14--------|
|--------------------------------12----|
|--------------------------------------|
|--------------------------------------|
|--------------------------------------|
|--------------------------------------|

(2:39 - 2:30) probably the most beautiful riff on the song
|-------------------------------------------------------|
|---9---9--12-------------------------------------------|
|--------------9---11---------6--\--4--/--9--9--9--11---|
|-------------------------------------------------------|
|-------------------------------------------------------|
|-------------------------------------------------------|

(3:05 - 3:26)
|--------------------------------------------------|
|--9--9--12----------------------------------------|
|-------------9--11-----4--/--6--/---9--9--9--11---|
|--------------------------------------------------|
|--------------------------------------------------|
|--------------------------------------------------|

(3:30 - 4:16)
|---------------------------------------------------------|
|--14\---9--9-9-9--10--12---------------------------------|
|---------------------------11-11-11-11-11--11--11--11----|
|---------------------------------------------------------|
|---------------------------------------------------------|
|---------------------------------------------------------|

|---------------------12---11---11----------------------------|
|--10--10-10-10-10-10--------------12--12-12-12-12-12-12-12---|
|-------------------------------------------------------------|
|-------------------------------------------------------------|
|-------------------------------------------------------------|
|-------------------------------------------------------------|

(4:16 - 5:04)
|--16t---19\--12t--14t---9t---7t----12t-----14t--|
|------------------------------------------------|
|------------------------------------------------|
|------------------------------------------------|
|------------------------------------------------|
|------------------------------------------------|
                                                 5:04)
|--16t---19\--12t--14t---7t--9t---12t-----14t-|-14t--12-|
|---------------------------------------------|---------|
|---------------------------------------------|---------|
|---------------------------------------------|---------|
|---------------------------------------------|---------|
|---------------------------------------------|---------|

(5:20 - 5:28) play around with the rhythm
|--12-12-12-12---------|
|----------------------|
|---------------9-9-9--|
|----------------------|
|----------------------|
|----------------------|

(5:29 - 5:41) just keep hitting it
|--12--|
|------|
|--9---|
|------|
|------|
|------|

(5:43 -
|--16------16--14-----------19---16---19---14--12-|
|------17----------17-----------------------------|
|-------------------------------------------------|
|-------------------------------------------------|
|-------------------------------------------------|
|-------------------------------------------------|

|----------------------------------------------------|
|---14-------14--------------------------------------|
|-------16--------14---13------16--13--14--13--------|
|----------------------------------------------14----|
|----------------------------------------------------|
|----------------------------------------------------|

|----------------------------------------------------------------------|
|--12-12-12-12-12-12-12-12-10-10-9-9-10-10-10-10-10-10-10-10-10-10-7-7-|
|----------------------------------------------------------------------|
|----------------------------------------------------------------------|
|----------------------------------------------------------------------|
|----------------------------------------------------------------------|

|--------------------------------------|
|--------------------------------------|
|-9-9-9-9-9-9-11-11-11-11-11-11-9------|
|--------------------------------------|
|--------------------------------------|
|--------------------------------------|

(6:19 - 6:31)
|-----------------------------|
|-----------------------------|
|--16x36?--14-14-13-13--------|
|-----------------------------|
|-----------------------------|
|-----------------------------|
*the 14 13 change comes near the end of the 4th fret part of Guitar 2

(6:43 - 7:20)
|--------------------------------------------|
|-12-12-12-12-12-12-12-12-12-12-12-12--------|
|-------------------------------------9-9----|
|--------------------------------------------|
|--------------------------------------------|
|--------------------------------------------|

|--------------------------------------------|
|-12-12-12-12-12-12-12-12-12-12-12-12--------|
|-------------------------------------9-9----|
|--------------------------------------------|
|--------------------------------------------|
|--------------------------------------------|

|-------------------------------------|
|-9-9-9-9-9-9-9-9-12-12-12-12-12------|
|--------------------------------9-9--|
|-------------------------------------|
|-------------------------------------|
|-------------------------------------|

|----------------------------------------------|
|-12-12-12-12-12-12-12-12-12-12-12-12-10-9-----|
|------------------------------------------9---|
|----------------------------------------------|
|----------------------------------------------|
|----------------------------------------------|

|----------------------------------------------------------------------|
|--12-12-12-12-12-12-12-12-10-10-9-9-10-10-10-10-10-10-10-10-10-10-7-7-|
|----------------------------------------------------------------------|
|----------------------------------------------------------------------|
|----------------------------------------------------------------------|
|----------------------------------------------------------------------|

|--------------------------------------|
|--------------------------------------|
|-9-9-9-9-9-9-11-11-11-11-11-11-9------|
|--------------------------------------|
|--------------------------------------|
|--------------------------------------|

(7:20 - 7:43)                              7:43
|----------------------------------------|-----|
|----------------------------------------|-----|
|-16x16-14-14-13-13---16x16-14-14-13-13--|--16-|
|----------------------------------------|-----|
|----------------------------------------|-----|
|----------------------------------------|-----|

(7:43 - fade out) play around with these notes
|-12-12-------|
|-------------|
|--------9--9-|
|-------------|
|-------------|
|-------------|

Phew! Sorry if some of the time codes are off but it was a loooong tab to do

t = tremolo pick

the last note ties into the end of each section's time code rather than the next section change
comments
We did not receive enough feedback on this tab! Please rate:
print report bad tab
1 2 3 4 5
2 comments total.
0 reply
City_Machine wrote on September 30 2007, 05:09 pm

little error: for guitar 1 during the 5:04-6:19 and 6:31-7:19 sections, hit the E note on the G 3 times instead of the 4 times I put.

0 reply
City_Machine wrote on September 30 2007, 05:15 pm

also the timecode and the "hard to hear" section for guitar 2 applies to the tremolo pick riff while the 9 14 13 riff is part of the 3:53-4:38 riff.

I want to post or [tab]
guest
You may want to rate the tab now too:
select rating
Please do not post tabs as comments. Select "correction" instead!