Oops, an error
Loading. Please wait.

Bullshit Propaganda Tab

1,366 views 1 this week
no commentswrite comment
1 2 3 4 5
please rate
Autoscroll
+/-
esc
set tempo
stop
Contributor
Hey! There's an official Ultimate Guitar app which is ideal
for learning songs when you're away from computer. Get the app
WARNING: You are trying to view
                                    content from Ultimate-Guitar.com
                                    in an unauthorized application,
                                    which is prohibited.

                                    Please use an official Ultimate
                                    Guitar Tabs application for iPhone,
                                    iPad or Android to access legitimate
                                    chords, guitar, bass, and drum tabs
                                    from Ultimate-Guitar.com database.

                                    Type "ultimate guitar tabs" in Apple
                                    App Store's or Android Market's
                                    search to find the application.
-----------------------------------------------------------------------------
                             BULLSHIT PROPAGANDA - Extreme Noise Terror
-----------------------------------------------------------------------------

Tabbed by: James Stoten
Email: james_stoten@hotmail.co.uk

Tuning: E Standard (E A D G B E)

 This is the version from the album 'Retro-Bution'

                    3x   E   S  S  S  S  S  S  S  S  S  S  S  S  S  S
E||--------|--------||------------------------------------------------|
B||--------|--------||------------------------------------------------|
G||*-------|-------*||------------------------------------------------|
D||*-------|-------*||------------------------------------------------|
A||--------|--------||--10--10-10-10-10-10-10-10-10-10-10-10-10-10-10-|
E||--------|--------||---8---8--8--8--8--8--8--8--8--8--8--8--8--8--8-|


   S  S  S  S  S  S  S  S  H              E.  S E  S S S S S S S S S S
-------------------------------------||--------------------------------|
-------------------------------------||--------------------------------|
-------------------------------------||*-------------------------------|
-------------------------------------||*-------------------------------|
--10-10-10-10-10-10-10-10------------||---7---7-8--8-9-9-9-9-9-9-9-9-9-|
---8--8--8--8--8--8--8--8-12\--------||---5---5-6--6-7-7-7-7-7-7-7-7-7-|


  E.  S E  S S S S S S S S S S    E.  S E  S S S S S S S S S S
-------------------------------|-------------------------------|
-------------------------------|-------------------------------|
-------------------------------|-------------------------------|
-------------------------------|-------------------------------|
--7---7-8--8-9-9-9-9-9-9-9-9-9-|--7---7-8--8-9-9-9-9-9-9-9-9-9-|
--5---5-6--6-7-7-7-7-7-7-7-7-7-|--5---5-6--6-7-7-7-7-7-7-7-7-7-|


  E.  S E  S S S S S S S S S S  3x    E   E.   E   E   S  S  S  S  S  S  S
--------------------------------||-----------------------------------------|
--------------------------------||-----------------------------------------|
-------------------------------*||*----------------------------------------|
-------------------------------*||*--10--10---10--10--10-10-10-10-10-10-10-|
--7---7-8--8-9-9-9-9-9-9-9-9-9--||----8---8----8---8---8--8--8--8--8--8--8-|
--5---5-6--6-7-7-7-7-7-7-7-7-7--||-----------------------------------------|


  E  E.  E  E  S S S S S S S  3x
------------------------------||
------------------------------||
-----------------------------*||
-----------------------------*||
--9--9---9--9--9-9-9-9-9-9-9--||
--7--7---7--7--7-7-7-7-7-7-7--||


   E   S  S  S  S  S  S  S  S  S  S  S  S  S  S
------------------------------------------------|
------------------------------------------------|
------------------------------------------------|
------------------------------------------------|
--10--10-10-10-10-10-10-10-10-10-10-10-10-10-10-|
---8---8--8--8--8--8--8--8--8--8--8--8--8--8--8-|


   S  S  S  S  S  S  S  S  H              E.  S E  S S S S S S S S S S
-------------------------------------||--------------------------------|
-------------------------------------||--------------------------------|
-------------------------------------||*-------------------------------|
-------------------------------------||*-------------------------------|
--10-10-10-10-10-10-10-10------------||---7---7-8--8-9-9-9-9-9-9-9-9-9-|
---8--8--8--8--8--8--8--8-12\--------||---5---5-6--6-7-7-7-7-7-7-7-7-7-|


  E.  S E  S S S S S S S S S S    E.  S E  S S S S S S S S S S
-------------------------------|-------------------------------|
-------------------------------|-------------------------------|
-------------------------------|-------------------------------|
-------------------------------|-------------------------------|
--7---7-8--8-9-9-9-9-9-9-9-9-9-|--7---7-8--8-9-9-9-9-9-9-9-9-9-|
--5---5-6--6-7-7-7-7-7-7-7-7-7-|--5---5-6--6-7-7-7-7-7-7-7-7-7-|


  E.  S E  S S S S S S S S S S  3x    E   E.   E   E   S  S  S  S  S  S  S
--------------------------------||-----------------------------------------|
--------------------------------||-----------------------------------------|
-------------------------------*||*----------------------------------------|
-------------------------------*||*--10--10---10--10--10-10-10-10-10-10-10-|
--7---7-8--8-9-9-9-9-9-9-9-9-9--||----8---8----8---8---8--8--8--8--8--8--8-|
--5---5-6--6-7-7-7-7-7-7-7-7-7--||-----------------------------------------|


  E  E.  E  E  S S S S S S S  3x
------------------------------||
------------------------------||
-----------------------------*||
-----------------------------*||
--9--9---9--9--9-9-9-9-9-9-9--||
--7--7---7--7--7-7-7-7-7-7-7--||


   E   S  S  S  S  S  S  S  S  S  S  S  S  S  S
------------------------------------------------|
------------------------------------------------|
------------------------------------------------|
------------------------------------------------|
--10--10-10-10-10-10-10-10-10-10-10-10-10-10-10-|
---8---8--8--8--8--8--8--8--8--8--8--8--8--8--8-|


   S  S  S  S  S  S  S  S  H            Q    H.              W
-------------------------------------|--------------------|------------------|
-------------------------------------|--------------------|------------------|
-------------------------------------|--------------------|------------------|
-------------------------------------|--------------------|------------------|
--10-10-10-10-10-10-10-10------------|--5-----------------|------------------|
---8--8--8--8--8--8--8--8-12\--------|--3-----------------|------------------|


  W                    E.  E  E.   E.  E  E.     Q    H.
-------------------|--------------------------|--------------------|
-------------------|--------------------------|--------------------|
-------------------|--------------------------|--------------------|
-------------------|--------------------------|--------------------|
-------------------|--10---9--8---10---9--8---|--5-----------------|
-------------------|---8---7--6----8---7--6---|--3-----------------|


  W                   W                    E.  E  E.   E.  E  E.
-------------------|-------------------|--------------------------|
-------------------|-------------------|--------------------------|
-------------------|-------------------|--------------------------|
-------------------|-------------------|--------------------------|
-------------------|-------------------|--10---9--8---10---9--8---|
-------------------|-------------------|---8---7--6----8---7--6---|


    E  E.  E  E  S S S S S S S    E  E.  E  E  S S S S S S S
|------------------------------|-----------------------------|
|------------------------------|-----------------------------|
|*-----------------------------|-----------------------------|
|*-----------------------------|-----------------------------|
|---5--5---5--5--5-5-5-5-5-5-5-|--5--5---5--5--5-5-5-5-5-5-5-|
|---3--3---3--3--3-3-3-3-3-3-3-|--3--3---3--3--3-3-3-3-3-3-3-|


  E  E.  E  E  S S S S S S S     E.  E  E.   E.  E  E.   3x
-----------------------------|---------------------------||
-----------------------------|---------------------------||
-----------------------------|--------------------------*||
-----------------------------|--------------------------*||
--5--5---5--5--5-5-5-5-5-5-5-|--10---9--8---10---9--8----||
--3--3---3--3--3-3-3-3-3-3-3-|---8---7--6----8---7--6----||


  E  E.  E  E  S S S S S S S    E  E.  E  E   S  S  S  S  S  S  S
-----------------------------|------------------------------------|
-----------------------------|------------------------------------|
-----------------------------|------------------------------------|
-----------------------------|------------------------------------|
--8--8---8--8--9-9-9-9-9-9-9-|--8--8---8--8--10-10-10-10-10-10-10-|
--6--6---6--6--7-7-7-7-7-7-7-|--6--6---6--6---8--8--8--8--8--8--8-|


  E  E.  E  E   S  S  S  S  S  S  S     E.   E.   E.   E.   E   E
------------------------------------|------------------------------|
------------------------------------|------------------------------|
------------------------------------|------------------------------|
------------------------------------|------------------------------|
--8--8---8--8--11-11-11-11-11-11-11-|--12---12---12---12---12--12--|
--6--6---6--6---9--9--9--9--9--9--9-|--10---10---10---10---10--10--|


    E.  S E  S S S S S S S S S S    E.  S E  S S S S S S S S S S
|--------------------------------|-------------------------------|
|--------------------------------|-------------------------------|
|*-------------------------------|-------------------------------|
|*-------------------------------|-------------------------------|
|---7---7-8--8-9-9-9-9-9-9-9-9-9-|--7---7-8--8-9-9-9-9-9-9-9-9-9-|
|---5---5-6--6-7-7-7-7-7-7-7-7-7-|--5---5-6--6-7-7-7-7-7-7-7-7-7-|


  E.  S E  S S S S S S S S S S    E.  S E  S S S S S S S S S S  3x
-------------------------------|--------------------------------||
-------------------------------|--------------------------------||
-------------------------------|-------------------------------*||
-------------------------------|-------------------------------*||
--7---7-8--8-9-9-9-9-9-9-9-9-9-|--7---7-8--8-9-9-9-9-9-9-9-9-9--||
--5---5-6--6-7-7-7-7-7-7-7-7-7-|--5---5-6--6-7-7-7-7-7-7-7-7-7--||


    E   E.   E   E   S  S  S  S  S  S  S    E  E.  E  E  S S S S S S S  3x
-----------------------------------------|------------------------------||
-----------------------------------------|------------------------------||
*----------------------------------------|-----------------------------*||
*--10--10---10--10--10-10-10-10-10-10-10-|-----------------------------*||
----8---8----8---8---8--8--8--8--8--8--8-|--9--9---9--9--9-9-9-9-9-9-9--||
-----------------------------------------|--7--7---7--7--7-7-7-7-7-7-7--||


   E   S  S  S  S  S  S  S  S  S  S  S  S  S  S
------------------------------------------------|
------------------------------------------------|
------------------------------------------------|
------------------------------------------------|
--10--10-10-10-10-10-10-10-10-10-10-10-10-10-10-|
---8---8--8--8--8--8--8--8--8--8--8--8--8--8--8-|


    S  S  S  S  S  S  S  S  H            Q    H.              W
-------------------------------------|--------------------|------------------|
-------------------------------------|--------------------|------------------|
-------------------------------------|--------------------|------------------|
-------------------------------------|--------------------|------------------|
--10-10-10-10-10-10-10-10------------|--5-----------------|------------------|
---8--8--8--8--8--8--8--8-12\--------|--3-----------------|------------------|

  W                    E.  E  E.   E.  E  E.     Q    H.
-------------------|--------------------------|--------------------||
-------------------|--------------------------|--------------------||
-------------------|--------------------------|--------------------||
-------------------|--------------------------|--------------------||
-------------------|--10---9--8---10---9--8---|--5-----------------||
-------------------|---8---7--6----8---7--6---|--3-----------------||


Duration Legend
---------------
W - whole
H - half
Q - quarter
E - 8th
S - 16th
. - note dotted

http://www.extremenoiseterror.co.uk/

http://en.wikipedia.org/wiki/Extreme_Noise_Terror
comments
We did not receive enough feedback on this tab! Please rate:
print report bad tab
1 2 3 4 5
I want to post or [tab]
guest
You may want to rate the tab now too:
select rating
Please do not post tabs as comments. Select "correction" instead!