Oops, an error
Loading. Please wait.

Wake Me Up Tab

179 views 1 this week
no commentswrite comment
1 2 3 4 5
please rate
Autoscroll
+/-
esc
set tempo
stop
Contributor
Difficulty
Tuning
novice
D A D G B E
Hey! There's an official Ultimate Guitar app which is ideal
for learning songs when you're away from computer. Get the app
WARNING: You are trying to view
                                    content from Ultimate-Guitar.com
                                    in an unauthorized application,
                                    which is prohibited.

                                    Please use an official Ultimate
                                    Guitar Tabs application for iPhone,
                                    iPad or Android to access legitimate
                                    chords, guitar, bass, and drum tabs
                                    from Ultimate-Guitar.com database.

                                    Type "ultimate guitar tabs" in Apple
                                    App Store's or Android Market's
                                    search to find the application.
-------------------------------------------------------------------------------
                             Wake Me Up - Eyes Set To Kill
-------------------------------------------------------------------------------
Tabbed by:ASeparatePeace
E-mail:nedddot@aol.com

Tuning:Drop D

Thought i'd throw up another tab since I haven't
seen one for wake me up I thought why not?
I think it's pretty dead on but your rates
on it will tell me ;) Enjoy!

e|---------------------------------------------------------------------------|
B|---------------------------------------------------------------------------|
G|--10-10---10-10------------------------------------------------------------|
D|0-x--x--0-x--x---888---x3---555555--85353303-------------------------------|(x2)
A|0-8--8--0-8--8---888--------555555--85353303-------------------------------|
D|0-------0--------888--------555555--85353303-------------------------------|

e|---------------------------------------------------------------------------|
B|---------------------------------------------------------------------------|
G|---------------------------------------------------------------------------|
D|---------------------------------------------------------------------------|(x8)
A|------5-0-5-0-3-0h5h8p7p5--------------------------------------------------|
D|0-0-0--0-0-0-0-------------------------------------------------------------|
  . . .  . . . .
e|---------------------------------------------------------------------------|
B|15--------------------15---------------------------------------------------|
G|--14-12h14p12----12~----14-12h14p12----------------------------------------|
D|--------------12~----------------------------------------------------------|
A|-------------------------------------12~-----------------------------------|
D|---------------------------------------------------------------------------|

e|---------------------------------------------------------------------------|
B|15-------------------------------------------------------------------------|
G|--14-12h14p12--12-------------x3-------------------------------------------|
D|-------------12--12h14h15p14------14p12-15p14-17p15-19p17-20-20-20b--------|
A|---------------------------------------------------------------------------|
D|---------------------------------------------------------------------------|

e|---------------------------------------------------------------------------|
B|---------------------------------------------------------------------------|
G|--10-10---10-10------------------------------------------------------------|
D|0-x--x--0-x--x---888---x3---555555--85353303-------------------------------|(x2)
A|0-8--8--0-8--8---888--------555555--85353303-------------------------------|
D|0-------0--------888--------555555--85353303-------------------------------|

e|---------------------------------------------------------------------------|
B|---------------------------------------------------------------------------|
G|---------------------------------------------------------------------------|
D|----------------7-10-7-8---------------------------------------------------|
A|0-0-00000-000-0------------------------------------------------------------|
D|0-0-00000-000-0------------------------------------------------------------|
  . . ..... ... .
e|---------------------------------------------------------------------------|
B|---------------------------------------------------------------------------|
G|---------------------------------------------------------------------------|
D|---------------------------------------------------------------------------|
A|-----5-0-5-0-3-0h5h8p7p5-----8-7-5-3-0h3h5p3p0-0h3h5p3p0-------------------|
D|0-0-0-0-0-0-0-----------0-0-0----------------------------------------------|
  . . . . . . .           . . .
e|---------------------------------------------------------------------------|
B|---------------------------------------------------------------------------|
G|---------------------------------------------------------------------------|
D|-----------------------------8-7-5-3-0h3h5p3p0-0h3h5p3p0-------------------|
A|-----5-0-5-0-3-0h5h8p7p5---------------------------------------------------|
D|0-0-0-0-0-0-0-----------0-0-0----------------------------------------------|
  . . . . . . .           . . .

e|---------------------------------------------------------------------------|
B|---------------------------------------------------------------------------|
G|---------------------------------------------------------------------------|
D|---------------------------------------------------------------------------|
A|-----5-0-5-0-3-0h5h8p7p5-----8-7-5-3-0h3h5p3p0-0h3h5p3p0-------------------|
D|0-0-0-0-0-0-0-----------0-0-0----------------------------------------------|
  . . . . . . .           . . .


e|---------------------------------------------------------------------------|
B|---------------------------------------------------------------------------|
G|---------------------------------------------------------------------------|
D|-----------------------------8-7-5-3-0h3h5p3p0-0h3h5p3p0-------------------|
A|-----5-0-5-0-3-0h5h8p7p5---------------------------------------------------|
D|0-0-0-0-0-0-0-----------0-0-0----------------------------------------------|
  . . . . . . .           . . .

e|---------------------------------------------------------------------------|
B|15------------------------------15-----------------------------------------|
G|--14-12h14p12---------------------14-12h14p12------------------------------|
D|-------------14~-14h15p14-12-10--------------------------------------------|
A|----------------------------------------------12~--------------------------|
D|---------------------------------------------------------------------------|


e|---------------------------------------------------------------------------|
B|15-13-15-17-18-17-18~-17h18p17-15-13-x2-15---------------------------------|
G|------------------------------------------14-12h14p12---12~----------------|
D|-----------------------------------------------------12~-------------------|
A|---------------------------------------------------------------------------|
D|---------------------------------------------------------------------------|

e|---------------------------------------------------------------------------|
B|---------------------------------------------------------------------------|
G|---------------------------------------------------------------------------|
D|14p12-15p14-17p15-19p17-20-20-20b------------------------------------------|
A|---------------------------------------------------------------------------|
D|---------------------------------------------------------------------------|

e|---------------------------------------------------------------------------|
B|---------------------------------------------------------------------------|
G|--10-10---10-10------------------------------------------------------------|
D|0-x--x--0-x--x---888---x3---555555--85353303-------------------------------|(x2)
A|0-8--8--0-8--8---888--------555555--85353303-------------------------------|
D|0-------0--------888--------555555--85353303-------------------------------|

e|---------------------------------------------------------------------------|
B|---------------------------------------------------------------------------|
G|---------------------------------------------------------------------------|
D|0~---0~---0~---------------------------------------------------------------|
A|0~---0~---0~--0-0-00000-0-0--0-0--------------------------------------------|
D|0~---0~---0~--0-0-00000-0-0--0-0-------------------------------------------|
                . . ..... . .  . .
e|---------------------------------------------------------------------------|
B|---------------------------------------------------------------------------|
G|---------------------------------------------------------------------------|
D|---------------------------------------------------------------------------|
A|555555555566666666633333333355555-0-3-5------------------------------------|
D|----------------------------------------3-0-3b-----------------------------|

e|---------------------------------------------------------------------------|
B|---------------------------------------------------------------------------|
G|---------------------------------------------------------------------------|
D|---------------------------------------------------------------------------|
A|55555555556666666663333333331010101010999999-------------------------------|
D|---------------------------------------------------------------------------|

e|---------------------------------------------------------------------------|
B|---------------------------------------------------------------------------|
G|---------------------------------------------------------------------------|
D|---------------------------------------------------------------------------|
A|555555555566666666633333333355555-0-3-5------------------------------------|
D|----------------------------------------3-0-3b-----------------------------|

e|---------------------------------------------------------------------------|
B|---------------------------------------------------------------------------|
G|---------------------------------------------------------------------------|
D|---------------------------------------------------------------------------|
A|55555555556666666663333333331010101010999999-------------------------------|
D|---------------------------------------------------------------------------|

e|---------------------------------------------------------------------------|
B|15--------------------15---------------------------------------------------|
G|--14-12h14p12----12~----14-12h14p12----------------------------------------|
D|--------------12~----------------------------------------------------------|
A|-------------------------------------12~-----------------------------------|
D|---------------------------------------------------------------------------|

e|---------------------------------------------------------------------------|
B|15-------------------------------------------------------------------------|
G|--14-12h14p12--12-------------x3-------------------------------------------|
D|-------------12--12h14h15p14-----------------------------------------------|
A|------------------------------------0-0-0-0-0-0-0-0-0-0-0-0-0--------------|
D|------------------------------------0-0-0-0-0-0-0-0-0-0-0-0-0--------------|
                                      . . . . . . . . . . . . .
e|---------------------------------------------------------------------------|
B|---------------------------------------------------------------------------|
G|--10-10---10-10------------------------------------------------------------|
D|0-x--x--0-x--x---888---x3---555555--85353303-------------------------------|(x2)
A|0-8--8--0-8--8---888--------555555--85353303-------------------------------|
D|0-------0--------888--------555555--85353303-------------------------------|

e|---------------------------------------------------------------------------|
B|---------------------------------------------------------------------------|
G|--------8------------------------------------------------------------------|
D|0~--0~--x------------------------------------------------------------------|
A|0~--0~--6-0-0-00000-000-0-3-5----------------------------------------------|
D|0~--0~----0-0-00000-000-------3-0-3b---------------------------------------|
            . . ..... ...



************************************

| /   slide up
| \   slide down
| h   hammer-on
| p   pull-off
| ~   vibrato
| +   harmonic
| x   Mute note
| b   Bend
| pb  Pre-bend
| br  Bend release
| pbr Pre-bend release
| brb Bend release bend

************************************
comments
We did not receive enough feedback on this tab! Please rate:
print report bad tab
1 2 3 4 5
I want to post or [tab]
guest
You may want to rate the tab now too:
select rating
Please do not post tabs as comments. Select "correction" instead!