Oops, an error
Loading. Please wait.

Right Now Well Stand Tab

333 views 1 this week
no commentswrite comment
1 2 3 4 5
excellent!
x 1
Autoscroll
+/-
esc
set tempo
stop
Contributor
Difficulty
Tuning
intermediate
C G C F A D
Hey! There's an official Ultimate Guitar app which is ideal
for learning songs when you're away from computer. Get the app
WARNING: You are trying to view
                                    content from Ultimate-Guitar.com
                                    in an unauthorized application,
                                    which is prohibited.

                                    Please use an official Ultimate
                                    Guitar Tabs application for iPhone,
                                    iPad or Android to access legitimate
                                    chords, guitar, bass, and drum tabs
                                    from Ultimate-Guitar.com database.

                                    Type "ultimate guitar tabs" in Apple
                                    App Store's or Android Market's
                                    search to find the application.
----------------------------------------------------------------------------
                           Right Now (We’ll Stand)
                                Fades Away
----------------------------------------------------------------------------

Thank you itunes for introducing this band to me. It is so sad that these types of bands
are secluded from the top chart bands, but they deserve to be up there. This song is
very catchy and I got to say, they are nothing like I have ever heard before. I just 
hope they can keep creating A material. Enjoy!

Username: dkm817 (same on X box live)
Youtube Cover: http://www.youtube.com/watch?v=6u0w3UJn1Ww
Band Official Website: http://www.myspace.com/fadesawaymusic
Email: guitardrums@rockfan.com

Guitar 1 Rhythmic     (C G C F A D)
Guitar 2 Lead         (C G C F A D)


Tab Guide...

==================================================================
(end of measures)

==================================================================
==================================================================
(end of parts)

==================================================================
==================================================================
==================================================================
(end of song)

(If there is a “continued” it is because the numbers could not
fit on 1 line.)


Intro 1

Guitar 2
D-----------------------------------------------------------------|
At11p8h10t11p8h10t11p8h10t15p8h10t15p8h10t15p8h10t15p8h10t18p8h10-|
F-----------------------------------------------------------------|
C-----------------------------------------------------------------|
G-----------------------------------------------------------------|
C-----------------------------------------------------------------|

==================================================================

Guitar 1
D-----------------------------------------------------------------|
A-----------------------------------------------------------------|
F-----------------------------------------------------------------|
C-5---------------------------------------------------------------|
G-5---------------------------------------------------------------|
C-5---------------------------------------------------------------|
pm.

Guitar 2
D-----------------------------------------------------------------|
At11p8h10t11p8h10t11p8h10t15p8h10t15p8h10t15p8h10t15p8h10t18p8h10-|
F-----------------------------------------------------------------|
C-----------------------------------------------------------------|
G-----------------------------------------------------------------|
C-----------------------------------------------------------------|

==================================================================


Guitar 1
D-----------------------------------------------------------------|
A-----------------------------------------------------------------|
F-----------------------------------------------------------------|
C-5---------------------------------------------------------------|
G-5---------------------------------------------------------------|
C-5---------------------------------------------------------------|
pm.

Guitar 2
D-----------------------------------------------------------------|
At11p8h10t11p8h10t11p8h10t15p8h10t15p8h10t15p8h10t15p8h10t18p8h10-|
F-----------------------------------------------------------------|
C-----------------------------------------------------------------|
G-----------------------------------------------------------------|
C-----------------------------------------------------------------|

==================================================================



Guitar 1
D-----------------------------------------------------------------|
A-----------------------------------------------------------------|
F-----------------------------------------------------------------|
C-5---------------------------------------------------------------|
G-5---------------------------------------------------------------|
C-5---------------------------------------------------------------|
pm.

Guitar 2
D-----------------------------------------------------------------|
At11p8h10t11p8h10t11p8h10t15p8h10t15p8h10t15p8h10t15p8h10t18p8h10-|
F-----------------------------------------------------------------|
C-----------------------------------------------------------------|
G-----------------------------------------------------------------|
C-----------------------------------------------------------------|

==================================================================
==================================================================


Intro 2

Guitar 1
D-------------------------------------------------------------------------|
A-------------------------------------------------------------------------|
F-------------------------------------------------------------------------|
C-5--5--5----5--5--5------------------------5--5--5---5----5--5--5--5--5--|
G-5--5--5----5--5--5------------------------5--5--5---5----5--5--5--5--5--|
C-5--5--5----5--5--5------------------------5--5--5---5----5--5--5--5--5--|

Guitar 2
D----------------------------------13----------------------------------13-|
A----------------15----------------------------------15-------------------|
F-15-0--15-14-0-----0--15-0--14-0-----15-0--15-14-0-----0--15-0--14-0-----|
C-------------------------------------------------------------------------|
G-------------------------------------------------------------------------|
C-------------------------------------------------------------------------|

==================================================================

Guitar 1
D-------------------------------------------------------------------------|
A-------------------------------------------------------------------------|
F-------------------------------------------------------------------------|
C-0--0--0----0--0--0------------------------0--0--0---0----0--0--0--0--0--|
G-0--0--0----0--0--0------------------------0--0--0---0----0--0--0--0--0--|
C-0--0--0----0--0--0------------------------0--0--0---0----0--0--0--0--0--|

Guitar 2
D-------------------------------------------------------------------------|
A----------------------------------13-------------------------------------|
F----------------15----------------------------------15----------------12-|
C-15-0--15-14-0-----0--15-0--14-0-----15-0--15-14-0-----0--15-0--14-0-----|
G-------------------------------------------------------------------------|
C-------------------------------------------------------------------------|

==================================================================

Guitar 1
D-------------------------------------------------------------------------|
A-------------------------------------------------------------------------|
F-------------------------------------------------------------------------|
C-5--5--5----5--5--5------------------------5--5--5---5----5--5--5--5--5--|
G-5--5--5----5--5--5------------------------5--5--5---5----5--5--5--5--5--|
C-5--5--5----5--5--5------------------------5--5--5---5----5--5--5--5--5--|
Pm                 .

Guitar 2
D----------------------------------13----------------------------------13-|
A----------------15----------------------------------15-------------------|
F-15-0--15-14-0-----0--15-0--14-0-----15-0--15-14-0-----0--15-0--14-0-----|
C-------------------------------------------------------------------------|
G-------------------------------------------------------------------------|
C-------------------------------------------------------------------------|

==================================================================

Guitar 1
D-------------------------------------------------------------------------|
A-------------------------------------------------------------------------|
F-------------------------------------------------------------------------|
C-0--0--0----0--0--0------------------------0--0--0---0----0--0--0--0--0--|
G-0--0--0----0--0--0------------------------0--0--0---0----0--0--0--0--0--|
C-0--0--0----0--0--0------------------------0--0--0---0----0--0--0--0--0--|

Guitar 2
D-------------------------------------------------------------------------|
A----------------------------------13-------------------------------------|
F----------------15----------------------------------15----------------12-|
C-15-0--15-14-0-----0--15-0--14-0-----15-0--15-14-0-----0--15-0--14-0-----|
G-------------------------------------------------------------------------|
C-------------------------------------------------------------------------|

==================================================================
==================================================================


Verse 1

Guitar 1
D-------------------------------------------------------------------------|
A-------------------------------------------------------------------------|
F-2~~~~~~~~~~~~~~~~-3~~~~~~~~~~~~~~~~-2~~~~~~~~~~~~~~~~-3~~~~~~~~~~~~~~~~-|
C---------5~~~~~~~~~~~~~~~~~-5~~~~~~~~~~~~~~~~~-5~~~~~~~~~~~~~~~-5~~~~~~~-|
G-------------------------------------------------------------------------|
C-------------------------------------------------------------------------|

==================================================================

Guitar 1
D-------------------------------------------------------------------------|
A-------------------------------------------------------------------------|
F-------------------------------------------------------------------------|
C-2~~~~~~~~~~~~~~~~-3~~~~~~~~~~~~~~~~-2~~~~~~~~~~~~~~~~-3~~~~~~~~~~~~~~~~-|
G---------5~~~~~~~~~~~~~~~~~-5~~~~~~~~~~~~~~~~~-5~~~~~~~~~~~~~~~-5~~~~~~~-|
C-------------------------------------------------------------------------|

==================================================================

Guitar 1
D-------------------------------------------------------------------------|
A-------------------------------------------------------------------------|
F-2~~~~~~~~~~~~~~~~-3~~~~~~~~~~~~~~~~-2~~~~~~~~~~~~~~~~-3~~~~~~~~~~~~~~~~-|
C---------5~~~~~~~~~~~~~~~~~-5~~~~~~~~~~~~~~~~~-5~~~~~~~~~~~~~~~-5~~~~~~~-|
G-------------------------------------------------------------------------|
C-------------------------------------------------------------------------|

==================================================================

Guitar 1
D-------------------------------------------------------------------------|
A-------------------------------------------------------------------------|
F-------------------------------------------------------------------------|
C-2~~~~~~~~~~~~~~~~-3~~~~~~~~~~~~~~~~-2~~~~~~~~~~~~~~~~-3~~~~~~~~~~~~~~~~-|
G---------5~~~~~~~~~~~~~~~~~-5~~~~~~~~~~~~~~~~~-5~~~~~~~~~~~~~~~-5~~~~~~~-|
C-------------------------------------------------------------------------|

==================================================================

Guitar 1
D-------------------------------------------------------------------------|
A-------------------------------------------------------------------------|
F-2~~~~~~~~~~~~~~~~-3~~~~~~~~~~~~~~~~-2~~~~~~~~~~~~~~~~-3~~~~~~~~~~~~~~~~-|
C---------5~~~~~~~~~~~~~~~~~-5~~~~~~~~~~~~~~~~~-5~~~~~~~~~~~~~~~-5~~~~~~~-|
G-------------------------------------------------------------------------|
C-------------------------------------------------------------------------|

Guitar 2
D-------------------------------------------------------------------------|
A-------------------------------------------------------------------------|
F-14-0--15-0--0--0--0--0--0--14-0--15-0--0--0--0--0--0--17-15-14-15-14-12-|
C-------------------------------------------------------------------------|
G-------------------------------------------------------------------------|
C-------------------------------------------------------------------------|
Pm.  .  .  .  .  .  .  .  .  .  .  .  .  .  .  .  .  .  .  .  .  .  .  .

==================================================================

Guitar 1
D-------------------------------------------------------------------------|
A-------------------------------------------------------------------------|
F-------------------------------------------------------------------------|
C-2~~~~~~~~~~~~~~~~-3~~~~~~~~~~~~~~~~-2~~~~~~~~~~~~~~~~-3~~~~~~~~~~~~~~~~-|
G---------5~~~~~~~~~~~~~~~~~-5~~~~~~~~~~~~~~~~~-5~~~~~~~~~~~~~~~-5~~~~~~~-|
C-------------------------------------------------------------------------|

Guitar 2
D-------------------------------------------------------------------------|
A-------------------------------------------------------------------------|
F-------------------------------------------------------------------------|
C-14-0--15-0--0--0--0--0--19-14-0--15-0--0--0--0--0--0--17-15-14-15-14-12-|
G-------------------------------------------------------------------------|
C-------------------------------------------------------------------------|
Pm.  .  .  .  .  .  .  .  .  .  .  .  .  .  .  .  .  .  .  .  .  .  .  .


==================================================================

Guitar 1
D-------------------------------------------------------------------------|
A-------------------------------------------------------------------------|
F-2~~~~~~~~~~~~~~~~-3~~~~~~~~~~~~~~~~-2~~~~~~~~~~~~~~~~-3~~~~~~~~~~~~~~~~-|
C---------5~~~~~~~~~~~~~~~~~-5~~~~~~~~~~~~~~~~~-5~~~~~~~~~~~~~~~-5~~~~~~~-|
G-------------------------------------------------------------------------|
C-------------------------------------------------------------------------|

Guitar 2
D-------------------------------------------------------------------------|
A-------------------------------------------------------------------------|
F-14-0--15-0--0--0--0--0--0--14-0--15-0--0--0--0--0--0--17-15-14-15-14-12-|
C-------------------------------------------------------------------------|
G-------------------------------------------------------------------------|
C-------------------------------------------------------------------------|
Pm.  .  .  .  .  .  .  .  .  .  .  .  .  .  .  .  .  .  .  .  .  .  .  .

==================================================================

Guitar 1
D-------------------------------------------------------------------------|
A-------------------------------------------------------------------------|
F-------------------------------------------------------------------------|
C-2~~~~~~~~~~~~~~~~-3~~~~~~~~~~~~~~~~-2~~~~~~~~~~~~~~~~-3~~~~~~~~~~~~~~~~-|
G---------5~~~~~~~~~~~~~~~~~-5~~~~~~~~~~~~~~~~~-5~~~~~~~~~~~~~~~-5~~~~~~~-|
C-------------------------------------------------------------------------|

Guitar 2
D-------------------------------------------------------------------------|
A-------------------------------------------------------------------------|
F-------------------------------------------------------------------------|
C-14-0--15-0--0--0--0--0--19-14-0--15-0--0--0--0--0--0--17-15-14-15-14-12-|
G-------------------------------------------------------------------------|
C-------------------------------------------------------------------------|
Pm.  .  .  .  .  .  .  .  .  .  .  .  .  .  .  .  .  .  .  .  .  .  .  .


==================================================================
==================================================================


Chorus 1

Guitar 1
D-------------------------------------------------------------------------|
A-------------------------------------------------------------------------|
F-------------------------------------------------------------------------|
C-5--5--5--5--5--5--5--5--5--5--5--5--1--1--1--1--1--1--1--1--1--1--1--1--|
G-5--5--5--5--5--5--5--5--5--5--5--5--1--1--1--1--1--1--1--1--1--1--1--1--|
C-5--5--5--5--5--5--5--5--5--5--5--5--1--1--1--1--1--1--1--1--1--1--1--1--|

Guitar 2
D-------------------------------------------------------------------------|
A-------------------15-15-15-15-15-15-------------------------------------|
F-12-12-12-12-12-12-x--x--x--x--x--x--15-15-15-15-15-15-15-15-15-15-15-15-|
C-x--x--x--x--x--x--12-12-12-12-12-12-x--x--x--x--x--x--x--x--x--x--x--x--|
G-10-10-10-10-10-10-------------------13-13-13-13-13-13-13-13-13-13-13-13-|
C-------------------------------------------------------------------------|

==================================================================

Guitar 1
D-------------------------------------------------------------------------|
A-------------------------------------------------------------------------|
F-------------------------------------5--5--5--5--5--5--7-----7-----7--7--|
C-0--0--0--0--0--0--0--0--0--0--0--0--5--5--5--5--5--5--7-----7-----7--7--|
G-0--0--0--0--0--0--0--0--0--0--0--0--3--3--3--3--3--3--5-----5-----5--5--|
C-0--0--0--0--0--0--0--0--0--0--0--0--------------------------------------|

Guitar 2
D-------------------------------------------------------------------------|
A-------------------------------------------------------------------------|
F-10-10-10-10-10-10-10-10-10-10-10-10-5--5--5--5--5--5--7-----7-----7--7--|
C-x--x--x--x--x--x--x--x--x--x--x--x--x--x--x--x--x--x--x-----x-----x--x--|
G-8--8--8--8--8--8--8--8--8--8--8--8--3--3--3--3--3--3--5-----5-----5--5--|
C-------------------------------------------------------------------------|

==================================================================

Guitar 1
D-------------------------------------------------------------------------|
A-------------------------------------------------------------------------|
F-------------------------------------------------------------------------|
C-5--5--5--5--5--5--5--5--5--5--5--5--1--1--1--1--1--1--1--1--1--1--1--1--|
G-5--5--5--5--5--5--5--5--5--5--5--5--1--1--1--1--1--1--1--1--1--1--1--1--|
C-5--5--5--5--5--5--5--5--5--5--5--5--1--1--1--1--1--1--1--1--1--1--1--1--|

Guitar 2
D-------------------------------------------------------------------------|
A-------------------15-15-15-15-15-15-------------------------------------|
F-12-12-12-12-12-12-x--x--x--x--x--x--15-15-15-15-15-15-15-15-15-15-15-15-|
C-x--x--x--x--x--x--12-12-12-12-12-12-x--x--x--x--x--x--x--x--x--x--x--x--|
G-10-10-10-10-10-10-------------------13-13-13-13-13-13-13-13-13-13-13-13-|
C-------------------------------------------------------------------------|

==================================================================

Guitar 1
D-------------------------------------------------------------------------|
A-------------------------------------------------------------------------|
F-------------------------------------5--5--5--5--5--5--------------------|
C-3--3--3--3--3--3--3--3--3--3--3--3--5--5--5--5--5--5--8~~~~~~~-7~~~~~~~-|
G-3--3--3--3--3--3--3--3--3--3--3--3--3--3--3--3--3--3--8~~~~~~~-7~~~~~~~-|
C-3--3--3--3--3--3--3--3--3--3--3--3--------------------8~~~~~~~-7~~~~~~~-|

Guitar 2
D-------------------------------------------------------------------------|
A-------------------------------------------------------------------------|
F-10-10-10-10-10-10-10-10-10-10-10-10-5--5--5--5--5--5--------------------|
C-x--x--x--x--x--x--x--x--x--x--x--x--x--x--x--x--x--x--8~~~~~~~-7~~~~~~~-|
G-8--8--8--8--8--8--8--8--8--8--8--8--3--3--3--3--3--3--8~~~~~~~-7~~~~~~~-|
C-------------------------------------------------------8~~~~~~~-7~~~~~~~-|

==================================================================
==================================================================


Bridge 1

Guitar 1
D-------------------------------------------------------------------------|
A-------------------------------------------------------------------------|
F-------------------------------------------------------------------------|
C-5--5--5----5--5--5------------------------5--5--5---5----5--5--5--5--5--|
G-5--5--5----5--5--5------------------------5--5--5---5----5--5--5--5--5--|
C-5--5--5----5--5--5------------------------5--5--5---5----5--5--5--5--5--|

Guitar 2
D----------------------------------13----------------------------------13-|
A----------------15----------------------------------15-------------------|
F-15-0--15-14-0-----0--15-0--14-0-----15-0--15-14-0-----0--15-0--14-0-----|
C-------------------------------------------------------------------------|
G-------------------------------------------------------------------------|
C-------------------------------------------------------------------------|

==================================================================

Guitar 1
D-------------------------------------------------------------------------|
A-------------------------------------------------------------------------|
F-------------------------------------------------------------------------|
C-0--0--0----0--0--0------------------------0--0--0---0----0--0--0--0--0--|
G-0--0--0----0--0--0------------------------0--0--0---0----0--0--0--0--0--|
C-0--0--0----0--0--0------------------------0--0--0---0----0--0--0--0--0--|

Guitar 2
D-------------------------------------------------------------------------|
A----------------------------------13-------------------------------------|
F----------------15----------------------------------15----------------12-|
C-15-0--15-14-0-----0--15-0--14-0-----15-0--15-14-0-----0--15-0--14-0-----|
G-------------------------------------------------------------------------|
C-------------------------------------------------------------------------|

==================================================================
==================================================================


Verse 1

Guitar 1
D-------------------------------------------------------------------------|
A-------------------------------------------------------------------------|
F-2~~~~~~~~~~~~~~~~-3~~~~~~~~~~~~~~~~-2~~~~~~~~~~~~~~~~-3~~~~~~~~~~~~~~~~-|
C---------5~~~~~~~~~~~~~~~~~-5~~~~~~~~~~~~~~~~~-5~~~~~~~~~~~~~~~-5~~~~~~~-|
G-------------------------------------------------------------------------|
C-------------------------------------------------------------------------|

==================================================================

Guitar 1
D-------------------------------------------------------------------------|
A-------------------------------------------------------------------------|
F-------------------------------------------------------------------------|
C-2~~~~~~~~~~~~~~~~-3~~~~~~~~~~~~~~~~-2~~~~~~~~~~~~~~~~-3~~~~~~~~~~~~~~~~-|
G---------5~~~~~~~~~~~~~~~~~-5~~~~~~~~~~~~~~~~~-5~~~~~~~~~~~~~~~-5~~~~~~~-|
C-------------------------------------------------------------------------|

==================================================================

Guitar 1
D-------------------------------------------------------------------------|
A-------------------------------------------------------------------------|
F-2~~~~~~~~~~~~~~~~-3~~~~~~~~~~~~~~~~-2~~~~~~~~~~~~~~~~-3~~~~~~~~~~~~~~~~-|
C---------5~~~~~~~~~~~~~~~~~-5~~~~~~~~~~~~~~~~~-5~~~~~~~~~~~~~~~-5~~~~~~~-|
G-------------------------------------------------------------------------|
C-------------------------------------------------------------------------|

==================================================================

Guitar 1
D-------------------------------------------------------------------------|
A-------------------------------------------------------------------------|
F-------------------------------------------------------------------------|
C-2~~~~~~~~~~~~~~~~-3~~~~~~~~~~~~~~~~-2~~~~~~~~~~~~~~~~-3~~~~~~~~~~~~~~~~-|
G---------5~~~~~~~~~~~~~~~~~-5~~~~~~~~~~~~~~~~~-5~~~~~~~~~~~~~~~-5~~~~~~~-|
C-------------------------------------------------------------------------|

==================================================================

Guitar 1
D-------------------------------------------------------------------------|
A-------------------------------------------------------------------------|
F-2~~~~~~~~~~~~~~~~-3~~~~~~~~~~~~~~~~-2~~~~~~~~~~~~~~~~-3~~~~~~~~~~~~~~~~-|
C---------5~~~~~~~~~~~~~~~~~-5~~~~~~~~~~~~~~~~~-5~~~~~~~~~~~~~~~-5~~~~~~~-|
G-------------------------------------------------------------------------|
C-------------------------------------------------------------------------|

Guitar 2
D-------------------------------------------------------------------------|
A-------------------------------------------------------------------------|
F-14-0--15-0--0--0--0--0--0--14-0--15-0--0--0--0--0--0--17-15-14-15-14-12-|
C-------------------------------------------------------------------------|
G-------------------------------------------------------------------------|
C-------------------------------------------------------------------------|
Pm.  .  .  .  .  .  .  .  .  .  .  .  .  .  .  .  .  .  .  .  .  .  .  .

==================================================================

Guitar 1
D-------------------------------------------------------------------------|
A-------------------------------------------------------------------------|
F-------------------------------------------------------------------------|
C-2~~~~~~~~~~~~~~~~-3~~~~~~~~~~~~~~~~-2~~~~~~~~~~~~~~~~-3~~~~~~~~~~~~~~~~-|
G---------5~~~~~~~~~~~~~~~~~-5~~~~~~~~~~~~~~~~~-5~~~~~~~~~~~~~~~-5~~~~~~~-|
C-------------------------------------------------------------------------|

Guitar 2
D-------------------------------------------------------------------------|
A-------------------------------------------------------------------------|
F-------------------------------------------------------------------------|
C-14-0--15-0--0--0--0--0--19-14-0--15-0--0--0--0--0--0--17-15-14-15-14-12-|
G-------------------------------------------------------------------------|
C-------------------------------------------------------------------------|
Pm.  .  .  .  .  .  .  .  .  .  .  .  .  .  .  .  .  .  .  .  .  .  .  .


==================================================================

Guitar 1
D-------------------------------------------------------------------------|
A-------------------------------------------------------------------------|
F-2~~~~~~~~~~~~~~~~-3~~~~~~~~~~~~~~~~-2~~~~~~~~~~~~~~~~-3~~~~~~~~~~~~~~~~-|
C---------5~~~~~~~~~~~~~~~~~-5~~~~~~~~~~~~~~~~~-5~~~~~~~~~~~~~~~-5~~~~~~~-|
G-------------------------------------------------------------------------|
C-------------------------------------------------------------------------|

Guitar 2
D-------------------------------------------------------------------------|
A-------------------------------------------------------------------------|
F-14-0--15-0--0--0--0--0--0--14-0--15-0--0--0--0--0--0--17-15-14-15-14-12-|
C-------------------------------------------------------------------------|
G-------------------------------------------------------------------------|
C-------------------------------------------------------------------------|
Pm.  .  .  .  .  .  .  .  .  .  .  .  .  .  .  .  .  .  .  .  .  .  .  .

==================================================================

Guitar 1
D-------------------------------------------------------------------------|
A-------------------------------------------------------------------------|
F-------------------------------------------------------------------------|
C-2~~~~~~~~~~~~~~~~-3~~~~~~~~~~~~~~~~-2~~~~~~~~~~-5--5--5--3--0--3--2--0--|
G---------5~~~~~~~~~~~~~~~~~-5~~~~~~~~~~~~~~~~~~~-------------------------|
C-------------------------------------------------------------------------|
Pm                                                .  .        .  .  .  .

Guitar 2
D-------------------------------------------------------------------------|
A-------------------------------------------------------------------------|
F-------------------------------------------------------------------------|
C-14-0--15-0--0--0--0--0--19-14-0--15-0--0--0--0--0--0--17-15-14-15-14-12-|
G-------------------------------------------------------------------------|
C-------------------------------------------------------------------------|
Pm.  .  .  .  .  .  .  .  .  .  .  .  .  .  .  .  .  .  .  .  .  .  .  .


==================================================================
==================================================================


Chorus 2

Guitar 1
D-------------------------------------------------------------------------|
A-------------------------------------------------------------------------|
F-------------------------------------------------------------------------|
C-5--5--5--5--5--5--5--5--5--5--5--5--1--1--1--1--1--1--1--1--1--1--1--1--|
G-5--5--5--5--5--5--5--5--5--5--5--5--1--1--1--1--1--1--1--1--1--1--1--1--|
C-5--5--5--5--5--5--5--5--5--5--5--5--1--1--1--1--1--1--1--1--1--1--1--1--|

Guitar 2
D-------------------------------------------------------------------------|
A-------------------15-15-15-15-15-15-------------------------------------|
F-12-12-12-12-12-12-x--x--x--x--x--x--15-15-15-15-15-15-15-15-15-15-15-15-|
C-x--x--x--x--x--x--12-12-12-12-12-12-x--x--x--x--x--x--x--x--x--x--x--x--|
G-10-10-10-10-10-10-------------------13-13-13-13-13-13-13-13-13-13-13-13-|
C-------------------------------------------------------------------------|

==================================================================

Guitar 1
D-------------------------------------------------------------------------|
A-------------------------------------------------------------------------|
F-------------------------------------5--5--5--5--5--5--7-----7-----7--7--|
C-0--0--0--0--0--0--0--0--0--0--0--0--5--5--5--5--5--5--7-----7-----7--7--|
G-0--0--0--0--0--0--0--0--0--0--0--0--3--3--3--3--3--3--5-----5-----5--5--|
C-0--0--0--0--0--0--0--0--0--0--0--0--------------------------------------|

Guitar 2
D-------------------------------------------------------------------------|
A-------------------------------------------------------------------------|
F-10-10-10-10-10-10-10-10-10-10-10-10-5--5--5--5--5--5--7-----7-----7--7--|
C-x--x--x--x--x--x--x--x--x--x--x--x--x--x--x--x--x--x--x-----x-----x--x--|
G-8--8--8--8--8--8--8--8--8--8--8--8--3--3--3--3--3--3--5-----5-----5--5--|
C-------------------------------------------------------------------------|

==================================================================

Guitar 1
D-------------------------------------------------------------------------|
A-------------------------------------------------------------------------|
F-------------------------------------------------------------------------|
C-5--5--5--5--5--5--5--5--5--5--5--5--1--1--1--1--1--1--1--1--1--1--1--1--|
G-5--5--5--5--5--5--5--5--5--5--5--5--1--1--1--1--1--1--1--1--1--1--1--1--|
C-5--5--5--5--5--5--5--5--5--5--5--5--1--1--1--1--1--1--1--1--1--1--1--1--|

Guitar 2
D-------------------------------------------------------------------------|
A-------------------15-15-15-15-15-15-------------------------------------|
F-12-12-12-12-12-12-x--x--x--x--x--x--15-15-15-15-15-15-15-15-15-15-15-15-|
C-x--x--x--x--x--x--12-12-12-12-12-12-x--x--x--x--x--x--x--x--x--x--x--x--|
G-10-10-10-10-10-10-------------------13-13-13-13-13-13-13-13-13-13-13-13-|
C-------------------------------------------------------------------------|

==================================================================

Guitar 1
D-------------------------------------------------------------------------|
A-------------------------------------------------------------------------|
F-------------------------------------5--5--5--5--5--5--------------------|
C-3--3--3--3--3--3--3--3--3--3--3--3--5--5--5--5--5--5--8~~~~~~~-7~~~~~~~-|
G-3--3--3--3--3--3--3--3--3--3--3--3--3--3--3--3--3--3--8~~~~~~~-7~~~~~~~-|
C-3--3--3--3--3--3--3--3--3--3--3--3--------------------8~~~~~~~-7~~~~~~~-|

Guitar 2
D-------------------------------------------------------------------------|
A-------------------------------------------------------------------------|
F-10-10-10-10-10-10-10-10-10-10-10-10-5--5--5--5--5--5--------------------|
C-x--x--x--x--x--x--x--x--x--x--x--x--x--x--x--x--x--x--8~~~~~~~-7~~~~~~~-|
G-8--8--8--8--8--8--8--8--8--8--8--8--3--3--3--3--3--3--8~~~~~~~-7~~~~~~~-|
C-------------------------------------------------------8~~~~~~~-7~~~~~~~-|

==================================================================
==================================================================


Interlude 1

(x2)

Guitar 1
D-------------------------------------------------------------------------|
A-------------------------------------------------------------------------|
F-------------------------------------------------------------------------|
C-5--5--5----5--5--5------------------7--7--7----7--7--7------------------|
G-5--5--5----5--5--5------------------7--7--7----7--7--7------------------|
C-5--5--5----5--5--5------------------7--7--7----7--7--7------------------|

Guitar 2
D-------------------------------------------------------------------------|
A-------13-15-------13----13----13----13----13-15-13----13----13----16----|
F-15-12-------12-15----12----12----12----12----------12----12----12----12-|
C-------------------------------------------------------------------------|
G-------------------------------------------------------------------------|
C-------------------------------------------------------------------------|
Pm   .        .  .     .     .     .     .           .     .     .     .

==================================================================

Guitar 1
D-------------------------------------------------------------------------|
A-------------------------------------------------------------------------|
F-------------------------------------------------------------------------|
C-8--8--8----8--8--8------------------10-10-10---10-10-10-10--x--x--x--x--|
G-8--8--8----8--8--8------------------10-10-10---10-10-10-10--x--x--x--x--|
C-8--8--8----8--8--8------------------10-10-10---10-10-10-10--x--x--x--x--|

Guitar 2
D-------------------------------------------------------------------------|
A-15-13----15-13----13----13----13----15----15-16-15----13----13----------|
F-------12-------12----12----12----12----12----------12----12----12-12-12-|
C-------------------------------------------------------------------------|
G-------------------------------------------------------------------------|
C-------------------------------------------------------------------------|
Pm      .        .     .     .     .     .           .     .     .  .  .

==================================================================

Guitar 1
D-------------------------------------------------------------------------|
A-------------------------------------------------------------------------|
F-------------------------------------------------------------------------|
C-5--5--5----5--5--5------------------7--7--7----7--7--7------------------|
G-5--5--5----5--5--5------------------7--7--7----7--7--7------------------|
C-5--5--5----5--5--5------------------7--7--7----7--7--7------------------|

Guitar 2
D-------------------------------------------------------------------------|
A-------13-15-------13----13----13----13----13-15-13----13----13----16----|
F-15-12-------12-15----12----12----12----12----------12----12----12----12-|
C-------------------------------------------------------------------------|
G-------------------------------------------------------------------------|
C-------------------------------------------------------------------------|
Pm   .        .  .     .     .     .     .           .     .     .     .

==================================================================

Guitar 1
D-------------------------------------------------------------------------|
A-------------------------------------------------------------------------|
F-------------------------------------------------------------------------|
C-8--8--8----8--8--8------------------10-10-10---10-10-10-10--0--0--0--0--|
G-8--8--8----8--8--8------------------10-10-10---10-10-10-10--0--0--0--0--|
C-8--8--8----8--8--8------------------10-10-10---10-10-10-10--0--0--0--0--|

Guitar 2
D-------------------------------------------------------------------------|
A-15-13----15-13----13----13----13----15----15-16-15----13----13----------|
F-------12-------12----12----12----12----12----------12----12----12-12-12-|
C-------------------------------------------------------------------------|
G-------------------------------------------------------------------------|
C-------------------------------------------------------------------------|
Pm      .        .     .     .     .     .           .     .     .  .  .

==================================================================
==================================================================


Guitar Solo

Guitar 1
D-------------------------------------------------------------------------|
A-------------------------------------------------------------------------|
F-------------------------------------------------------------------------|
C-5--5--5--5--5--5--5--5--5--5--5--5--7--7--7--7--7--7--7--7--7--7--7--7--|
G-5--5--5--5--5--5--5--5--5--5--5--5--7--7--7--7--7--7--7--7--7--7--7--7--|
C-5--5--5--5--5--5--5--5--5--5--5--5--7--7--7--7--7--7--7--7--7--7--7--7--|

Guitar 2 (Wah Effect)
D-------------------------------------------------------------------------|
A-15~~~~~~~~~~~~~~~~~~~~~~~~~~~~~~~~~-------------------15~~~~~~~~~-15~b~-|
F------------------------------------/14~~~~~~~~~~~~~~~-------------------|
C-------------------------------------------------------------------------|
G-------------------------------------------------------------------------|
C-------------------------------------------------------------------------|

==================================================================

Guitar 1
D-------------------------------------------------------------------------|
A-------------------------------------------------------------------------|
F-------------------------------------------------------------------------|
C-8--8--8--8--8--8--8--8--8--8--8--8--10-10-10-10-10-10-10-10-10-10-10-10-|
G-8--8--8--8--8--8--8--8--8--8--8--8--10-10-10-10-10-10-10-10-10-10-10-10-|
C-8--8--8--8--8--8--8--8--8--8--8--8--10-10-10-10-10-10-10-10-10-10-10-10-|

Guitar 2
D-------------------------------------------------------------------------|
A-15~~~~~~~~~~~~~~~~~~~~~~~~~~~~~~~~~-13~~~~~~~~~~~~~~~-15~~~~~~~~~-18~~~-|
F-------------------------------------------------------------------------|
C-------------------------------------------------------------------------|
G-------------------------------------------------------------------------|
C-------------------------------------------------------------------------|

==================================================================

Guitar 1
D-------------------------------------------------------------------------|
A-------------------------------------------------------------------------|
F-------------------------------------------------------------------------|
C-5--5--5--5--5--5--5--5--5--5--5--5--7--7--7--7--7--7--7--7--7--7--7--7--|
G-5--5--5--5--5--5--5--5--5--5--5--5--7--7--7--7--7--7--7--7--7--7--7--7--|
C-5--5--5--5--5--5--5--5--5--5--5--5--7--7--7--7--7--7--7--7--7--7--7--7--|

Guitar 2 (Wah Effect)
D-------------------------------------------------------------------------|
A-18-15~~~~~~~~~~~~~~~~~~~~~~~~~~~~~~-13~~~~~~~~~~~~~~~-15~~~~~~-12~~~~~~-|
F-------------------------------------------------------------------------|
C-------------------------------------------------------------------------|
G-------------------------------------------------------------------------|
C-------------------------------------------------------------------------|

==================================================================

Guitar 1
D-------------------------------------------------------------------------|
A-------------------------------------------------------------------------|
F-------------------------------------------------------------------------|
C-8--8--8--8--8--8--8--8--8--8--8--8--10-10-10-10-10-10-------------------|
G-8--8--8--8--8--8--8--8--8--8--8--8--10-10-10-10-10-10-------------------|
C-8--8--8--8--8--8--8--8--8--8--8--8--10-10-10-10-10-10-0-----0-----0--1--|

Guitar 2
D-------------------------------------------------------------------------|
A-15~~~~~~~~~~~~~~~~~~~~~~~~~~~~~~~~~-------------------------------------|
F-------------------------------------15~~~~~~~~~~~~~~~-14-14-14-14-14-14-|
C-------------------------------------------------------------------------|
G-------------------------------------------------------------------------|
C-------------------------------------------------------------------------|

==================================================================

Guitar 1
D-------------------------------------------------------------------------|
A-------------------------------------------------------------------------|
F-------------------------------------------------------------------------|
C-------------------------------------------------------------0~~~~~~~~~~-|
G-------------------------------------------------------------0~~~~~~~~~~-|
C-0--0--0--1--0--0--0--0--0-----0-----0--1--0--0--0--1--0--0--0~~~~~~~~~~-|

Guitar 2
D-------------------------------------------------------------------------|
A-------------------------------------------------------------------------|
F-14-14-14-14-14-14-14-14-14-14-14-14-14-14-14-14-12-12-11-11-11~~~~~~~~~-|
C-------------------------------------------------------------------------|
G-------------------------------------------------------------------------|
C-------------------------------------------------------------------------|

==================================================================
==================================================================


Bridge 2

Guitar 1
D-------------------------------------------------------------------------|
A-------------------------------------------------------------------------|
F-------------------------------------------------------------------------|
C-5--5--5--5--5--5--5~~~~~~~~~~~~~~~~-1--1--1--1--1--1--1~~~~~~~~~~~~~~~~-|
G-5--5--5--5--5--5--5~~~~~~~~~~~~~~~~-1--1--1--1--1--1--1~~~~~~~~~~~~~~~~-|
C-5--5--5--5--5--5--5~~~~~~~~~~~~~~~~-1--1--1--1--1--1--1~~~~~~~~~~~~~~~~-|

Guitar 2
D-------------------------------------------------------------------------|
A-------------------------------------------------------------------------|
F-15-14-12-14-------15-14-12-14-------15-14-12-14-------15-14-12-14-------|
C-------------10-12-------------10-12-------------10-12-------------10-12-|
G-------------------------------------------------------------------------|
C-------------------------------------------------------------------------|

==================================================================

Guitar 1
D-------------------------------------------------------------------------|
A-------------------------------------------------------------------------|
F-------------------------------------5--5--5--5--5--5--------------------|
C-0--0--0--0--0--0--0~~~~~~~~~~~~~~~~-5--5--5--5--5--5--0~~~~~~~~~~~~~~~~-|
G-0--0--0--0--0--0--0~~~~~~~~~~~~~~~~-3--3--3--3--3--3--0~~~~~~~~~~~~~~~~-|
C-0--0--0--0--0--0--0~~~~~~~~~~~~~~~~-------------------0~~~~~~~~~~~~~~~~-|

Guitar 2
D-------------------------------------------------------------------------|
A-------------------------------------------------------------------------|
F-15-14-12-14-------15-14-12-14-------15-14-12-14-------15-14-12-14-------|
C-------------10-12-------------10-12-------------10-12-------------10-12-|
G-------------------------------------------------------------------------|
C-------------------------------------------------------------------------|

==================================================================

Guitar 1
D-------------------------------------------------------------------------|
A-------------------------------------------------------------------------|
F-------------------------------------------------------------------------|
C-5--5--5--5--5--5--5~~~~~~~~~~~~~~~~-1--1--1--1--1--1--1~~~~~~~~~~~~~~~~-|
G-5--5--5--5--5--5--5~~~~~~~~~~~~~~~~-1--1--1--1--1--1--1~~~~~~~~~~~~~~~~-|
C-5--5--5--5--5--5--5~~~~~~~~~~~~~~~~-1--1--1--1--1--1--1~~~~~~~~~~~~~~~~-|

Guitar 2
D-------------------------------------------------------------------------|
A-------------------------------------------------------------------------|
F-15-14-12-14-------15-14-12-14-------15-14-12-14-------15-14-12-14-------|
C-------------10-12-------------10-12-------------10-12-------------10-12-|
G-------------------------------------------------------------------------|
C-------------------------------------------------------------------------|

==================================================================

Guitar 1
D-------------------------------------------------------------------------|
A-------------------------------------------------------------------------|
F-------------------------------------------------------------------------|
C-3--3--3--3--3--3--3~~~~~~~~~~~~~~~~-10\~~~~~~~~~~~~~~~~~~~~~~~~~~~~~~~~-|
G-3--3--3--3--3--3--3~~~~~~~~~~~~~~~~-10\~~~~~~~~~~~~~~~~~~~~~~~~~~~~~~~~-|
C-3--3--3--3--3--3--3~~~~~~~~~~~~~~~~-10\~~~~~~~~~~~~~~~~~~~~~~~~~~~~~~~~-|

Guitar 2
D-------------------------------------------------------------------------|
A-------------------------------------------------------------------------|
F-15-14-12-14-------15-14-12-14-------15\~~~~~~~~~~~~~~~~~~~~~~~~~~~~~~~~-|
C-------------10-12-------------10-12-------------------------------------|
G-------------------------------------------------------------------------|
C-------------------------------------------------------------------------|

==================================================================
==================================================================


Chorus 3

Guitar 1
D-------------------------------------------------------------------------|
A-------------------------------------------------------------------------|
F-------------------------------------------------------------------------|
C-5--5--5--5--5--5--5--5--5--5--5--5--1--1--1--1--1--1--1--1--1--1--1--1--|
G-5--5--5--5--5--5--5--5--5--5--5--5--1--1--1--1--1--1--1--1--1--1--1--1--|
C-5--5--5--5--5--5--5--5--5--5--5--5--1--1--1--1--1--1--1--1--1--1--1--1--|

Guitar 2
D-------------------------------------------------------------------------|
A-------------------15-15-15-15-15-15-------------------------------------|
F-12-12-12-12-12-12-x--x--x--x--x--x--15-15-15-15-15-15-15-15-15-15-15-15-|
C-x--x--x--x--x--x--12-12-12-12-12-12-x--x--x--x--x--x--x--x--x--x--x--x--|
G-10-10-10-10-10-10-------------------13-13-13-13-13-13-13-13-13-13-13-13-|
C-------------------------------------------------------------------------|

==================================================================

Guitar 1
D-------------------------------------------------------|
A-------------------------------------------------------|
F-------------------------------------5--5--5--5--5--5--|
C-0--0--0--0--0--0--0--0--0--0--0--0--5--5--5--5--5--5--|
G-0--0--0--0--0--0--0--0--0--0--0--0--3--3--3--3--3--3--|
C-0--0--0--0--0--0--0--0--0--0--0--0--------------------|

Guitar 1 continued
D-------------------------------------|
A-------------------------------------|
F-7-----7-----7--7--7-----7-----7--7--|
C-7-----7-----7--7--7-----7-----7--7--|
G-5-----5-----5--5--5-----5-----5--5--|
C-------------------------------------|

Guitar 2
D-------------------------------------------------------|
A-------------------------------------------------------|
F-10-10-10-10-10-10-10-10-10-10-10-10-5--5--5--5--5--5--|
C-x--x--x--x--x--x--x--x--x--x--x--x--x--x--x--x--x--x--|
G-8--8--8--8--8--8--8--8--8--8--8--8--3--3--3--3--3--3--|
C-------------------------------------------------------|

Guitar 2 continued
D-------------------------------------|
A-------------------------------------|
F-------------------------------------|
C-0-----0-----0--0--0-----0-----0--0--|
G-0-----0-----0--0--0-----0-----0--0--|
C-0-----0-----0--0--0-----0-----0--0--|

==================================================================

Guitar 1
D-------------------------------------------------------------------------|
A-------------------------------------------------------------------------|
F-------------------------------------------------------------------------|
C-5--5--5--5--5--5--5--5--5--5--5--5--1--1--1--1--1--1--1--1--1--1--1--1--|
G-5--5--5--5--5--5--5--5--5--5--5--5--1--1--1--1--1--1--1--1--1--1--1--1--|
C-5--5--5--5--5--5--5--5--5--5--5--5--1--1--1--1--1--1--1--1--1--1--1--1--|

Guitar 2 (Wah Effect)
D-------------------------------------------------------------------------|
A-15-15-15-13-13-13-15-15-15-13-13-13-15-15-15-13-13-13-15-15-15-13-13-13-|
F-------------------------------------------------------------------------|
C-------------------------------------------------------------------------|
G-------------------------------------------------------------------------|
C-------------------------------------------------------------------------|

==================================================================

Guitar 1
D-------------------------------------------------------------------------|
A-------------------------------------------------------------------------|
F-------------------------------------5--5--5--5--5--5--------------------|
C-3--3--3--3--3--3--3--3--3--3--3--3--5--5--5--5--5--5--8~~~~~~~-7~~~~~~~-|
G-3--3--3--3--3--3--3--3--3--3--3--3--3--3--3--3--3--3--8~~~~~~~-7~~~~~~~-|
C-3--3--3--3--3--3--3--3--3--3--3--3--------------------8~~~~~~~-7~~~~~~~-|

Guitar 2
D-------------------------------------------------------------------------|
A-15-15-15-13-13-13-15-15-15-13-13-13-15-15-15-13-13-13-15-15-15-13-13-13-|
F-------------------------------------------------------------------------|
C-------------------------------------------------------------------------|
G-------------------------------------------------------------------------|
C-------------------------------------------------------------------------|

==================================================================
==================================================================


Outro

Guitar 1
D-------------------------------------------------------------------------|
A-------------------------------------------------------------------------|
F-------------------------------------------------------------------------|
C-0-----0-----0--0--0-----0-----0--0--0-----0-----0--0--0-----0-----0--0--|
G-0-----0-----0--0--0-----0-----0--0--0-----0-----0--0--0-----0-----0--0--|
C-0-----0-----0--0--0-----0-----0--0--0-----0-----0--0--0-----0-----0--0--|

Guitar 2
D-------------------------------------------------------10-8--10-11-10-8--|
A-------------------------------------10-8--10-11-10-8--------------------|
F-------------------11----11-12-11----------------------------------------|
C-12-10-12-13-12-10----12----------12-------------------------------------|
G-------------------------------------------------------------------------|
C-------------------------------------------------------------------------|

==================================================================

Guitar 1 & 2
D-------------------------------------------------------------------------|
A-------------------------------------------------------------------------|
F-------------------------------------------------------------------------|
C-0~~~~~~~~~~~~~~~~~~~~~~~~~~~~~~~~~~~~~~~~~~~~~~~~~~~~~~~~~~~~~~~~~~~~~~-|
G-0~~~~~~~~~~~~~~~~~~~~~~~~~~~~~~~~~~~~~~~~~~~~~~~~~~~~~~~~~~~~~~~~~~~~~~-|
C-0~~~~~~~~~~~~~~~~~~~~~~~~~~~~~~~~~~~~~~~~~~~~~~~~~~~~~~~~~~~~~~~~~~~~~~-|

==================================================================
==================================================================
==================================================================


Tab Legend
h  -  hammer-on
p  -  pull-off
/  -  slide up
\  -  slide down
ps/-  pickslide up
ps\-  pickslide down
~  -  let ring
pm.-  palm mute
b  -  bend
r  -  return from bend
*  -  harmonic
x  -  dead note
^  -  Whammy bar
^\ -  Whammy bar (hold down)

That’s all of it! I hope this tab helped you, and if you’ve got any problems, be sure to
check out my cover for visuals. Thanks, oh and one last thing... ROCK OUT!!!!
comments
We did not receive enough feedback on this tab! Please rate:
print report bad tab
1 2 3 4 5
I want to post or [tab]
guest
You may want to rate the tab now too:
select rating
Please do not post tabs as comments. Select "correction" instead!