Oops, an error
Loading. Please wait.

This Kiss Tab

ver1
ver1

Whole song

Interactive

More versions @911Tabs.com
3,883 views 1 this week
no commentswrite comment
1 2 3 4 5
please rate
Autoscroll
+/-
esc
set tempo
stop
Contributor
Difficulty
Tabbers playing skills
novice
intermediate ++
Hey! There's an official Ultimate Guitar app which is ideal
for learning songs when you're away from computer. Get the app
WARNING: You are trying to view
                                    content from Ultimate-Guitar.com
                                    in an unauthorized application,
                                    which is prohibited.

                                    Please use an official Ultimate
                                    Guitar Tabs application for iPhone,
                                    iPad or Android to access legitimate
                                    chords, guitar, bass, and drum tabs
                                    from Ultimate-Guitar.com database.

                                    Type "ultimate guitar tabs" in Apple
                                    App Store's or Android Market's
                                    search to find the application.
-------------------------------------------------------------------------------
                             THIS KISS - Faith Hill
-------------------------------------------------------------------------------
Tabbed by: metallhead
Email: homesticky@gmail.com

Tuning: E A D G B E


Gtr I (E A D G B E) - 'Voice'
Gtr II (E A D G B E) - 'Guitar'
Gtr III (E A D G B E) - 'Guitar'

  Q=97
 4/4
  Gtr II
  W          W          S S S S S S E +E  S S  S  S S S
|----------|----------|-------------------7-------------|
|----------|----------|-7-------7---------9----9----9---|
|----------|----------|-8-------8---------8-------------|
|----------|----------|-9---9---9---6-(6)---------------|
|----------|----------|---------------------------------|
|----------|----------|-7-----7-------------------------|
|
| Gtr III
| W          W          E   E   E   E +E  E   +Q
|----------|----------|---------------------------------|
|----------|----------|-------------5-(5)-4---(4)-------|
|----------|----------|-4---3---4-----------------------|
|----------|----------|---------------------------------|
|----------|----------|---------------------------------|
|----------|----------|---------------------------------|


  E    S S  S  S S S  E     S S  S S  S S
|-----------9-----------------------------|
|------5---10--------------10---14---10---|
|-----------9--------11---------11--------|
|-7------7-------7------------------------|
|---------------------9-------------------|
|-------------------------------14--------|
|
| S E.     +Q        +S  S  S S  E    E
|-----------------------------------------|
|-5-2------(2)-------(2)----2-------------|
|-4---------------------------4--2----4---|
|-7---------------------------------------|
|-----------------------------------------|
|-----------------------------------------|


  E S S S S S S  Q     S S E      E  E E  E  E  E    E E
|------------------------------|---------------------------|
|-------7---7------------------|---------------------------|
|-------8---8----8-----8-------|--9----9-------------------|
|---9---9---9----9-----9-------|-11------11----------------|
|-----9---------11----11-------|-12---------12------12-----|
|-7----------------------------|---------------14----------|
|
| E E   E   E   +E  E  E   S S   +H          E  S S  E S S
|-------2----------------------|---------------------------|
|---4-------5---(5)-4------5-2-|-(2)-----------------------|
|-4--------------------4---4---|-------------4--2-1--2-1---|
|------------------------------|-------------------------4-|
|------------------------------|---------------------------|
|------------------------------|---------------------------|


  Gtr I
  E S S S S S S  S  S  E   E    S  S   S S S S S S S S S S E   Q
|---2-4-7---7----9----11-------11-11-|-9-7-5---5---7---9-7-5-----------|
|---------9---9----------------------|---------------------------------|
|------------------------------------|---------------------------------|
|------------------------------------|---------------------------------|
|------------------------------------|---------------------------------|
|------------------------------------|---------------------------------|
|
| Gtr II
| E S S S S S S  E     S S S S  S  S   E   S S S S S S E   S S S S S S
|------------------------------------|---------------------------------|
|-------4------------------4---------|---------5-----------2---2-------|
|-------4------------------4---------|---------6-----------2---2-------|
|---4---4---4----------4---4---------|-----7---7---7-------2---2---2---|
|-2---2------------------------------|-------7---7---------------------|
|----------------4-------4------4----|-5---------------2-----------2---|
|
| Gtr III
| H             +S  S  E   Q           W
|------------------------------------|---------------------------------|
|------------------------------------|---------------------------------|
|------------------------------------|---------------------------------|
|------------------------------------|---------------------------------|
|-6-------------(6)------------------|---------------------------------|
|------------------------------------|---------------------------------|


  E S S S S S S S S  E   E    S  S   S S  S S E   S S  S S E   S S S S
|-------7---7---9---11-------11-11-|-9------------9------------9---7---|
|---7-9---9---9--------------------|-----10-----------10---------------|
|----------------------------------|-----------------------------------|
|----------------------------------|-----------------------------------|
|----------------------------------|-----------------------------------|
|----------------------------------|-----------------------------------|
|
| E S S S S S S E    S S S S  S  S   E    S S S S S S  E   S S S S S S
|----------------------------------|-----------------------------------|
|-------4----------------4---------|----------5------------2---2-------|
|-------4----------------4---------|----------6------------2---2-------|
|---4---4---4--------4---4---------|------7---7---7--------2---2---2---|
|-2---2----------------------------|--------7---7----------------------|
|---------------4------4------4----|-5-----------------2-----------2---|


  E S S S S S S S S  E   E    S  S    S S  S S +E     S S  S  S E   Q
|-------7---7---9---11-------11-11-|-12---11-9-(9)---11---12-11-9-----------|
|---7-9---9---9--------------------|----------------------------------------|
|----------------------------------|----------------------------------------|
|----------------------------------|----------------------------------------|
|----------------------------------|----------------------------------------|
|----------------------------------|----------------------------------------|
|
| E S S S S S S E    S S S S  S  S    E    S S  S  S  S S  E    S S S S S S
|----------------------------------|----------------------------------------|
|-------4----------------4---------|------------5---------------2---2-------|
|-------4----------------4---------|------------6---------------2---2-------|
|---4---4---4--------4---4---------|-------7----7-----7---------2---2---2---|
|-2---2----------------------------|---------7-----7------------------------|
|---------------4------4------4----|--5--------------------2------------2---|


  E  S S E    S  S  +E     S S  S S  E
|---12-------14-16-(16)------------------|
|-------------------------17-------------|
|----9-------11-13-(13)--------18---16---|
|-------------------------14-------------|
|------------------------------16--------|
|-----------------------------------19---|
|
| E  S S S S  S  S   S  S  S S  S S  S S
|-7------7----7-----------------7--------|
|-9--5---9----0------9-----5----9--------|
|-9------9----9------9----------9--------|
|-9----9-------------6-------6-------6---|
|-7----7---------------------------------|
|----------------------------------------|
|
| Gtr III
| H                 +Q          Q
|----------------------------------------|
|-9-----------------(9)------------------|
|-9-----------------(9)------------------|
|-9-----------------(9)------------------|
|-7-----------------(7)------------------|
|----------------------------------------|


  E    E   E    S  S  +S  S  S S  E    S S
|------------------------------------------|
|-----17-------19-21-(21)-------------21---|
|---------------------------21---23--------|
|-----14-------16-18-(18)-------------18---|
|---------------------------19---21--------|
|------------------------------------------|
|
| S S  S S S S  S  S   E     S S  S S  S S
|-5--------5-------------------------------|
|-5--------5----------------------7--------|
|-6----6---6-----------------8----8----8---|
|-7------7------7------9-------9-----------|
|------------------------------------------|
|------------------------------------------|
|
| H                    E     E    E    E
|------------------------------------------|
|------------------------------------------|
|------------------------------------------|
|-7--------------------------9---11----9---|
|------------------------------------------|
|------------------------------------------|


  E  S S E    S S  S  S  S S  S S  E     E  S S E    S S  S  S  S S  S S  E
|--------------------------------------|---------------------------------------|
|-----------------21-21----------------|-----------------21-21-----------21----|
|---21-------23---------21---18--------|---21-------23---------21---23---------|
|-----------------18-18-----------21---|-----------------18-18-----------18----|
|---19-------21---------19-------------|---19-------21---------19---21---------|
|----------------------------21---19---|---------------------------------------|
|
| E  S S S S  S S  S  S  S S  S S  S S   E  S S S S  S S  E     S S  S S  S S
|--------7----7----------7-------------|--------0----0----------2---------2----|
|----5---9----9----------9-------------|--------2----2----------4---------4----|
|------4-9----9----------9---16--------|----2---2----2----------4----4----4----|
|-9-----------9----6--------------14---|-2----2---2----------------------------|
|-7------------------------------------|-0-------------------------------------|
|----------------------------16--------|---------------------------------------|
|
| W                                      E  S S S S  S S  Q          E    S S
|--------------------------------------|----------5----------------------------|
|--------------------------------------|----------5------------------7---------|
|--------------------------------------|-----------------------------8---------|
|--------------------------------------|----7--------7----9---------------9----|
|-7------------------------------------|---------------------------------------|
|--------------------------------------|---------------------------------------|


   E  S S E    S  S  +E     S S  S S  E
|-----------------------------------------|
|----------------21-(21)------------------|
|----21-------23-----------21---18--------|
|----------------18-(18)-------------21---|
|----19-------21-----------19-------------|
|-------------------------------21---19---|
|
|  E  S S S S  S  S   S  S  S S  S S  S S
|--7------7----7-----------------7--------|
|--9--5---9----0------9-----5----9--------|
|--9------9----9------9----------9--------|
|--9----9-------------6-------6-------6---|
|--7----7---------------------------------|
|-----------------------------------------|
|
|  H                 +Q          Q
|-----------------------------------------|
|--9-----------------(9)------------------|
|--9-----------------(9)------------------|
|--9-----------------(9)------------------|
|-----------------------------------------|
|-12----------------(12)------------------|


  E    S S Q       E  S S  S  S  S S
|-------------------------------------|
|--------------------21---19-17-16----|
|-----21------------------------------|
|--------------------18---16-14-13----|
|-----19------------------------------|
|-------------------------------------|
|
| S S  S S S S S S E  S S  S  S  S S
|-5--------5--------------------------|
|-5--------5---------------7----------|
|-6----6---6----------8----8-----8----|
|-7------7-----7---9----9-------------|
|-------------------------------------|
|-------------------------------------|
|
| H                E  E    E     E
|-------------------------------------|
|-------------------------------------|
|-------------------------------------|
|-7-------------------9---11-----9----|
|-------------------------------------|
|-------------------------------------|


  E  S S E    S S E    S S  E    E      +Q       Q      H
|---19-------19-------19--------21---|-(21)---------------------|
|---21-------21-------21--------22---|-(22)---------------------|
|------------------------------------|--------------------------|
|---21-------21-------21--------23---|-(23)---------------------|
|---23-------23-------23--------24---|-(24)---------------------|
|------------------------------------|--------------------------|
|
| E  S S S S  S S S S  S S  S S  S S     E  S S  S  S E E E E E
|--------7----7--------7-------------|--------------------------|
|----5---9----9--------9-------------|---2-------2--------------|
|------4-9----9--------9---16--------|---2--2----2------9---8---|
|-9-----------9---6-------------14---|---2----2-----2-----------|
|-7----------------------------------|---0----0-----0-----------|
|--------------------------16--------|------------------9---7---|
|
| W                                      Q      +S  S E Q   E E
|------------------------------------|--------------------------|
|------------------------------------|--------------------------|
|------------------------------------|------------------6-------|
|------------------------------------|----------------------9---|
|-7----------------------------------|--------------------------|
|------------------------------------|---5------(5)-----9---7---|


  E  S  S  S  S  S  S  S  S  E   E    S  S
|------------------------------------------|
|------------------------------------------|
|---------------------------20-------20-20-|
|---------21----21----23-------------------|
|---21-23----23----23----------------------|
|------------------------------------------|
|
| E  S  S  S  S  S  S  E     S S S S  S  S
|------------------------------------------|
|--------------------------------4---------|
|----------8---------------------4---------|
|----------9-----------------4---4---------|
|----9-----9-----9-------------------------|
|-7-----7--------------4-------4------4----|
|
| H                   +S  S  E   Q
|------------------------------------------|
|------------------------------------------|
|------------------------------------------|
|------------------------------------------|
|-6-------------------(6)------------------|
|------------------------------------------|


   S  S  S S  S S  S S  S  S  E   Q
|-----------------------------------------|
|-----------------12---14-12-10-----------|
|-18-16-14---14---------------------------|
|-----------------------------------------|
|-----------------------------------------|
|-----------------------------------------|
|
|  E     S S  S S  S S  E     S S S S S S
|-----------------------------------------|
|-------------5---------------2---2-------|
|-------------6---------------2---2-------|
|--------7----7----7----------2---2---2---|
|----------7----7-------------------------|
|--5--------------------2-------------2---|
|
|  W
|-----------------------------------------|
|-----------------------------------------|
|-----------------------------------------|
|-----------------------------------------|
|-----------------------------------------|
|-----------------------------------------|


  E  S S S S S S S S  E   E    S  S   S S  S S E   S S  S S E   S S S S
|--------7---7---9---11-------11-11-|-9------------9------------9---7---|
|------9---9---9--------------------|-----10-----------10---------------|
|---11------------------------------|-----------------------------------|
|-----------------------------------|-----------------------------------|
|-----------------------------------|-----------------------------------|
|-----------------------------------|-----------------------------------|
|
| E  S S S S S S E    S S S S  S  S   E    S S S S S S  E   S S S S S S
|-----------------------------------|-----------------------------------|
|--------4----------------4---------|----------5------------2---2-------|
|--------4----------------4---------|----------6------------2---2-------|
|----4---4---4--------4---4---------|------7---7---7--------2---2---2---|
|-2----2----------------------------|--------7---7----------------------|
|----------------4------4------4----|-5-----------------2-----------2---|


  E S S S S S S S S  E   E    S  S    S S  S S +E     S S  S  S E   Q
|-------7---7---9---11-------11-11-|-12---11-9-(9)---11---12-11-9-----------|
|---7-9---9---9--------------------|----------------------------------------|
|----------------------------------|----------------------------------------|
|----------------------------------|----------------------------------------|
|----------------------------------|----------------------------------------|
|----------------------------------|----------------------------------------|
|
| E S S S S S S E    S S S S  S  S    E    S S  S  S  S S  E    S S S S S S
|----------------------------------|----------------------------------------|
|-------4----------------4---------|------------5---------------2---2-------|
|-------4----------------4---------|------------6---------------2---2-------|
|---4---4---4--------4---4---------|-------7----7-----7---------2---2---2---|
|-2---2----------------------------|---------7-----7------------------------|
|---------------4------4------4----|--5--------------------2------------2---|


  E  S S E    S  S  +E     S S  S S  E
|---12-------14-16-(16)------------------|
|-------------------------17-------------|
|----9-------11-13-(13)--------18---16---|
|-------------------------14-------------|
|------------------------------16--------|
|-----------------------------------19---|
|
| E  S S S S  S  S   S  S  S S  S S  S S
|-7------7----7-----------------7--------|
|-9--5---9----0------9-----5----9--------|
|-9------9----9------9----------9--------|
|-9----9-------------6-------6-------6---|
|-7----7---------------------------------|
|----------------------------------------|
|
| Gtr III
| H                 +Q          Q
|----------------------------------------|
|-9-----------------(9)------------------|
|-9-----------------(9)------------------|
|-9-----------------(9)------------------|
|-7-----------------(7)------------------|
|----------------------------------------|


  E    E   E    S  S  +S  S  S S  E    S S
|------------------------------------------|
|-----17-------19-21-(21)-------------21---|
|---------------------------21---23--------|
|-----14-------16-18-(18)-------------18---|
|---------------------------19---21--------|
|------------------------------------------|
|
| S S  S S S S  S  S   E     S S  S S  S S
|-5--------5-------------------------------|
|-5--------5----------------------7--------|
|-6----6---6-----------------8----8----8---|
|-7------7------7------9-------9-----------|
|------------------------------------------|
|------------------------------------------|
|
| H                    E     E    E    E
|------------------------------------------|
|------------------------------------------|
|------------------------------------------|
|-7--------------------------9---11----9---|
|------------------------------------------|
|------------------------------------------|


  E  S S E    S S  S  S  S S  S S  E     E  S S E    S S  S  S  S S  S S  E
|--------------------------------------|---------------------------------------|
|-----------------21-21----------------|-----------------21-21-----------21----|
|---21-------23---------21---18--------|---21-------23---------21---23---------|
|-----------------18-18-----------21---|-----------------18-18-----------18----|
|---19-------21---------19-------------|---19-------21---------19---21---------|
|----------------------------21---19---|---------------------------------------|
|
| E  S S S S  S S  S  S  S S  S S  S S   E  S S S S  S S  E     S S  S S  S S
|--------7----7----------7-------------|--------0----0----------2---------2----|
|----5---9----9----------9-------------|--------2----2----------4---------4----|
|------4-9----9----------9---16--------|----2---2----2----------4----4----4----|
|-9-----------9----6--------------14---|-2----2---2----------------------------|
|-7------------------------------------|-0-------------------------------------|
|----------------------------16--------|---------------------------------------|
|
| W                                      E  S S S S  S S  Q          E    S S
|--------------------------------------|----------5----------------------------|
|--------------------------------------|----------5------------------7---------|
|--------------------------------------|-----------------------------8---------|
|--------------------------------------|----7--------7----9---------------9----|
|-7------------------------------------|---------------------------------------|
|--------------------------------------|---------------------------------------|


   E  S S E    S  S  +E     S S  S S  E
|-----------------------------------------|
|----------------21-(21)------------------|
|----21-------23-----------21---18--------|
|----------------18-(18)-------------21---|
|----19-------21-----------19-------------|
|-------------------------------21---19---|
|
|  E  S S S S  S  S   S  S  S S  S S  S S
|--7------7----7-----------------7--------|
|--9--5---9----0------9-----5----9--------|
|--9------9----9------9----------9--------|
|--9----9-------------6-------6-------6---|
|--7----7---------------------------------|
|-----------------------------------------|
|
|  H                 +Q          Q
|-----------------------------------------|
|--9-----------------(9)------------------|
|--9-----------------(9)------------------|
|--9-----------------(9)------------------|
|-----------------------------------------|
|-12----------------(12)------------------|


  E    S S Q       E  S S  S  S  S S
|-------------------------------------|
|--------------------21---19-17-16----|
|-----21------------------------------|
|--------------------18---16-14-13----|
|-----19------------------------------|
|-------------------------------------|
|
| S S  S S S S S S E  S S  S  S  S S
|-5--------5--------------------------|
|-5--------5---------------7----------|
|-6----6---6----------8----8-----8----|
|-7------7-----7---9----9-------------|
|-------------------------------------|
|-------------------------------------|
|
| H                E  E    E     E
|-------------------------------------|
|-------------------------------------|
|-------------------------------------|
|-7-------------------9---11-----9----|
|-------------------------------------|
|-------------------------------------|


  E  S S E    S S E    S S  E    E      +Q       Q      E  S S  S  S  S S
|---19-------19-------19--------21---|-(21)-------------------------------|
|---21-------21-------21--------22---|-(22)---------------21---19-17-16---|
|------------------------------------|------------------------------------|
|---21-------21-------21--------23---|-(23)---------------18---16-14-13---|
|---23-------23-------23--------24---|-(24)-------------------------------|
|------------------------------------|------------------------------------|
|
| E  S S S S  S S S S  S S  S S  S S     E  S S  S  S E E  E    E     E
|--------7----7--------7-------------|------------------------------------|
|----5---9----9--------9-------------|---2-------2------------------------|
|------4-9----9--------9---16--------|---2--2----2------9-------8---------|
|-9-----------9---6-------------14---|---2----2-----2---------------------|
|-7----------------------------------|---0----0-----0---------------------|
|--------------------------16--------|------------------9-------7---------|
|
| W                                      Q      +S  S E Q       Q
|------------------------------------|------------------------------------|
|------------------------------------|------------------------------------|
|------------------------------------|------------------6-----------------|
|------------------------------------|--------------------------9---------|
|-7----------------------------------|------------------------------------|
|------------------------------------|---5------(5)-----9-------7---------|


  E  S S E    S S E    S S  E    E      +Q       Q      H
|---19-------19-------19--------21---|-(21)---------------------|
|---21-------21-------21--------22---|-(22)---------------------|
|------------------------------------|--------------------------|
|---21-------21-------21--------23---|-(23)---------------------|
|---23-------23-------23--------24---|-(24)---------------------|
|------------------------------------|--------------------------|
|
| E  S S S S  S S S S  S S  S S  S S     E  S S  S  S E E E E E
|--------7----7--------7-------------|--------------------------|
|----5---9----9--------9-------------|---2-------2--------------|
|------4-9----9--------9---16--------|---2--2----2------9---8---|
|-9-----------9---6-------------14---|---2----2-----2-----------|
|-7----------------------------------|---0----0-----0-----------|
|--------------------------16--------|------------------9---7---|
|
| H               H                      Q      +S  S E Q   Q
|------------------------------------|--------------------------|
|------------------------------------|--------------------------|
|------------------------------------|------------------6-------|
|-9----------------------------------|----------------------9---|
|-7----------------------------------|--------------------------|
|------------------------------------|---5------(5)-----9---7---|


   E  S  S  S  S  S  S  S S  E     E    S  S
|--------------------------------------------|
|--------------------------------------------|
|----21----21----21----21---21---------21-24-|
|-------24----24----24-----------------------|
|-----------------------------------------22-|
|----24-22-24-22-24-22-24---24---------24----|
|
|  E  S  S  S  S  E     S S  S  S  S S  S  S
|--------------------------------------------|
|--8--------8-----------8--------------------|
|--0--------9-----------9---------12---------|
|----10-------10-------10---10----14---10----|
|-------10-------------12------12-15---------|
|--8-----8-----------------------------------|
|
|  Q        Q           Q          Q
|--------------------------------------------|
|--------------------------------------------|
|--------------------------------------------|
|-10--------------------7--------------------|
|-10--------------------0--------------------|
|--8-----------------------------------------|


   S S  S S  E     S  S  +Q      +S  S  E
|-------------------------------------------|
|-------------------------------------------|
|-23---23---23----21------------------------|
|--------------------24-(24)----(24)--------|
|-21---21---21------------------------------|
|-----------------24-22-(22)----(22)--------|
|
|  E    S S  S  S  S  S   E   E   S  S  S S
|-------------------------------------------|
|-10--------10-------------------12---------|
|-11----7---11-11----11------12--------12---|
|-----------------12---------12-------------|
|--9------9--------------10-----------------|
|-------------------------------------------|
|
|  Q         Q            H
|-------------------------------------------|
|--7----------------------------------------|
|------------7------------------------------|
|-------------------------9-----------------|
|-------------------------------------------|
|-------------------------------------------|


   E  S  S  S  S  S  S  S S  E     E    S  S
|--------------------------------------------|
|--------------------------------------------|
|----21----21----21----21---21---------21-24-|
|-------24----24----24-----------------------|
|-----------------------------------------22-|
|----24-22-24-22-24-22-24---24---------24----|
|
|  E  S  S  S  S  E     S S  S  S  S S  S  S
|--------------------------------------------|
|--8--------8-----------8--------------------|
|--0--------9-----------9---------12---------|
|----10-------10-------10---10----14---10----|
|-------10-------------12------12-15---------|
|--8-----8-----------------------------------|
|
|  Q        Q           Q          Q
|--------------------------------------------|
|--------------------------------------------|
|--------------------------------------------|
|-----------------------7--------------------|
|-10--------------------0--------------------|
|--8-----------------------------------------|


   S S  S S  E     S  S  +E   S  S  Q
|---------------------------------------------|
|---------------------------------------------|
|-23---23---23----21------------23-24---------|
|--------------------24-(24)------------------|
|-21---21---21------------------21-22---------|
|-----------------24-22-(22)------------------|
|
|  E    S S  S  S  S  S   E   E     S S  S S
|---------------------------------------------|
|-10--------10---------------------12---------|
|-11----7---11-11----11------12---------12----|
|-----------------12---------12---------------|
|--9------9--------------10-------------------|
|---------------------------------------------|
|
|  Q         Q            H
|---------------------------------------------|
|--7------------------------------------------|
|------------7--------------------------------|
|-------------------------9-------------------|
|---------------------------------------------|
|---------------------------------------------|


   E  S S  S S  S S  S S  S S  S S  S S    S S  S S  S   S  S S  Q      Q
|---------------------------------------|-------------------------------------|
|---------------------------------------|-------------------------------------|
|----21---21--------21---21---21---24---|-23---23---23--21--------------------|
|--------------24-----------------------|------------------24---24------------|
|----------------------------------22---|-21---21---21------------------------|
|----24---24---22---24---24---24--------|---------------24-22---22------------|
|
|  E  S S  S S  S S  E    S S  E    S S    Q         S   S  S S  E  S S S S E
|----------3-------------------0--------|------------2--------------3---3-----|
|-----1----5----1--------------1--------|-------------------3---------3-------|
|--0----0--5--------------2---------2---|-----------------------------4-------|
|--2----2-------------------------------|--4-------------4-------5------------|
|--3----3------------0------0-----------|-------------------------------------|
|---------------------------------------|-------------------------------------|
|
|  Q       Q         Q         Q           Q        +S   S  E    Q.         E
|---------------------------------------|-------------------------------------|
|---------------------------------------|--7--------(7)----------3------------|
|--9-----------------5------------------|--7--------(7)----------4------------|
|-10-----------------7------------------|--4--------(4)----------5------------|
|-10-----------------0------------------|-------------------------------------|
|--8------------------------------------|-------------------------------------|


  E  S S  S S  S S  S  S  E   E    S S    Q        Q        Q        E   E
|--------------------------------------|-------------------------------------|
|---------------------------------17---|-21-------22-------21-------19-------|
|---21---21---21---21----21-------21---|-------------------------------------|
|--------------------------------------|-18-------19-------18-------16-------|
|---------------------------------19---|-------------------------------------|
|---24---24---24---24----24------------|-------------------------------------|
|
| E  S S  S E    S  S  S  S S S S  S S    E   S S  S S S S  S S S S  S S S S
|-0-------0---------------0---0----0---|-------------------------------------|
|-2-------2---------2-----2---2----2---|-----------4-------------------------|
|-2--2----2---------2-----2---2----2---|------4----4---4----4---4----4---4---|
|-4--------------4--------4------------|-----------4---4----4---4----4---4---|
|--------------------------------------|--2----------------------------------|
|--------------------------------------|-----------7---7----7---7----7---7---|
|
| H                +Q.             E      S S S S  S S E    S S S S  S S S S
|-0----------------(0)-----------------|-------------------------------------|
|-2----------------(2)-----------------|-------------------------------------|
|-2----------------(2)-----------------|-------------------------------------|
|-4----------------(4)-----------------|-------------------------------------|
|--------------------------------------|--2---2----2---2----2---2----2---2---|
|--------------------------------------|-------------------------------------|


   E  S  S  E    S  S  +E     S S  S S  E
|-------------------------------------------|
|----19---------21-23-(23)------------------|
|----------------------------23---20--------|
|----16---------18-20-(20)-------------23---|
|----------------------------21-------------|
|---------------------------------23---21---|
|
|  E  S  S  S S  S  S   S  S  S S  S S  S S
|--9--------9----9-----------------9--------|
|-11--7----11----------11-----7---11--------|
|-11-------11---11-----11---------11--------|
|-11----11------11------8-------8-------8---|
|--9-----9----------------------------------|
|-------------------------------------------|
|
|  H                   +Q          Q
|--6-------------------(6)------------------|
|--7-------------------(7)------------------|
|--6-------------------(6)------------------|
|--4-------------------(4)------------------|
|-------------------------------------------|
|-------------------------------------------|


  E    E   E    S  S  +S  S  S  S  E    S S
|-------------------------------------------|
|--------------21-23-(23)---------21---23---|
|-----23--------------------23--------------|
|--------------18-20-(20)---------18---20---|
|-----21--------------------21--------------|
|-------------------------------------------|
|
| S S  S S S S  S  S   E     S  S  S S  S S
|-7--------7--------------------------------|
|-7--------7-----------------------9--------|
|-8----8---8----------------10----10---10---|
|-9------9------9-----11-------11-----------|
|-------------------------------------------|
|-------------------------------------------|
|
| H                    E     E     E    E
|-------------------------------------------|
|----------------------------2-----4----2---|
|-4-----------------------------------------|
|-------------------------------------------|
|-------------------------------------------|
|-------------------------------------------|


   E  S S  E    S S  S  S  S S  S S  E
|----------------------------------------|
|--------------21---23-23----------------|
|----23-------------------23---20--------|
|--------------18---20-20-----------23---|
|----21-------------------21-------------|
|------------------------------23---21---|
|
|  E  S S  S S  S S  S  S  S S  S S  S S
|----------9----9----------9-------------|
|-----7---11---11---------11-------------|
|-------6-11---11---------11---18--------|
|-11-----------11----8--------------16---|
|--9-------------------------------------|
|------------------------------18--------|
|
|  W
|----------------------------------------|
|----------------------------------------|
|----------------------------------------|
|--4-------------------------------------|
|----------------------------------------|
|----------------------------------------|


  E  S S E    S S  S  S  S S  S S  E
|---------------------------------------|
|------------21---23-23------21---23----|
|---23------------------23--------------|
|------------18---20-20------18---20----|
|---21------------------21--------------|
|---------------------------------------|
|
| E  S S S S  S S  E     S S  S S  S S
|--------2----2----------4---------4----|
|--------4----4----------6----2----6----|
|----4---4----4----------6---------6----|
|-4----4---4----------------------------|
|-2-------------------------------------|
|---------------------------------------|
|
| E  S S S S  S S  Q          E    S S
|----------7----------------------------|
|----------7------------------9---------|
|----4-----------------------10---------|
|-------------9---11--------------11----|
|---------------------------------------|
|---------------------------------------|


   E  S  S  E    S  S  +E     S S  S S  E
|-------------------------------------------|
|---------------21-23-(23)------------------|
|----23----------------------23---20--------|
|---------------18-20-(20)-------------23---|
|----21----------------------21-------------|
|---------------------------------23---21---|
|
|  E  S  S  S S  S  S   S  S  S S  S S  S S
|--9--------9----9-----------------9--------|
|-11--7----11----------11-----7---11--------|
|-11-------11---11-----11---------11--------|
|-11----11------11------8-------8-------8---|
|--9-----9----------------------------------|
|-------------------------------------------|
|
|  H                   +Q          Q
|-------------------------------------------|
|-11------------------(11)------------------|
|-11------------------(11)------------------|
|-11------------------(11)------------------|
|-------------------------------------------|
|-14------------------(14)------------------|


  E    S S Q        E  S  S  S  S  S S
|---------------------------------------|
|---------------------23----21-19-18----|
|-----23--------------------------------|
|---------------------20----18-16-15----|
|-----21--------------------------------|
|---------------------------------------|
|
| S S  S S S S S S  E  S  S  S  S  S S
|-7--------7----------------------------|
|-7--------7-----------------9----------|
|-8----8---8----------10----10----10----|
|-9------9-----9---11----11-------------|
|---------------------------------------|
|---------------------------------------|
|
| H                 E  E     E     E
|---------------------------------------|
|---------------------------------------|
|---------------------------------------|
|-9-------------------11----13----11----|
|---------------------------------------|
|---------------------------------------|


   E  S S  E    S S E    S S  E    E      +Q       Q       E  S S  S  S  S S
|----21--------18-------18--------23---|-(23)--------------------------------|
|---------------------------------24---|-(24)----------------23---21-19-18---|
|----18--------18-------18--------20---|-(20)--------------------------------|
|----20--------20-------20--------21---|-(21)----------------20---18-16-15---|
|--------------------------------------|-------------------------------------|
|--------------------------------------|-------------------------------------|
|
|  E  S S  S S  S S S S  S S  S S  S S     E  S S  S  S E  E  E    E     E
|----------9----9--------9-------------|-------------------------------------|
|-----7---11---11-------11-------------|---4-------4-------------------------|
|-------6-11---11-------11---18--------|---4--4----4------11------10---------|
|-11-----------11---8-------------16---|---4----4-----4----------------------|
|--9-----------------------------------|---2---------------------------------|
|----------------------------18--------|--------7-----7---11-------9---------|
|
|  W                                       Q      +S  S E  Q       E     E
|--------------------------------------|-------------------------------------|
|--------------------------------------|-------------------------------------|
|--------------------------------------|-------------------8-----------------|
|--------------------------------------|--------------------------11---------|
|--9-----------------------------------|-------------------------------------|
|--------------------------------------|---7------(7)-----11-------9---------|


   E  S S  E    S S E    S S  E    E      +Q       Q       H
|----21--------18-------18--------23---|-(23)-----------------------|
|---------------------------------24---|-(24)-----------------------|
|----18--------18-------18--------20---|-(20)-----------------------|
|----20--------20-------20--------21---|-(21)-----------------------|
|--------------------------------------|----------------------------|
|--------------------------------------|----------------------------|
|
|  E  S S  S S  S S S S  S S  S S  S S     E  S S  S  S E  E E  E E
|----------9----9--------9-------------|----------------------------|
|-----7---11---11-------11-------------|---4-------4----------------|
|-------6-11---11-------11---18--------|---4--4----4------11---10---|
|-11-----------11---8-------------16---|---4----4-----4-------------|
|--9-----------------------------------|---2------------------------|
|----------------------------18--------|--------7-----7---11----9---|
|
|  H                H                      Q      +S  S E  Q    E E
|--------------------------------------|----------------------------|
|--------------------------------------|----------------------------|
|--------------------------------------|-------------------8--------|
|-11-----------------------------------|-----------------------11---|
|--9-----------------------------------|----------------------------|
|--------------------------------------|---7------(7)-----11----9---|


   E  S S  E    S S  S S  S S  S S  S S    E.    S  Q       H
|---------------------------------------|----------------------------|
|----23--------23---23---23---21---19---|-19-------------------------|
|---------------------------------------|-------20-------------------|
|----20--------20---20---20---18---16---|-16-------------------------|
|---------------------------------------|-------18-------------------|
|---------------------------------------|----------------------------|
|
|  E  S S  S S  S S  S S  S S  S S  S S    E  S  S  S  S E  E E  E E
|----------9----9---------9-------------|----------------------------|
|-----7---11---11--------11-------------|--4--------4----------------|
|-------6-11---11--------11---18--------|--4--4-----4------11---10---|
|-11-----------11----8-------------16---|--4-----4-----4-------------|
|--9------------------------------------|--2-------------------------|
|-----------------------------18--------|--------7-----7---11----9---|
|
|  H                 H                     Q       +S  S E  Q    Q
|---------------------------------------|----------------------------|
|---------------------------------------|----------------------------|
|---------------------------------------|-------------------8--------|
|-11------------------------------------|-----------------------11---|
|--9------------------------------------|----------------------------|
|---------------------------------------|--7-------(7)-----11----9---|


   E  S S  E    S S  Q         S S  E      +Q       S  S E  H
|---------------------------------------|----------------------------|
|----23--------23---23--------21---19---|-(19)-----------------------|
|---------------------------------------|----------20----------------|
|----20--------20---20--------18---16---|-(16)-----------------------|
|---------------------------------------|----------18----------------|
|---------------------------------------|----------------------------|
|
|  E  S S  S S  S S  S S  S S  S S  S S     E  S S  S  S E  E E  E E
|----------9----9---------9-------------|----------------------------|
|-----7---11---11--------11-------------|---4-------4----------------|
|-------6-11---11--------11---18--------|---4--4----4------11---10---|
|-11-----------11----8-------------16---|---4----4-----4-------------|
|--9------------------------------------|---2------------------------|
|-----------------------------18--------|--------7-----7---11----9---|
|
|  W                                        Q      +S  S E  Q    E E
|---------------------------------------|----------------------------|
|---------------------------------------|----------------------------|
|---------------------------------------|-------------------8--------|
|---------------------------------------|-----------------------11---|
|--9------------------------------------|----------------------------|
|---------------------------------------|---7------(7)-----11----9---|


   E  S  S  E    S  S  +E     S S  S S  E
|-------------------------------------------|
|----19---------21-23-(23)------------------|
|----------------------------23---20--------|
|----16---------18-20-(20)-------------23---|
|----------------------------21-------------|
|---------------------------------23---21---|
|
|  E  S  S  S S  S  S   S  S  S S  S S  S S
|--9--------9----9-----------------9--------|
|-11--7----11----------11-----7---11--------|
|-11-------11---11-----11---------11--------|
|-11----11------11------8-------8-------8---|
|--9-----9----------------------------------|
|-------------------------------------------|
|
|  H                   +Q          Q
|-------------------------------------------|
|-11------------------(11)------------------|
|-11------------------(11)------------------|
|-11------------------(11)------------------|
|--9-------------------(9)------------------|
|-------------------------------------------|


  E    E   E    S  S  +S  S  S  S  E    S S
|-------------------------------------------|
|--------------21-23-(23)---------21---23---|
|-----23--------------------23--------------|
|--------------18-20-(20)---------18---20---|
|-----21--------------------21--------------|
|-------------------------------------------|
|
| S S  S S S S  S  S   E     S  S  S S  S S
|-7--------7--------------------------------|
|-7--------7-----------------------9--------|
|-8----8---8----------------10----10---10---|
|-9------9------9-----11-------11-----------|
|-------------------------------------------|
|-------------------------------------------|
|
| H                    E     E     E    E
|-------------------------------------------|
|-------------------------------------------|
|-------------------------------------------|
|-9-------------------------11----13---11---|
|-------------------------------------------|
|-------------------------------------------|


   E  S S  E    S S  S  S  S S  S S  E
|----------------------------------------|
|--------------21---23-23----------------|
|----23-------------------23---20--------|
|--------------18---20-20-----------23---|
|----21-------------------21-------------|
|------------------------------23---21---|
|
|  E  S S  S S  S S  S  S  S S  S S  S S
|----------9----9----------9-------------|
|-----7---11---11---------11-------------|
|-------6-11---11---------11---18--------|
|-11-----------11----8--------------16---|
|--9-------------------------------------|
|------------------------------18--------|
|
|  W
|----------------------------------------|
|----------------------------------------|
|----------------------------------------|
|----------------------------------------|
|--9-------------------------------------|
|----------------------------------------|


  E  S S E    S S  S  S  S S  S S  E
|---------------------------------------|
|------------21---23-23------21---23----|
|---23------------------23--------------|
|------------18---20-20------18---20----|
|---21------------------21--------------|
|---------------------------------------|
|
| E  S S S S  S S  E     S S  S S  S S
|--------2----2----------4---------4----|
|--------4----4----------6----2----6----|
|----4---4----4----------6---------6----|
|-4----4---4----------------------------|
|-2-------------------------------------|
|---------------------------------------|
|
| E  S S S S  S S  Q          E    S S
|----------7----------------------------|
|----------7------------------9---------|
|----------------------------10---------|
|----9--------9---11--------------11----|
|---------------------------------------|
|---------------------------------------|


   E  S  S  E    S  S  +E     S S  S S  E
|-------------------------------------------|
|---------------21-23-(23)------------------|
|----23----------------------23---20--------|
|---------------18-20-(20)-------------23---|
|----21----------------------21-------------|
|---------------------------------23---21---|
|
|  E  S  S  S S  S  S   S  S  S S  S S  S S
|--9--------9----9-----------------9--------|
|-11--7----11----------11-----7---11--------|
|-11-------11---11-----11---------11--------|
|-11----11------11------8-------8-------8---|
|--9-----9----------------------------------|
|-------------------------------------------|
|
|  H                   +Q          Q
|-------------------------------------------|
|-11------------------(11)------------------|
|-11------------------(11)------------------|
|-11------------------(11)------------------|
|-------------------------------------------|
|-14------------------(14)------------------|


  E    S S Q        E  S  S  S  S  S S
|---------------------------------------|
|---------------------23----21-19-18----|
|-----23--------------------------------|
|---------------------20----18-16-15----|
|-----21--------------------------------|
|---------------------------------------|
|
| S S  S S S S S S  E  S  S  S  S  S S
|-7--------7----------------------------|
|-7--------7-----------------9----------|
|-8----8---8----------10----10----10----|
|-9------9-----9---11----11-------------|
|---------------------------------------|
|---------------------------------------|
|
| H                 E  E     E     E
|---------------------------------------|
|---------------------------------------|
|---------------------------------------|
|-9-------------------11----13----11----|
|---------------------------------------|
|---------------------------------------|


   E  S S  E    S S E    S S  E    E      +Q       Q       E  S S  S  S  S S
|----21--------18-------18--------23---|-(23)--------------------------------|
|---------------------------------24---|-(24)----------------23---21-19-18---|
|----18--------18-------18--------20---|-(20)--------------------------------|
|----20--------20-------20--------21---|-(21)----------------20---18-16-15---|
|--------------------------------------|-------------------------------------|
|--------------------------------------|-------------------------------------|
|
|  E  S S  S S  S S S S  S S  S S  S S     E  S S  S  S E  E  E    E     E
|----------9----9--------9-------------|-------------------------------------|
|-----7---11---11-------11-------------|---4-------4-------------------------|
|-------6-11---11-------11---18--------|---4--4----4------11------10---------|
|-11-----------11---8-------------16---|---4----4-----4----------------------|
|--9-----------------------------------|---2---------------------------------|
|----------------------------18--------|--------7-----7---11-------9---------|
|
|  W                                       Q      +S  S E  Q       E     E
|--------------------------------------|-------------------------------------|
|--------------------------------------|-------------------------------------|
|--------------------------------------|-------------------8-----------------|
|--------------------------------------|--------------------------11---------|
|--9-----------------------------------|-------------------------------------|
|--------------------------------------|---7------(7)-----11-------9---------|


   E  S S  E    S S E    S S  E    E      +Q       Q       E  S S  S  S  S S
|----21--------18-------18--------23---|-(23)--------------------------------|
|---------------------------------24---|-(24)----------------23---21-19-18---|
|----18--------18-------18--------20---|-(20)--------------------------------|
|----20--------20-------20--------21---|-(21)----------------20---18-16-15---|
|--------------------------------------|-------------------------------------|
|--------------------------------------|-------------------------------------|
|
|  E  S S  S S  S S S S  S S  S S  S S     E  S S  S  S E  E  E    E     E
|----------9----9--------9-------------|-------------------------------------|
|-----7---11---11-------11-------------|---4-------4-------------------------|
|-------6-11---11-------11---18--------|---4--4----4------11------10---------|
|-11-----------11---8-------------16---|---4----4-----4----------------------|
|--9-----------------------------------|---2---------------------------------|
|----------------------------18--------|--------7-----7---11-------9---------|
|
|  H                H                      Q      +S  S E  Q       E     E
|--------------------------------------|-------------------------------------|
|--------------------------------------|-------------------------------------|
|--------------------------------------|-------------------8-----------------|
|-11-----------------------------------|--------------------------11---------|
|--9-----------------------------------|-------------------------------------|
|--------------------------------------|---7------(7)-----11-------9---------|


   E  S S  E    S S E    S S  E    E      +Q       Q       E  S S  S  S  S S
|----21--------18-------18--------23---|-(23)--------------------------------|
|---------------------------------24---|-(24)----------------23---21-19-18---|
|----18--------18-------18--------20---|-(20)--------------------------------|
|----20--------20-------20--------21---|-(21)----------------20---18-16-15---|
|--------------------------------------|-------------------------------------|
|--------------------------------------|-------------------------------------|
|
|  E  S S  S S  S S S S  S S  S S  S S     E  S S  S  S E  E  E    E     E
|----------9----9--------9-------------|-------------------------------------|
|-----7---11---11-------11-------------|---4-------4-------------------------|
|-------6-11---11-------11---18--------|---4--4----4------11------10---------|
|-11-----------11---8-------------16---|---4----4-----4----------------------|
|--9-----------------------------------|---2---------------------------------|
|----------------------------18--------|--------7-----7---11-------9---------|
|
|  H                H                      Q      +S  S E  Q       E     E
|--------------------------------------|-------------------------------------|
|--------------------------------------|-------------------------------------|
|--------------------------------------|-------------------8-----------------|
|-11-----------------------------------|--------------------------11---------|
|--9-----------------------------------|-------------------------------------|
|--------------------------------------|---7------(7)-----11-------9---------|


   H                  +Q.              E     W
|------------------------------------------|-------------------------|
|-19-----------------(19)------------------|-------------------------|
|------------------------------------------|-------------------------|
|-16-----------------(16)------------------|-------------------------|
|------------------------------------------|-------------------------|
|------------------------------------------|-------------------------|
|
|  E   S S  S S  S S   S  S  S S  S S  S S   E S S S S E  E  E  E E
|-----------9----9-----------9-------------|-------------------------|
|------7---11---11----------11-------------|-4-----4-----------------|
|--------6-11---11----------11---18--------|-4-4---4-----11----10----|
|-11------------11-----8--------------16---|-4---4---4---------------|
|--9---------------------------------------|-2-----------------------|
|--------------------------------18--------|-----7---7---11-----9----|
|
|  S S S S  S S  S S   E     S S  E    S S   H            E  E  E E
|----------------------9-------9-------9---|-9-----------14-13-11-9--|
|--7---7-7--7-7--7-7-----------------------|-------------------------|
|------------------------------------------|-------------------------|
|------------------------------------------|-------------------------|
|------------------------------------------|-------------------------|
|------------------------------------------|-------------------------|


  Gtr II
  Q  S S S S S S S S S S S S    S  S S S S S S S H      +H     H
|----------------------------|------------------------|-------------*|
|-2------2-2---2-------2-----|------------------------|-------------*|
|-3------3-3---------------3-|------------------------|-------------*|
|-4------4-4-----------------|--4------4-------4------|-------------*|
|----------------------------|------------------------|-------------*|
|-2--2-2---2-2-2---2-2-------|-------2-----2-----2----|-(2)---------*|
|
| Gtr III
| W                            +W                        W
|----------------------------|------------------------|-------------*|
|-9--------------------------|-(9)--------------------|-------------*|
|----------------------------|------------------------|-------------*|
|----------------------------|------------------------|-------------*|
|----------------------------|------------------------|-------------*|
|----------------------------|------------------------|-------------*|


Duration Legend
---------------
W - whole; H - half; Q - quarter; E - 8th; S - 16th; T - 32nd; X - 64th; a - acciaccatura
+ - note tied to previous; . - note dotted; .. - note double dotted
Uncapitalized letters represent notes that are staccato (1/2 duration)
Irregular groupings are notated above the duration line
Duration letters will always appear directly above the note/fret number it represents the
duration for.  Duration letters with no fret number below them represent rests.  Multi-
bar rests are notated in the form Wxn, where n is the number of bars to rest for.  Low
melody durations appear below the staff

Tablature Legend
----------------
 h   - hammer-on
 p   - pull-off
 b   - bend
 pb  - pre-bend
 r   - bend release (if no number after the r, then release immediately)
 /\  - slide into or out of (from/to "nowhere")
 s   - legato slide
 S   - shift slide
  - natural harmonic
[n]  - artificial harmonic
n(n) - tapped harmonic
 ~   - vibrato
 tr  - trill
 T   - tap
 TP  - trem. picking
 PM  - palm muting
\n/  - tremolo bar dip; n = amount to dip
 \n  - tremolo bar down
 n/  - tremolo bar up
/n\  - tremolo bar inverted dip
 =   - hold bend; also acts as connecting device for hammers/pulls
 <>  - volume swell (louder/softer)
 x   - on rhythm slash represents muted slash
 o   - on rhythm slash represents single note slash

Misc Legend
-----------
 |  - bar
||  - double bar
||o - repeat start
o|| - repeat end
*|  - double bar (ending)
 :  - bar (freetime)
 $  - Segno
 &  - Coda
Tempo markers -  = BPM(8/16=s8/s16), where s8 = swing 8ths, s16 = swing 16ths
comments
We did not receive enough feedback on this tab! Please rate:
print report bad tab
1 2 3 4 5
I want to post or [tab]
guest
You may want to rate the tab now too:
select rating
Please do not post tabs as comments. Select "correction" instead!