Oops, an error
Loading. Please wait.

Evidence Tab

16,541 views 57 this week
1 commentread comment
1 2 3 4 5
accurate
x 2
Autoscroll
+/-
esc
set tempo
stop
Contributor
Difficulty
intermediate
WARNING: You are trying to view
                                    content from Ultimate-Guitar.com
                                    in an unauthorized application,
                                    which is prohibited.

                                    Please use an official Ultimate
                                    Guitar Tabs application for iPhone,
                                    iPad or Android to access legitimate
                                    chords, guitar, bass, and drum tabs
                                    from Ultimate-Guitar.com database.

                                    Type "ultimate guitar tabs" in Apple
                                    App Store's or Android Market's
                                    search to find the application.
#----------------------------------PLEASE NOTE----------------------------------#
# This file is the author's own work and represents their interpretation of the #
# song. You may only use this file for private study, scholarship, or research. #
#-------------------------------------------------------------------------------#


INTRO:
------

  NC(Am) Wah Wah                  4x Am       Am/G
E|-x-x-x-x-x-x-x-x-x-x-x-x-----x-x--|------------------|
B|-x-x-x-x-x-x-x-x-x-x-x-x-----x-x--|-1----------------|
G|---------------------------------.|-2----------------|
D|---------------------------------.|-2----------------|
A|----------------------------------|-0----------------|
E|----------------------------------|------------------|

  Am/F#     Am/F   Em
E|----------------|-0---------------|-0----------------|
B|-(1)------------|-3---------------|-3----------------|
G|-(2)------------|-0---------------|-0----------------|
D|-(2)------------|-2---------------|-2----------------|
A|-(0)------------|-----------------|------------------|
E|----------------|-----------------|------------------|


1ST VERSE:
----------

  Rhy. Fig. 1
  Am    Am/G    Am/F# Am/F    Em
E|----8----8---|----8----8---|----7----7---|----7----7--|
B|----10---10--|----10---10--|----8----8---|----8----8--|
G|-------------|-------------|-------------|------------|
D|-------------|-------------|-------------|------------|
A|-------------|-------------|-------------|------------|
E|-------------|-------------|-------------|------------|

  w/Rhy.Fig.1 (3x)
  Am          Em
E|-----|-----|--------------------|--------------------|
B|-----|-----|--------------------|--------------------|
G|-----|-----|--------------------|--------------------|
D|-----|-----|---------5-5h7------|-----5-5h7----------|
A|-----|-----|-----5h7------------|-5h7-------7--------|
E|-----|-----|-(7)--------------7-|--------------------|

  Am          Em
E|-----|-----|--------------------|----------------------|
B|-----|-----|--------------------|-8xx8--xxx8-x8--x8s10-|
G|-----|-----|--------------------|----------------------|
D|-----|-----|----------------5-x-|-5--------5-----------|
A|-----|-----|--------------------|----------------------|
E|-----|-----|--------------------|----------------------|
                      
  Am          Em                   (piano a.f. guitar)
E|-----|-----|--------------------|------------------|
B|-(10)|-----|--------------------|------------------|
G|-----|-----|--------------------|--------12-14---12|
D|-----|-----|--------------------|----14------------|
A|-----|-----|--------------------|------------------|
E|-----|-----|--------------------|------------------|

  Am
  Riff A(keyboard)
E|----------------------|------------------------------|
B|----------------------|------------------------------|
G|-14----14----12----14-|-(14)---------12-14-----------|
D|----------------14----|-----------14-----------------|
A|----------------------|------------------------------|
E|----------------------|------------------------------|
  Riff A1(Guitar)       |
E|-0--------------------|-(0)--------------------------|
B|-0--------------------|-(0)--------------------------|
G|-5--------------------|-(5)--------------------------|
D|-7--------------------|-(7)--------------------------|
A|----------------------|------------------------------|
E|----------------------|------------------------------|

  Em
E|-12-12--------------------|--------------------------|
B|--------------------------|--------------------------|
G|--------14--12--12-14-12--|(12)--------12-14--12-----|
D|--------------14----------|---------14---------------|
A|--------------------------|--------------------------|
E|--------------------------|--------------------------|
                            |
E|--------------------------|--------------------------|
B|--------------------------|--------------------------|
G|--------------------------|--------------7-5--7------|
D|--------------------------|---------7\5--------------|
A|--------------------------|--------------------------|
E|--------------------------|--------------------------|

  Am
E|---------------------|-------------------------------|
B|---------------------|-------------------------------|
G|--14---14---12---14--|(14)----14--12-----------------|
D|--------------14-----|---------------14--------------|
A|---------------------|-------------------------------|
E|---------------------|-------------------------------|
                       |
E|---------------------|-------------------------------|
B|---------------------|-------------------------------|
G|-7h9~~7h9~~-7---7h9~~|(9)----7h8--7------------------|
D|--------------9------|--------------9~~--------------|
A|---------------------|-------------------------------|
E|---------------------|-------------------------------|

  Em              (end RiffA) 
E|---------------------------|-------------------------|
B|---------------------------|-------------------------|
G|---------------------------|------------12-14--12----|
D|-12-12---12---12--12-14-12-|-12------14--------------|
A|----------------15---------|-------------------------|
E|---------------------------|-------------------------|
  
                           |              (end RiffA1)
E|---------------------------|-------------------------|
B|---------------------------|-------------------------|
G|---------------------------|-------------------------|
D|-7--7-----7---7\5-7/9\7----|(7)----------------------|
A|---------------------------|-------------------------|
E|---------------------------|-------------------------|


PRE-CHORUS:
-----------

  w/RiffA 
  Am                                     
E|--------12-10s9-10-10-12----|------------------------|
B|-----10------------------13-|(13)--------------------|       
G|--9-----9—7\--5-7—7/-9------|------------------------|
D|-----7-------------------10-|(10)--------------------|
A|--7-------------------------|------------------------|
E|----------------------------|------------------------|

  Em
E|--------12/15--12----------------|-------------------|
B|---(12)--------------------------|-------------------|
G|---------9/12---9--13—12/13\-12--|(12)---------------|
D|---(9)---------------------------|-------------------|
A|-------------------10---9/10\-9--|-(9)---------------|
E|---------------------------------|-------------------|

  Am
E|--------12—10/8--10—10/12------|-------------------|
B|-----10----------------------13--|(13)-------12/13---|
G|--9-----9----7/5--7----7/9-------|-------------------|
D|-----7-----------------------10--|(10)--------9/10---|
A|--7------------------------------|-------------------|
E|---------------------------------|-------------------|

  Em
E|-----------------------------|-----------------------|
B|--12----12/13--12--10--------|-----------------------|
G|-----------------------7/9\7-|(7)--------------------|
D|--9------9/10--9---7---------|-----------------------|
A|-----------------------5/7\5-|(5)--------------------|
E|-----------------------------|----------------(7)s---|



CHORUS:
-------
  
E|----------------|--------------------|------------------|
B|-10--10--10--10-|-(7)/12-12-12----10-|------10--10--10--|
G|----------------|-(7)/12-12-12----10-|-9/---------------|
D|--7---7---7---7-|-(8)/12-12-12----10-|-9/----7---7---7--|
A|----------------|--------------------|------------------|
E|----------------|--------------------|------------------|

E|(12)----------------------|------------|-------------|
B|-12--12--10--------10--10-|-10--(10)/--|-------5-----|
G|-12--12--12----10---9---7-|--9--(-9)/--|-------5-----|
D|-13--12--10----10--10--10-|-10--(10)/--|-------------|
A|--------------------------|------------|-------------|
E|--------------------------|------------|-------------|

E|-----------------||
B|-10--10--10--10--||
G|----------------.||
D|--7---7---7---7-.||
A|-----------------||
E|-----------------||



POST-CHORUS:
------------

E|-------5----------7------|------5-|------3----------5----|
B|-------------------------|--------|----------------------|
G|-4/5------5—5/-7-------7-|-7s5----|-2s4-----4—4/-5-----5-|
D|-------------------------|--------|----------------------|
A|-------------------------|--------|----------------------|
E|-------------------------|--------|----------------------|

E|------7----------------10---------|
B|----------------------------------|
G|-5/7--------7---7/10--------10/---|
D|----------------------------------|
A|----------------------------------|
E|----------------------------------|



2ND VERSE:
----------

  Am
E|------12-x-----12--------|---------x-------12--------|
B|------13-x-----13-----13-|-----------------13--13-13-|
G|-x-x---------------14----|--(0)--------x-x-14--14-14-|
D|-------------------------|---------------------------|
A|-------------------------|---------------------------|
E|-------------------------|---------------------------|

E|-------12-------------15--15-15-|--------------------|
B|---x-x-12-x-x----12-x-12--12-15-|--------------------|
G|--------------------------------|--------------------|
D|--------------------------------|--------------------|
A|--------------------------------|--------------------|
E|--------------------------------|--------------------|

E|----------12--------------12--12-15------------------|
B|---x-12-x-12--x-x---x-x-x-12--12---------------------|     
G|-----------------------------------------------------|
D|-----------------------------------------------------|
A|-----------------------------------------------------|
E|-----------------------------------------------------|

E|---------12--x-----------12-12-|-------12-x-------12-12--|
B|---------13----------13--13-13-|-------13-x-------13-13--|
G|--x-x-x----------x-x-14--------|-x-x-x-------x-14--------|
D|-------------------------------|-------------------------|
A|-------------------------------|-------------------------|
E|-------------------------------|-------------------------|
  
  Em
E|------12--x-x-x-x-x-x-12-12-12-12--------------------|
B|--x-x-12--x-x-x-x-x-x-12-12-12-12--------------------|
G|-----------------------------------------------------|
D|-----------------------------------------------------|
A|-----------------------------------------------------|
E|-----------------------------------------------------|

E|--------12-----------------12------------------------|
B|----x-x-12--x-x-x-x----x-----------------------------|
G|---------------------------12-14--12-----------------|
D|-----------------------14----------------------------|
A|-----------------------------------------------------|
E|-----------------------------------------------------|



PLAY RIFF A & A1
----------------



CHORUS (W/RHY FIG. 2)
---------------------



SOLO: (Come in the last bar of the chorus)
-----

E|-------------------------------|
B|-------------------------------|
G|-------------------5---5-7--5--|
D|-------5---5-7p5h7---7---------|
A|-7p5h7---7---------------------|
E|-------------------------------|

  Am                                  Em/A
E|-----|-----------------------------|-----------------|
B|-----|-----------------------------|-----------------|
G|-7^--|-----5-5h7-5h7~~----5----5h7-|-4~~---2h4-------|
D|-----|-5h7-----------------(7)-----|-----------------|
A|-----|-----------------------------|-----------------|
E|-----|-----------------------------|-----------------|

E|-----------------------------------------------------|
B|-8/10------------------10—10/8-8-8------------------|
G|-------8/7----5~~~~----------------------------------|
D|-5/7--------------------7---7/5-5-5------------------|
A|-------6/5----3~~~~----------------------------------|
E|-----------------------------------------------------|

  Am
E|---------------------------------------|-------------|
B|-8/10-10-10-10/8-----------------0-0---|-------------|
G|------------------8/7----5~~-----5-5/--|-----------5-|
D|-5-/7--7--7—7/5------------------------|-------5-7---|
A|------------------6/5----3~~-----3-3/--|-5-6-7-------|
E|---------------------------------------|-------------|

  Em/A
E|-----------------------------------------------------|
B|-----------------------------------------------------|
G|-7bu-7bu-7bu5~~~-(5)sd-------------------------------|
D|-----------------------------------------------------|
A|-----------------------------------------------------|
E|-----------------------------------------------------|

E|---12p10--10-----------------------------------------------|
B|--------12--12-10h12p10h12p10------------------------------|
G|-----------------------------12p9p12p9---------------------|
D|--------------------------------------12p10h12p10----------|
A|-------------------------------------------------12-10-12--|
E|-----------------------------------------------------------|

  Am                                 Am/E
E|-------------|--------------------|------------------|
B|-------------|---------13~~-------|------------------|
G|-------------|---12/14------14p12-|------------------|
D|-------------|--------------------|------------------|
A|-12~~-(12)sd-|--------------------|-13p12~~-(12)sd---|
E|-------------|--------------------|------------------|

                 Am
E|---12--10-----|----------------------|-------------------|
B|---12--10--12-|-13-------------------|-------------------|
G|---10--12--12-|-14--(14)sd---------5-|(5)---------8/7--5-|
D|---10--10--12-|-----------------5-7--|----7--5-7---------|
A|--------------|-------------5--7-----|------------6/5--3-|
E|--------------|----------------------|-------------------|

E|----------------13--13----13-12-|-----10--10--------15---|
B|------------13--12--12----12-12-|-----10--10----13--13---|
G|-(5)--------12--10--10----10-10-|-----12--12----10-------|
D|------------10--10--10-(x)10-10-|--10-----10-(x)10--14---|  
A|-(3)-----10---------------------|------------------------|
E|--------------------------------|------------------------|

  F6  Gadd9                          F6
E|---|------10/12-10\8-10—10/12----|--------------------|
B|---|---10----------------------13-|(13)------12/13\12--|
G|---|-9----7-/9---7\5--7---7/9-----|--------------------|
D|---|---7-----------------------10-|(10)-------9/10\9---|
A|---|-7----------------------------|--------------------|
E|---|------------------------------|--------------------|

  Gadd9                            F6
E|--------------------------------|--------------------|
B|-(12)------12/13--12--10--------|--------------------|
G|--------------------------7/9\7-|-(7)----------------|
D|--(9)-------9/10---9---7--------|--------------------|
A|--------------------------5/7\5-|-(5)----------------|
E|--------------------------------|--------------------|

  Gadd9
E|-----|-----5------|-----7----------------------------|
B|-----|------------|------------8-8-8-8-8-8-8-8-x-----|
G|---4-|-4s5------5-|-5/7-----7--7-7-7-7-7-7-7-7-x-----|
D|-----|------------|------------6-6-6-6-6-6-6-6-x-----|
A|-----|------------|------------7-7-7-7-7-7-7-7-x-----|
E|-----|------------|----------------------------------|

E|-----------------------------------|-----------------|
B|---------------12------------------|-------10-10-10--|
G|------------12-12------------------|-----------------|
D|------12-14---x12-----------9------|-------7--7--7---|
A|-13h14------------------------xx10-|(10)-x-----------|
E|-------------------10h11h12--------|-----------------|



PLAY RHY. FIG 2 (1ST 7 BARS ONLY)
---------------------------------

Three bars into this, play this.

E|-15--15--|-15--15-|
B|-12--12--|-12--12-|
G|---------|--------|
D|---------|--------|
A|---------|--------|
E|---------|--------|



END:
----

E|-----------------|----------------|
B|-----------------|----------5-5---|
G|-----------------|-5--5h7---5-5---|
D|------5-5h7--5h7-|----------------|
A|--0-7------------|----------------|
E|-----------------|----------------|

E|---------------------------------------------------------|
B|----------h13-17tp12h15p12h17-20tp17p12h17-20tp17p12h15--|
G|h14-16tp12-----------------------------------------------|
D|---------------------------------------------------------|
A|---------------------------------------------------------|
E|---------------------------------------------------------|

E|---------------------------------------------------------|
B|---------------------------------------------------------|
G|-16tp12h14p12--------------------------------------------|
D|-------------h14p12h14-----------------------------------|
A|---------------------------------------------------------|
E|---------------------------------------------------------|





comments
We did not receive enough feedback on this tab! Please rate:
print report bad tab
1 2 3 4 5
1 comment total.
0 reply
Eifler121 wrote on August 25 2010, 04:47 pm

This tab is pretty good from the Intro through the keyboard part, but I don't know where the pre-chorus is , so It's hard to follow after that.

I want to post or [tab]
guest
You may want to rate the tab now too:
select rating
Please do not post tabs as comments. Select "correction" instead!